  0
SECTION
  2
HEADER
  9
$ACADVER
  1
AC1015
  9
$ACADMAINTVER
 70
     6
  9
$DWGCODEPAGE
  3
ANSI_1252
  9
$INSBASE
 10
0.0
 20
0.0
 30
0.0
  9
$EXTMIN
 10
1.000000000000000E+20
 20
1.000000000000000E+20
 30
1.000000000000000E+20
  9
$EXTMAX
 10
0.0
 20
0.0
 30
0.0
  9
$LIMMIN
 10
0.0
 20
0.0
  9
$LIMMAX
 10
42.0
 20
32.0
  9
$ORTHOMODE
 70
     1
  9
$REGENMODE
 70
     1
  9
$FILLMODE
 70
     1
  9
$QTEXTMODE
 70
     0
  9
$MIRRTEXT
 70
     1
  9
$LTSCALE
 40
0.75
  9
$ATTMODE
 70
     1
  9
$TEXTSIZE
 40
0.36
  9
$TRACEWID
 40
0.05
  9
$TEXTSTYLE
  7
STANDARD
  9
$CLAYER
  8
0
  9
$CELTYPE
  6
BYLAYER
  9
$CECOLOR
 62
   256
  9
$CELTSCALE
 40
1.0
  9
$DISPSILH
 70
     0
  9
$DIMSCALE
 40
4.0
  9
$DIMASZ
 40
0.125
  9
$DIMEXO
 40
0.062
  9
$DIMDLI
 40
0.375
  9
$DIMRND
 40
0.0
  9
$DIMDLE
 40
0.0
  9
$DIMEXE
 40
0.08
  9
$DIMTP
 40
0.0
  9
$DIMTM
 40
0.0
  9
$DIMTXT
 40
0.09
  9
$DIMCEN
 40
-0.06
  9
$DIMTSZ
 40
0.0
  9
$DIMTOL
 70
     0
  9
$DIMLIM
 70
     0
  9
$DIMTIH
 70
     1
  9
$DIMTOH
 70
     1
  9
$DIMSE1
 70
     0
  9
$DIMSE2
 70
     0
  9
$DIMTAD
 70
     0
  9
$DIMZIN
 70
     0
  9
$DIMBLK
  1

  9
$DIMASO
 70
     0
  9
$DIMSHO
 70
     0
  9
$DIMPOST
  1

  9
$DIMAPOST
  1

  9
$DIMALT
 70
     0
  9
$DIMALTD
 70
     2
  9
$DIMALTF
 40
25.4
  9
$DIMLFAC
 40
1.0
  9
$DIMTOFL
 70
     0
  9
$DIMTVP
 40
0.0
  9
$DIMTIX
 70
     0
  9
$DIMSOXD
 70
     0
  9
$DIMSAH
 70
     0
  9
$DIMBLK1
  1

  9
$DIMBLK2
  1

  9
$DIMSTYLE
  2
STANDARD
  9
$DIMCLRD
 70
     0
  9
$DIMCLRE
 70
     0
  9
$DIMCLRT
 70
     0
  9
$DIMTFAC
 40
1.0
  9
$DIMGAP
 40
0.09375
  9
$DIMJUST
 70
     0
  9
$DIMSD1
 70
     0
  9
$DIMSD2
 70
     0
  9
$DIMTOLJ
 70
     1
  9
$DIMTZIN
 70
     0
  9
$DIMALTZ
 70
     0
  9
$DIMALTTZ
 70
     0
  9
$DIMUPT
 70
     0
  9
$DIMDEC
 70
     5
  9
$DIMTDEC
 70
     5
  9
$DIMALTU
 70
     5
  9
$DIMALTTD
 70
     2
  9
$DIMTXSTY
  7
STANDARD
  9
$DIMAUNIT
 70
     0
  9
$DIMADEC
 70
     0
  9
$DIMALTRND
 40
0.0
  9
$DIMAZIN
 70
     0
  9
$DIMDSEP
 70
    46
  9
$DIMATFIT
 70
     3
  9
$DIMFRAC
 70
     2
  9
$DIMLDRBLK
  1

  9
$DIMLUNIT
 70
     5
  9
$DIMLWD
 70
    -2
  9
$DIMLWE
 70
    -2
  9
$DIMTMOVE
 70
     2
  9
$LUNITS
 70
     5
  9
$LUPREC
 70
     5
  9
$SKETCHINC
 40
0.1
  9
$FILLETRAD
 40
0.0
  9
$AUNITS
 70
     0
  9
$AUPREC
 70
     0
  9
$MENU
  1
SIMPSON
  9
$ELEVATION
 40
0.0
  9
$PELEVATION
 40
0.0
  9
$THICKNESS
 40
0.0
  9
$LIMCHECK
 70
     0
  9
$CHAMFERA
 40
0.0
  9
$CHAMFERB
 40
0.0
  9
$CHAMFERC
 40
0.0
  9
$CHAMFERD
 40
0.0
  9
$SKPOLY
 70
     0
  9
$TDCREATE
 40
2448957.705422801
  9
$TDUCREATE
 40
2448958.038756135
  9
$TDUPDATE
 40
2453817.64250007
  9
$TDUUPDATE
 40
2453817.975833403
  9
$TDINDWG
 40
0.1664736227
  9
$TDUSRTIMER
 40
0.1664736227
  9
$USRTIMER
 70
     1
  9
$ANGBASE
 50
0.0
  9
$ANGDIR
 70
     0
  9
$PDMODE
 70
     0
  9
$PDSIZE
 40
0.0
  9
$PLINEWID
 40
0.0
  9
$SPLFRAME
 70
     0
  9
$SPLINETYPE
 70
     6
  9
$SPLINESEGS
 70
     8
  9
$HANDSEED
  5
91
  9
$SURFTAB1
 70
     6
  9
$SURFTAB2
 70
     6
  9
$SURFTYPE
 70
     6
  9
$SURFU
 70
     6
  9
$SURFV
 70
     6
  9
$UCSBASE
  2

  9
$UCSNAME
  2

  9
$UCSORG
 10
0.0
 20
0.0
 30
0.0
  9
$UCSXDIR
 10
1.0
 20
0.0
 30
0.0
  9
$UCSYDIR
 10
0.0
 20
1.0
 30
0.0
  9
$UCSORTHOREF
  2

  9
$UCSORTHOVIEW
 70
     0
  9
$UCSORGTOP
 10
0.0
 20
0.0
 30
0.0
  9
$UCSORGBOTTOM
 10
0.0
 20
0.0
 30
0.0
  9
$UCSORGLEFT
 10
0.0
 20
0.0
 30
0.0
  9
$UCSORGRIGHT
 10
0.0
 20
0.0
 30
0.0
  9
$UCSORGFRONT
 10
0.0
 20
0.0
 30
0.0
  9
$UCSORGBACK
 10
0.0
 20
0.0
 30
0.0
  9
$PUCSBASE
  2

  9
$PUCSNAME
  2

  9
$PUCSORG
 10
0.0
 20
0.0
 30
0.0
  9
$PUCSXDIR
 10
1.0
 20
0.0
 30
0.0
  9
$PUCSYDIR
 10
0.0
 20
1.0
 30
0.0
  9
$PUCSORTHOREF
  2

  9
$PUCSORTHOVIEW
 70
     0
  9
$PUCSORGTOP
 10
0.0
 20
0.0
 30
0.0
  9
$PUCSORGBOTTOM
 10
0.0
 20
0.0
 30
0.0
  9
$PUCSORGLEFT
 10
0.0
 20
0.0
 30
0.0
  9
$PUCSORGRIGHT
 10
0.0
 20
0.0
 30
0.0
  9
$PUCSORGFRONT
 10
0.0
 20
0.0
 30
0.0
  9
$PUCSORGBACK
 10
0.0
 20
0.0
 30
0.0
  9
$USERI1
 70
     0
  9
$USERI2
 70
     0
  9
$USERI3
 70
     0
  9
$USERI4
 70
     0
  9
$USERI5
 70
     0
  9
$USERR1
 40
0.0
  9
$USERR2
 40
0.0
  9
$USERR3
 40
0.0
  9
$USERR4
 40
0.0
  9
$USERR5
 40
0.0
  9
$WORLDVIEW
 70
     1
  9
$SHADEDGE
 70
     3
  9
$SHADEDIF
 70
    70
  9
$TILEMODE
 70
     1
  9
$MAXACTVP
 70
    16
  9
$PINSBASE
 10
0.0
 20
0.0
 30
0.0
  9
$PLIMCHECK
 70
     0
  9
$PEXTMIN
 10
1.000000000000000E+20
 20
1.000000000000000E+20
 30
1.000000000000000E+20
  9
$PEXTMAX
 10
-1.000000000000000E+20
 20
-1.000000000000000E+20
 30
-1.000000000000000E+20
  9
$PLIMMIN
 10
0.0
 20
0.0
  9
$PLIMMAX
 10
12.0
 20
9.0
  9
$UNITMODE
 70
     0
  9
$VISRETAIN
 70
     0
  9
$PLINEGEN
 70
     0
  9
$PSLTSCALE
 70
     0
  9
$TREEDEPTH
 70
  3020
  9
$CMLSTYLE
  2
STANDARD
  9
$CMLJUST
 70
     0
  9
$CMLSCALE
 40
1.0
  9
$PROXYGRAPHICS
 70
     1
  9
$MEASUREMENT
 70
     0
  9
$CELWEIGHT
370
    -1
  9
$ENDCAPS
280
     0
  9
$JOINSTYLE
280
     0
  9
$LWDISPLAY
290
     0
  9
$INSUNITS
 70
     0
  9
$HYPERLINKBASE
  1

  9
$STYLESHEET
  1

  9
$XEDIT
290
     1
  9
$CEPSNTYPE
380
     0
  9
$PSTYLEMODE
290
     1
  9
$FINGERPRINTGUID
  2
{69B101A7-8CA8-11D5-BE3F-00508B5FCD51}
  9
$VERSIONGUID
  2
{CCEA5758-DBEE-4F28-ABC8-07EF1FEC6B46}
  9
$EXTNAMES
290
     1
  9
$PSVPSCALE
 40
0.0
  9
$OLESTARTUP
290
     0
  0
ENDSEC
  0
SECTION
  2
CLASSES
  0
CLASS
  1
DICTIONARYVAR
  2
AcDbDictionaryVar
  3
AutoCAD 2000
 90
        0
280
     0
281
     0
  0
CLASS
  1
LWPOLYLINE
  2
AcDbPolyline
  3
AutoCAD 2000
 90
        0
280
     0
281
     1
  0
CLASS
  1
ACDBDICTIONARYWDFLT
  2
AcDbDictionaryWithDefault
  3
AutoCAD 2000
 90
        0
280
     0
281
     0
  0
CLASS
  1
ACDBPLACEHOLDER
  2
AcDbPlaceHolder
  3
ObjectDBX Classes
 90
        0
280
     0
281
     0
  0
CLASS
  1
LAYOUT
  2
AcDbLayout
  3
ObjectDBX Classes
 90
        0
280
     0
281
     0
  0
CLASS
  1
LONG_TRANSACTION
  2
AcDbLongTransaction
  3
AutoCAD 2000
 90
   -65536
280
     1
281
     0
  0
CLASS
  1
LWPOLYLINE
  2
AcDbPolyline
  3
AutoCAD 2000
 90
        0
280
     0
281
     1
  0
CLASS
  1
HATCH
  2
AcDbHatch
  3
AutoCAD 2000
 90
        0
280
     0
281
     1
  0
CLASS
  1
XRECORD
  2
AcDbXrecord
  3
AutoCAD 2000
 90
        0
280
     0
281
     0
  0
CLASS
  1
LONG_TRANSACTION
  2
AcDbLongTransaction
  3
AutoCAD 2000
 90
   -65536
280
     1
281
     0
  0
CLASS
  1
LWPOLYLINE
  2
AcDbPolyline
  3
AutoCAD 2000
 90
        0
280
     0
281
     1
  0
CLASS
  1
HATCH
  2
AcDbHatch
  3
AutoCAD 2000
 90
        0
280
     0
281
     1
  0
CLASS
  1
XRECORD
  2
AcDbXrecord
  3
AutoCAD 2000
 90
        0
280
     0
281
     0
  0
CLASS
  1
LONG_TRANSACTION
  2
AcDbLongTransaction
  3
AutoCAD 2000
 90
   -65536
280
     1
281
     0
  0
CLASS
  1
LWPOLYLINE
  2
AcDbPolyline
  3
AutoCAD 2000
 90
        0
280
     0
281
     1
  0
CLASS
  1
HATCH
  2
AcDbHatch
  3
AutoCAD 2000
 90
        0
280
     0
281
     1
  0
CLASS
  1
XRECORD
  2
AcDbXrecord
  3
AutoCAD 2000
 90
        0
280
     0
281
     0
  0
CLASS
  1
LONG_TRANSACTION
  2
AcDbLongTransaction
  3
AutoCAD 2000
 90
   -65536
280
     1
281
     0
  0
CLASS
  1
LWPOLYLINE
  2
AcDbPolyline
  3
AutoCAD 2000
 90
        0
280
     0
281
     1
  0
CLASS
  1
HATCH
  2
AcDbHatch
  3
AutoCAD 2000
 90
        0
280
     0
281
     1
  0
CLASS
  1
XRECORD
  2
AcDbXrecord
  3
AutoCAD 2000
 90
        0
280
     0
281
     0
  0
CLASS
  1
LONG_TRANSACTION
  2
AcDbLongTransaction
  3
AutoCAD 2000
 90
   -65536
280
     1
281
     0
  0
CLASS
  1
LWPOLYLINE
  2
AcDbPolyline
  3
AutoCAD 2000
 90
        0
280
     0
281
     1
  0
CLASS
  1
HATCH
  2
AcDbHatch
  3
AutoCAD 2000
 90
        0
280
     0
281
     1
  0
CLASS
  1
XRECORD
  2
AcDbXrecord
  3
AutoCAD 2000
 90
        0
280
     0
281
     0
  0
CLASS
  1
LONG_TRANSACTION
  2
AcDbLongTransaction
  3
AutoCAD 2000
 90
   -65536
280
     1
281
     0
  0
CLASS
  1
LWPOLYLINE
  2
AcDbPolyline
  3
AutoCAD 2000
 90
        0
280
     0
281
     1
  0
CLASS
  1
HATCH
  2
AcDbHatch
  3
AutoCAD 2000
 90
        0
280
     0
281
     1
  0
CLASS
  1
XRECORD
  2
AcDbXrecord
  3
AutoCAD 2000
 90
        0
280
     0
281
     0
  0
CLASS
  1
LONG_TRANSACTION
  2
AcDbLongTransaction
  3
AutoCAD 2000
 90
   -65536
280
     1
281
     0
  0
CLASS
  1
LWPOLYLINE
  2
AcDbPolyline
  3
AutoCAD 2000
 90
        0
280
     0
281
     1
  0
CLASS
  1
HATCH
  2
AcDbHatch
  3
AutoCAD 2000
 90
        0
280
     0
281
     1
  0
CLASS
  1
XRECORD
  2
AcDbXrecord
  3
AutoCAD 2000
 90
        0
280
     0
281
     0
  0
CLASS
  1
LONG_TRANSACTION
  2
AcDbLongTransaction
  3
AutoCAD 2000
 90
   -65536
280
     1
281
     0
  0
CLASS
  1
LWPOLYLINE
  2
AcDbPolyline
  3
AutoCAD 2000
 90
        0
280
     0
281
     1
  0
CLASS
  1
HATCH
  2
AcDbHatch
  3
AutoCAD 2000
 90
        0
280
     0
281
     1
  0
CLASS
  1
XRECORD
  2
AcDbXrecord
  3
AutoCAD 2000
 90
        0
280
     0
281
     0
  0
CLASS
  1
LONG_TRANSACTION
  2
AcDbLongTransaction
  3
AutoCAD 2000
 90
   -65536
280
     1
281
     0
  0
CLASS
  1
LWPOLYLINE
  2
AcDbPolyline
  3
AutoCAD 2000
 90
        0
280
     0
281
     1
  0
CLASS
  1
HATCH
  2
AcDbHatch
  3
AutoCAD 2000
 90
        0
280
     0
281
     1
  0
CLASS
  1
XRECORD
  2
AcDbXrecord
  3
AutoCAD 2000
 90
        0
280
     0
281
     0
  0
CLASS
  1
LONG_TRANSACTION
  2
AcDbLongTransaction
  3
AutoCAD 2000
 90
   -65536
280
     1
281
     0
  0
CLASS
  1
LWPOLYLINE
  2
AcDbPolyline
  3
AutoCAD 2000
 90
        0
280
     0
281
     1
  0
CLASS
  1
HATCH
  2
AcDbHatch
  3
AutoCAD 2000
 90
        0
280
     0
281
     1
  0
CLASS
  1
XRECORD
  2
AcDbXrecord
  3
AutoCAD 2000
 90
        0
280
     0
281
     0
  0
CLASS
  1
LONG_TRANSACTION
  2
AcDbLongTransaction
  3
AutoCAD 2000
 90
   -65536
280
     1
281
     0
  0
CLASS
  1
LWPOLYLINE
  2
AcDbPolyline
  3
AutoCAD 2000
 90
        0
280
     0
281
     1
  0
CLASS
  1
HATCH
  2
AcDbHatch
  3
AutoCAD 2000
 90
        0
280
     0
281
     1
  0
CLASS
  1
XRECORD
  2
AcDbXrecord
  3
AutoCAD 2000
 90
        0
280
     0
281
     0
  0
CLASS
  1
LONG_TRANSACTION
  2
AcDbLongTransaction
  3
AutoCAD 2000
 90
   -65536
280
     1
281
     0
  0
CLASS
  1
LWPOLYLINE
  2
AcDbPolyline
  3
AutoCAD 2000
 90
        0
280
     0
281
     1
  0
CLASS
  1
HATCH
  2
AcDbHatch
  3
AutoCAD 2000
 90
        0
280
     0
281
     1
  0
CLASS
  1
XRECORD
  2
AcDbXrecord
  3
AutoCAD 2000
 90
        0
280
     0
281
     0
  0
CLASS
  1
LONG_TRANSACTION
  2
AcDbLongTransaction
  3
AutoCAD 2000
 90
   -65536
280
     1
281
     0
  0
CLASS
  1
LWPOLYLINE
  2
AcDbPolyline
  3
AutoCAD 2000
 90
        0
280
     0
281
     1
  0
CLASS
  1
HATCH
  2
AcDbHatch
  3
AutoCAD 2000
 90
        0
280
     0
281
     1
  0
CLASS
  1
XRECORD
  2
AcDbXrecord
  3
AutoCAD 2000
 90
        0
280
     0
281
     0
  0
CLASS
  1
LONG_TRANSACTION
  2
AcDbLongTransaction
  3
AutoCAD 2000
 90
   -65536
280
     1
281
     0
  0
CLASS
  1
LWPOLYLINE
  2
AcDbPolyline
  3
AutoCAD 2000
 90
        0
280
     0
281
     1
  0
CLASS
  1
HATCH
  2
AcDbHatch
  3
AutoCAD 2000
 90
        0
280
     0
281
     1
  0
CLASS
  1
XRECORD
  2
AcDbXrecord
  3
AutoCAD 2000
 90
        0
280
     0
281
     0
  0
CLASS
  1
LONG_TRANSACTION
  2
AcDbLongTransaction
  3
AutoCAD 2000
 90
   -65536
280
     1
281
     0
  0
CLASS
  1
LWPOLYLINE
  2
AcDbPolyline
  3
AutoCAD 2000
 90
        0
280
     0
281
     1
  0
CLASS
  1
HATCH
  2
AcDbHatch
  3
AutoCAD 2000
 90
        0
280
     0
281
     1
  0
CLASS
  1
XRECORD
  2
AcDbXrecord
  3
AutoCAD 2000
 90
        0
280
     0
281
     0
  0
CLASS
  1
LONG_TRANSACTION
  2
AcDbLongTransaction
  3
AutoCAD 2000
 90
   -65536
280
     1
281
     0
  0
CLASS
  1
LWPOLYLINE
  2
AcDbPolyline
  3
AutoCAD 2000
 90
        0
280
     0
281
     1
  0
CLASS
  1
HATCH
  2
AcDbHatch
  3
AutoCAD 2000
 90
        0
280
     0
281
     1
  0
CLASS
  1
XRECORD
  2
AcDbXrecord
  3
AutoCAD 2000
 90
        0
280
     0
281
     0
  0
ENDSEC
  0
SECTION
  2
TABLES
  0
TABLE
  2
VPORT
  5
1D
330
0
100
AcDbSymbolTable
 70
     1
  0
VPORT
  5
1E
330
1D
100
AcDbSymbolTableRecord
100
AcDbViewportTableRecord
  2
*Active
 70
     0
 10
0.0
 20
0.0
 11
1.0
 21
1.0
 12
12.2130432515557
 22
15.87377933398097
 13
0.0
 23
0.0
 14
0.063
 24
0.063
 15
0.25
 25
0.25
 16
0.0
 26
0.0
 36
1.0
 17
0.0
 27
0.0
 37
0.0
 40
38.16180340140699
 41
1.568831168831169
 42
50.0
 43
0.0
 44
0.0
 50
0.0
 51
0.0
 71
     0
 72
   100
 73
     1
 74
     1
 75
     0
 76
     0
 77
     0
 78
     0
281
     0
 65
     1
110
0.0
120
0.0
130
0.0
111
1.0
121
0.0
131
0.0
112
0.0
122
1.0
132
0.0
 79
     0
146
0.0
  0
ENDTAB
  0
TABLE
  2
LTYPE
  5
18
330
0
100
AcDbSymbolTable
 70
     2
  0
LTYPE
  5
19
330
18
100
AcDbSymbolTableRecord
100
AcDbLinetypeTableRecord
  2
BYBLOCK
 70
     0
  3

 72
    65
 73
     0
 40
0.0
  0
LTYPE
  5
1A
330
18
100
AcDbSymbolTableRecord
100
AcDbLinetypeTableRecord
  2
BYLAYER
 70
     0
  3

 72
    65
 73
     0
 40
0.0
  0
LTYPE
  5
A
330
18
100
AcDbSymbolTableRecord
100
AcDbLinetypeTableRecord
  2
CONTINUOUS
 70
     0
  3
Solid line
 72
    65
 73
     0
 40
0.0
  0
LTYPE
  5
80
330
18
100
AcDbSymbolTableRecord
100
AcDbLinetypeTableRecord
  2
DASHED
 70
     0
  3
__ __ __ __ __ __ __ __ __ __ __ __ __ __ __
 72
    65
 73
     2
 40
0.75
 49
0.5
 74
     0
 49
-0.25
 74
     0
  0
ENDTAB
  0
TABLE
  2
LAYER
  5
14
330
0
100
AcDbSymbolTable
 70
     1
  0
LAYER
  5
6
330
14
100
AcDbSymbolTableRecord
100
AcDbLayerTableRecord
  2
0
 70
     0
 62
     7
  6
CONTINUOUS
370
    -3
390
7
  0
ENDTAB
  0
TABLE
  2
STYLE
  5
15
330
0
100
AcDbSymbolTable
 70
     1
  0
STYLE
  5
16
330
15
100
AcDbSymbolTableRecord
100
AcDbTextStyleTableRecord
  2
STANDARD
 70
     0
 40
0.0
 41
1.0
 50
0.0
 71
     0
 42
0.36
  3
TXT
  4

  0
ENDTAB
  0
TABLE
  2
VIEW
  5
1B
330
0
100
AcDbSymbolTable
 70
     0
  0
ENDTAB
  0
TABLE
  2
UCS
  5
1C
330
0
100
AcDbSymbolTable
 70
     0
  0
ENDTAB
  0
TABLE
  2
APPID
  5
1F
330
0
100
AcDbSymbolTable
 70
     1
  0
APPID
  5
20
330
1F
100
AcDbSymbolTableRecord
100
AcDbRegAppTableRecord
  2
ACAD
 70
     0
  0
ENDTAB
  0
TABLE
  2
DIMSTYLE
  5
21
330
0
100
AcDbSymbolTable
 70
     1
100
AcDbDimStyleTable
  0
DIMSTYLE
105
27
330
21
100
AcDbSymbolTableRecord
100
AcDbDimStyleTableRecord
  2
STANDARD
 70
     0
  3

  4

340
16
  0
ENDTAB
  0
TABLE
  2
BLOCK_RECORD
  5
1
330
0
100
AcDbSymbolTable
 70
     0
  0
BLOCK_RECORD
  5
2
330
1
100
AcDbSymbolTableRecord
100
AcDbBlockTableRecord
  2
*MODEL_SPACE
340
C
  0
BLOCK_RECORD
  5
E
330
1
100
AcDbSymbolTableRecord
100
AcDbBlockTableRecord
  2
*PAPER_SPACE
340
13
  0
ENDTAB
  0
ENDSEC
  0
SECTION
  2
BLOCKS
  0
BLOCK
  5
5
330
2
100
AcDbEntity
  8
0
100
AcDbBlockBegin
  2
*MODEL_SPACE
 70
     0
 10
0.0
 20
0.0
 30
0.0
  3
*MODEL_SPACE
  1

  4

  0
ENDBLK
  5
B
330
2
100
AcDbEntity
  8
0
100
AcDbBlockEnd
  0
BLOCK
  5
11
330
E
100
AcDbEntity
 67
     1
  8
0
100
AcDbBlockBegin
  2
*PAPER_SPACE
 70
     0
 10
0.0
 20
0.0
 30
0.0
  3
*PAPER_SPACE
  1

  4

  0
ENDBLK
  5
12
330
E
100
AcDbEntity
 67
     1
  8
0
100
AcDbBlockEnd
  0
ENDSEC
  0
SECTION
  2
ENTITIES
  0
ARC
  5
28
330
2
100
AcDbEntity
  8
0
100
AcDbCircle
 10
0.6361869436664058
 20
6.090223576038721
 30
0.0
 40
0.125
100
AcDbArc
 50
180.0
 51
225.0000000000001
  0
LINE
  5
29
330
2
100
AcDbEntity
  8
0
100
AcDbLine
 10
0.5477985960180867
 20
6.001835228390402
 30
0.0
 11
0.787075291314725
 21
5.762558533093763
 31
0.0
  0
LINE
  5
2A
330
2
100
AcDbEntity
  8
0
  6
Continuous
100
AcDbLine
 10
2.285232020513124
 20
0.4066565610497435
 30
0.0
 11
2.285232020513117
 21
12.59375
 31
0.0
  0
LINE
  5
2B
330
2
100
AcDbEntity
  8
0
  6
Continuous
100
AcDbLine
 10
2.191482020513124
 20
0.3325529292419915
 30
0.0
 11
2.191482020513124
 21
6.593749999999996
 31
0.0
  0
LWPOLYLINE
  5
2C
330
2
100
AcDbEntity
  8
0
100
AcDbPolyline
 90
        9
 70
     0
 43
0.0
 10
1.191482020513124
 20
5.705412499999998
 42
0.0700628980345364
 10
1.270600824313167
 20
5.716553775768869
 42
0.0818514225363451
 10
1.33249714243961
 20
5.745930615657603
 42
0.1069100077216601
 10
1.377095293505111
 20
5.793677528412633
 42
0.135394011665182
 10
1.390907518441257
 20
5.843749999999996
 42
0.1353940116651818
 10
1.377095293505111
 20
5.893822471587367
 42
0.1069100077216599
 10
1.33249714243961
 20
5.94156938434239
 42
0.0818514225363446
 10
1.270600824313167
 20
5.970946224231131
 42
0.0700628980345367
 10
1.191482020513124
 20
5.982087500000002
 42
0.0700628980345371
  0
LWPOLYLINE
  5
2D
330
2
100
AcDbEntity
  8
0
100
AcDbPolyline
 90
        9
 70
     0
 43
0.0
 10
1.191482020513124
 20
4.705412499999998
 42
0.0700628980345364
 10
1.270600824313167
 20
4.716553775768869
 42
0.0818514225363451
 10
1.33249714243961
 20
4.745930615657603
 42
0.1069100077216601
 10
1.377095293505111
 20
4.793677528412633
 42
0.135394011665182
 10
1.390907518441257
 20
4.843749999999996
 42
0.1353940116651818
 10
1.377095293505111
 20
4.893822471587367
 42
0.1069100077216599
 10
1.33249714243961
 20
4.94156938434239
 42
0.0818514225363446
 10
1.270600824313167
 20
4.970946224231131
 42
0.0700628980345367
 10
1.191482020513124
 20
4.982087500000002
 42
0.0700628980345371
  0
LWPOLYLINE
  5
2E
330
2
100
AcDbEntity
  8
0
100
AcDbPolyline
 90
        9
 70
     0
 43
0.0
 10
1.191482020513124
 20
2.705412499999998
 42
0.0700628980345364
 10
1.270600824313167
 20
2.716553775768869
 42
0.0818514225363451
 10
1.33249714243961
 20
2.745930615657603
 42
0.1069100077216601
 10
1.377095293505111
 20
2.793677528412633
 42
0.135394011665182
 10
1.390907518441257
 20
2.843749999999996
 42
0.1353940116651818
 10
1.377095293505111
 20
2.893822471587367
 42
0.1069100077216599
 10
1.33249714243961
 20
2.94156938434239
 42
0.0818514225363446
 10
1.270600824313167
 20
2.970946224231131
 42
0.0700628980345367
 10
1.191482020513124
 20
2.982087500000002
 42
0.0700628980345371
  0
LWPOLYLINE
  5
2F
330
2
100
AcDbEntity
  8
0
100
AcDbPolyline
 90
        9
 70
     0
 43
0.0
 10
1.191482020513124
 20
1.7054125
 42
0.0700628980345364
 10
1.270600824313167
 20
1.716553775768871
 42
0.0818514225363451
 10
1.33249714243961
 20
1.745930615657604
 42
0.1069100077216601
 10
1.377095293505111
 20
1.793677528412635
 42
0.135394011665182
 10
1.390907518441257
 20
1.843749999999998
 42
0.1353940116651818
 10
1.377095293505111
 20
1.893822471587368
 42
0.1069100077216599
 10
1.33249714243961
 20
1.941569384342392
 42
0.0818514225363446
 10
1.270600824313167
 20
1.970946224231133
 42
0.0700628980345367
 10
1.191482020513124
 20
1.982087500000004
 42
0.0700628980345371
  0
LWPOLYLINE
  5
30
330
2
100
AcDbEntity
  8
0
100
AcDbPolyline
 90
        9
 70
     0
 43
0.0
 10
1.191482020513124
 20
3.705412499999998
 42
0.0700628980345364
 10
1.270600824313167
 20
3.716553775768869
 42
0.0818514225363451
 10
1.33249714243961
 20
3.745930615657603
 42
0.1069100077216601
 10
1.377095293505111
 20
3.793677528412633
 42
0.135394011665182
 10
1.390907518441257
 20
3.843749999999996
 42
0.1353940116651818
 10
1.377095293505111
 20
3.893822471587367
 42
0.1069100077216599
 10
1.33249714243961
 20
3.94156938434239
 42
0.0818514225363446
 10
1.270600824313167
 20
3.970946224231131
 42
0.0700628980345367
 10
1.191482020513124
 20
3.982087500000002
 42
0.0700628980345371
  0
LWPOLYLINE
  5
31
330
2
100
AcDbEntity
  8
0
100
AcDbPolyline
 90
        9
 70
     0
 43
0.0
 10
1.191482020513124
 20
0.7054124999999996
 42
0.0700628980345364
 10
1.270600824313167
 20
0.7165537757688707
 42
0.0818514225363451
 10
1.33249714243961
 20
0.7459306156576044
 42
0.1069100077216601
 10
1.377095293505111
 20
0.7936775284126352
 42
0.135394011665182
 10
1.390907518441257
 20
0.8437499999999982
 42
0.1353940116651818
 10
1.377095293505111
 20
0.8938224715873684
 42
0.1069100077216599
 10
1.33249714243961
 20
0.941569384342392
 42
0.0818514225363446
 10
1.270600824313167
 20
0.9709462242311329
 42
0.0700628980345367
 10
1.191482020513124
 20
0.982087500000004
 42
0.0700628980345371
  0
LINE
  5
32
330
2
100
AcDbEntity
  8
0
100
AcDbLine
 10
1.191482020513124
 20
0.7054124999999996
 30
0.0
 11
1.191482020513124
 21
0.982087500000004
 31
0.0
  0
LWPOLYLINE
  5
33
330
2
100
AcDbEntity
  8
0
100
AcDbPolyline
 90
        9
 70
     0
 43
0.0
 10
1.191482020513124
 20
0.7640624999999996
 42
0.147269582437036
 10
1.209178443675665
 20
0.7693903416877941
 42
0.1071386913803464
 10
1.226730337339166
 20
0.7874024283741985
 42
0.0765137470862007
 10
1.237272251385935
 20
0.8119071664083588
 42
0.063469041210727
 10
1.241330668219337
 20
0.8437500000000053
 42
0.0634690412107267
 10
1.237272251385935
 20
0.8755928335916448
 42
0.0765137470862059
 10
1.226730337339166
 20
0.9000975716258051
 42
0.1071386913803463
 10
1.209178443675665
 20
0.9181096583122095
 42
0.1472695824370325
 10
1.191482020513124
 20
0.9234375000000039
 42
0.1472695824370333
  0
LWPOLYLINE
  5
34
330
2
100
AcDbEntity
  8
0
100
AcDbPolyline
 90
        9
 70
     0
 43
0.0
 10
1.191482020513124
 20
0.7347374999999996
 42
0.1432467981947568
 10
1.216706671368581
 20
0.7421155968712494
 42
0.1071754848060475
 10
1.241392837339166
 20
0.7666665220159015
 42
0.0783035184710328
 10
1.256339504961527
 20
0.8002877763666998
 42
0.0656020556757086
 10
1.262066574577634
 20
0.8437500000000053
 42
0.0656020556757101
 10
1.256339504961527
 20
0.8872122236333038
 42
0.0783035184710357
 10
1.241392837339166
 20
0.9208334779841021
 42
0.1071754848060445
 10
1.216706671368581
 20
0.9453844031287542
 42
0.1432467981947535
 10
1.191482020513124
 20
0.952762500000004
 42
0.1432467981947515
  0
ARC
  5
35
330
2
100
AcDbEntity
  8
0
100
AcDbCircle
 10
-2.738813056333594
 20
4.072140958454654
 30
0.0
 40
3.25
100
AcDbArc
 50
314.9999999999994
 51
0.0
  0
LWPOLYLINE
  5
36
330
2
100
AcDbEntity
  8
0
100
AcDbPolyline
 90
        9
 70
     0
 43
0.0
 10
1.191482020513124
 20
1.7640625
 42
0.147269582437036
 10
1.209178443675665
 20
1.769390341687794
 42
0.1071386913803464
 10
1.226730337339166
 20
1.787402428374199
 42
0.0765137470862007
 10
1.237272251385935
 20
1.811907166408359
 42
0.063469041210727
 10
1.241330668219337
 20
1.843750000000005
 42
0.0634690412107267
 10
1.237272251385935
 20
1.875592833591645
 42
0.0765137470862059
 10
1.226730337339166
 20
1.900097571625805
 42
0.1071386913803463
 10
1.209178443675665
 20
1.91810965831221
 42
0.1472695824370325
 10
1.191482020513124
 20
1.923437500000004
 42
0.1472695824370333
  0
LWPOLYLINE
  5
37
330
2
100
AcDbEntity
  8
0
100
AcDbPolyline
 90
        9
 70
     0
 43
0.0
 10
1.191482020513124
 20
1.7347375
 42
0.1432467981947568
 10
1.216706671368581
 20
1.742115596871249
 42
0.1071754848060475
 10
1.241392837339166
 20
1.766666522015902
 42
0.0783035184710328
 10
1.256339504961527
 20
1.8002877763667
 42
0.0656020556757086
 10
1.262066574577634
 20
1.843750000000005
 42
0.0656020556757101
 10
1.256339504961527
 20
1.887212223633304
 42
0.0783035184710357
 10
1.241392837339166
 20
1.920833477984102
 42
0.1071754848060445
 10
1.216706671368581
 20
1.945384403128754
 42
0.1432467981947535
 10
1.191482020513124
 20
1.952762500000004
 42
0.1432467981947515
  0
LINE
  5
38
330
2
100
AcDbEntity
  8
0
100
AcDbLine
 10
1.191482020513124
 20
1.7054125
 30
0.0
 11
1.191482020513124
 21
1.982087500000004
 31
0.0
  0
LWPOLYLINE
  5
39
330
2
100
AcDbEntity
  8
0
100
AcDbPolyline
 90
        9
 70
     0
 43
0.0
 10
1.191482020513124
 20
2.764062499999998
 42
0.147269582437036
 10
1.209178443675665
 20
2.769390341687792
 42
0.1071386913803464
 10
1.226730337339166
 20
2.787402428374197
 42
0.0765137470862007
 10
1.237272251385935
 20
2.811907166408357
 42
0.063469041210727
 10
1.241330668219337
 20
2.843750000000004
 42
0.0634690412107267
 10
1.237272251385935
 20
2.875592833591643
 42
0.0765137470862059
 10
1.226730337339166
 20
2.900097571625803
 42
0.1071386913803463
 10
1.209178443675665
 20
2.918109658312208
 42
0.1472695824370325
 10
1.191482020513124
 20
2.923437500000002
 42
0.1472695824370333
  0
LWPOLYLINE
  5
3A
330
2
100
AcDbEntity
  8
0
100
AcDbPolyline
 90
        9
 70
     0
 43
0.0
 10
1.191482020513124
 20
2.734737499999998
 42
0.1432467981947568
 10
1.216706671368581
 20
2.742115596871248
 42
0.1071754848060475
 10
1.241392837339166
 20
2.7666665220159
 42
0.0783035184710328
 10
1.256339504961527
 20
2.800287776366698
 42
0.0656020556757086
 10
1.262066574577634
 20
2.843750000000004
 42
0.0656020556757101
 10
1.256339504961527
 20
2.887212223633302
 42
0.0783035184710357
 10
1.241392837339166
 20
2.9208334779841
 42
0.1071754848060445
 10
1.216706671368581
 20
2.945384403128752
 42
0.1432467981947535
 10
1.191482020513124
 20
2.952762500000002
 42
0.1432467981947515
  0
LINE
  5
3B
330
2
100
AcDbEntity
  8
0
100
AcDbLine
 10
1.191482020513124
 20
2.705412499999998
 30
0.0
 11
1.191482020513124
 21
2.982087500000002
 31
0.0
  0
LINE
  5
3C
330
2
100
AcDbEntity
  8
0
100
AcDbLine
 10
1.191482020513124
 20
4.705412499999998
 30
0.0
 11
1.191482020513124
 21
4.982087500000002
 31
0.0
  0
LWPOLYLINE
  5
3D
330
2
100
AcDbEntity
  8
0
100
AcDbPolyline
 90
        9
 70
     0
 43
0.0
 10
1.191482020513124
 20
4.734737499999998
 42
0.1432467981947568
 10
1.216706671368581
 20
4.742115596871248
 42
0.1071754848060475
 10
1.241392837339166
 20
4.7666665220159
 42
0.0783035184710328
 10
1.256339504961527
 20
4.800287776366698
 42
0.0656020556757086
 10
1.262066574577634
 20
4.843750000000004
 42
0.0656020556757101
 10
1.256339504961527
 20
4.887212223633302
 42
0.0783035184710357
 10
1.241392837339166
 20
4.9208334779841
 42
0.1071754848060445
 10
1.216706671368581
 20
4.945384403128752
 42
0.1432467981947535
 10
1.191482020513124
 20
4.952762500000002
 42
0.1432467981947515
  0
LINE
  5
3E
330
2
100
AcDbEntity
  8
0
100
AcDbLine
 10
0.787075291314725
 20
4.939335228390402
 30
0.0
 11
0.5477985960180867
 21
4.700058533093763
 31
0.0
  0
LINE
  5
3F
330
2
100
AcDbEntity
  8
0
100
AcDbLine
 10
0.5111869436664129
 20
4.072140958454654
 30
0.0
 11
0.5111869436664129
 21
4.611670185445448
 31
0.0
  0
LWPOLYLINE
  5
40
330
2
100
AcDbEntity
  8
0
100
AcDbPolyline
 90
        9
 70
     0
 43
0.0
 10
1.191482020513124
 20
3.764062499999998
 42
0.147269582437036
 10
1.209178443675665
 20
3.769390341687792
 42
0.1071386913803464
 10
1.226730337339166
 20
3.787402428374197
 42
0.0765137470862007
 10
1.237272251385935
 20
3.811907166408357
 42
0.063469041210727
 10
1.241330668219337
 20
3.843750000000004
 42
0.0634690412107267
 10
1.237272251385935
 20
3.875592833591643
 42
0.0765137470862059
 10
1.226730337339166
 20
3.900097571625803
 42
0.1071386913803463
 10
1.209178443675665
 20
3.918109658312208
 42
0.1472695824370325
 10
1.191482020513124
 20
3.923437500000002
 42
0.1472695824370333
  0
LWPOLYLINE
  5
41
330
2
100
AcDbEntity
  8
0
100
AcDbPolyline
 90
        9
 70
     0
 43
0.0
 10
1.191482020513124
 20
3.734737499999998
 42
0.1432467981947568
 10
1.216706671368581
 20
3.742115596871248
 42
0.1071754848060475
 10
1.241392837339166
 20
3.7666665220159
 42
0.0783035184710328
 10
1.256339504961527
 20
3.800287776366698
 42
0.0656020556757086
 10
1.262066574577634
 20
3.843750000000004
 42
0.0656020556757101
 10
1.256339504961527
 20
3.887212223633302
 42
0.0783035184710357
 10
1.241392837339166
 20
3.9208334779841
 42
0.1071754848060445
 10
1.216706671368581
 20
3.945384403128752
 42
0.1432467981947535
 10
1.191482020513124
 20
3.952762500000002
 42
0.1432467981947515
  0
LINE
  5
42
330
2
100
AcDbEntity
  8
0
100
AcDbLine
 10
1.191482020513124
 20
3.705412499999998
 30
0.0
 11
1.191482020513124
 21
3.982087500000002
 31
0.0
  0
ARC
  5
43
330
2
100
AcDbEntity
  8
0
100
AcDbCircle
 10
0.6361869436664058
 20
4.611670185445444
 30
0.0
 40
0.125
100
AcDbArc
 50
134.9999999999999
 51
180.0
  0
LINE
  5
44
330
2
100
AcDbEntity
  8
0
100
AcDbLine
 10
0.8236869436664058
 20
5.674170185445444
 30
0.0
 11
0.8236869436664058
 21
5.027723576038721
 31
0.0
  0
ARC
  5
45
330
2
100
AcDbEntity
  8
0
100
AcDbCircle
 10
0.6986869436664058
 20
5.027723576038721
 30
0.0
 40
0.125
100
AcDbArc
 50
314.9999999999998
 51
0.0
  0
LWPOLYLINE
  5
46
330
2
100
AcDbEntity
  8
0
100
AcDbPolyline
 90
        9
 70
     0
 43
0.0
 10
1.191482020513124
 20
4.764062499999998
 42
0.147269582437036
 10
1.209178443675665
 20
4.769390341687792
 42
0.1071386913803464
 10
1.226730337339166
 20
4.787402428374197
 42
0.0765137470862007
 10
1.237272251385935
 20
4.811907166408357
 42
0.063469041210727
 10
1.241330668219337
 20
4.843750000000004
 42
0.0634690412107267
 10
1.237272251385935
 20
4.875592833591643
 42
0.0765137470862059
 10
1.226730337339166
 20
4.900097571625803
 42
0.1071386913803463
 10
1.209178443675665
 20
4.918109658312208
 42
0.1472695824370325
 10
1.191482020513124
 20
4.923437500000002
 42
0.1472695824370333
  0
ARC
  5
47
330
2
100
AcDbEntity
  8
0
100
AcDbCircle
 10
0.6986869436664058
 20
5.674170185445444
 30
0.0
 40
0.125
100
AcDbArc
 50
0.0
 51
45.00000000000015
  0
LINE
  5
48
330
2
100
AcDbEntity
  8
0
100
AcDbLine
 10
1.191482020513124
 20
5.705412499999998
 30
0.0
 11
1.191482020513124
 21
5.982087500000002
 31
0.0
  0
LWPOLYLINE
  5
49
330
2
100
AcDbEntity
  8
0
100
AcDbPolyline
 90
        9
 70
     0
 43
0.0
 10
1.191482020513124
 20
5.764062499999998
 42
0.147269582437036
 10
1.209178443675665
 20
5.769390341687792
 42
0.1071386913803464
 10
1.226730337339166
 20
5.787402428374197
 42
0.0765137470862007
 10
1.237272251385935
 20
5.811907166408357
 42
0.063469041210727
 10
1.241330668219337
 20
5.843750000000004
 42
0.0634690412107267
 10
1.237272251385935
 20
5.875592833591643
 42
0.0765137470862059
 10
1.226730337339166
 20
5.900097571625803
 42
0.1071386913803463
 10
1.209178443675665
 20
5.918109658312208
 42
0.1472695824370325
 10
1.191482020513124
 20
5.923437500000002
 42
0.1472695824370333
  0
LWPOLYLINE
  5
4A
330
2
100
AcDbEntity
  8
0
100
AcDbPolyline
 90
        9
 70
     0
 43
0.0
 10
1.191482020513124
 20
5.734737499999998
 42
0.1432467981947568
 10
1.216706671368581
 20
5.742115596871248
 42
0.1071754848060475
 10
1.241392837339166
 20
5.7666665220159
 42
0.0783035184710328
 10
1.256339504961527
 20
5.800287776366698
 42
0.0656020556757086
 10
1.262066574577634
 20
5.843750000000004
 42
0.0656020556757101
 10
1.256339504961527
 20
5.887212223633302
 42
0.0783035184710357
 10
1.241392837339166
 20
5.9208334779841
 42
0.1071754848060445
 10
1.216706671368581
 20
5.945384403128752
 42
0.1432467981947535
 10
1.191482020513124
 20
5.952762500000002
 42
0.1432467981947515
  0
ARC
  5
4B
330
2
100
AcDbEntity
  8
0
100
AcDbCircle
 10
2.701961703233199
 20
-0.216910894435248
 30
0.0
 40
0.75
100
AcDbArc
 50
123.7547785580847
 51
163.1890633163619
  0
LINE
  5
4C
330
2
100
AcDbEntity
  8
0
100
AcDbLine
 10
0.5111869436664058
 20
12.59375
 30
0.0
 11
2.285232020513124
 21
12.59375
 31
0.0
  0
LWPOLYLINE
  5
4D
330
2
100
AcDbEntity
  8
0
100
AcDbPolyline
 90
        9
 70
     0
 43
0.0
 10
1.191482020513124
 20
10.70541249999999
 42
0.0700628980345364
 10
1.270600824313167
 20
10.71655377576887
 42
0.0818514225363451
 10
1.33249714243961
 20
10.7459306156576
 42
0.1069100077216601
 10
1.377095293505111
 20
10.79367752841263
 42
0.135394011665182
 10
1.390907518441257
 20
10.84374999999999
 42
0.1353940116651818
 10
1.377095293505111
 20
10.89382247158736
 42
0.1069100077216599
 10
1.33249714243961
 20
10.94156938434239
 42
0.0818514225363446
 10
1.270600824313167
 20
10.97094622423113
 42
0.0700628980345367
 10
1.191482020513124
 20
10.9820875
 42
0.0700628980345371
  0
LWPOLYLINE
  5
4E
330
2
100
AcDbEntity
  8
0
100
AcDbPolyline
 90
        9
 70
     0
 43
0.0
 10
1.191482020513124
 20
9.705412499999994
 42
0.0700628980345364
 10
1.270600824313167
 20
9.716553775768865
 42
0.0818514225363451
 10
1.33249714243961
 20
9.745930615657599
 42
0.1069100077216601
 10
1.377095293505111
 20
9.79367752841263
 42
0.135394011665182
 10
1.390907518441257
 20
9.843749999999993
 42
0.1353940116651818
 10
1.377095293505111
 20
9.893822471587363
 42
0.1069100077216599
 10
1.33249714243961
 20
9.941569384342387
 42
0.0818514225363446
 10
1.270600824313167
 20
9.970946224231128
 42
0.0700628980345367
 10
1.191482020513124
 20
9.982087499999999
 42
0.0700628980345371
  0
LWPOLYLINE
  5
4F
330
2
100
AcDbEntity
  8
0
100
AcDbPolyline
 90
        9
 70
     0
 43
0.0
 10
1.191482020513124
 20
7.705412499999994
 42
0.0700628980345364
 10
1.270600824313167
 20
7.716553775768865
 42
0.0818514225363451
 10
1.33249714243961
 20
7.745930615657599
 42
0.1069100077216601
 10
1.377095293505111
 20
7.79367752841263
 42
0.135394011665182
 10
1.390907518441257
 20
7.843749999999993
 42
0.1353940116651818
 10
1.377095293505111
 20
7.893822471587363
 42
0.1069100077216599
 10
1.33249714243961
 20
7.941569384342387
 42
0.0818514225363446
 10
1.270600824313167
 20
7.970946224231128
 42
0.0700628980345367
 10
1.191482020513124
 20
7.982087499999999
 42
0.0700628980345371
  0
LWPOLYLINE
  5
50
330
2
100
AcDbEntity
  8
0
100
AcDbPolyline
 90
        9
 70
     0
 43
0.0
 10
1.191482020513124
 20
6.705412499999994
 42
0.0700628980345364
 10
1.270600824313167
 20
6.716553775768865
 42
0.0818514225363451
 10
1.33249714243961
 20
6.745930615657599
 42
0.1069100077216601
 10
1.377095293505111
 20
6.79367752841263
 42
0.135394011665182
 10
1.390907518441257
 20
6.843749999999993
 42
0.1353940116651818
 10
1.377095293505111
 20
6.893822471587363
 42
0.1069100077216599
 10
1.33249714243961
 20
6.941569384342387
 42
0.0818514225363446
 10
1.270600824313167
 20
6.970946224231128
 42
0.0700628980345367
 10
1.191482020513124
 20
6.982087499999999
 42
0.0700628980345371
  0
LWPOLYLINE
  5
51
330
2
100
AcDbEntity
  8
0
100
AcDbPolyline
 90
        9
 70
     0
 43
0.0
 10
1.191482020513124
 20
8.705412499999994
 42
0.0700628980345364
 10
1.270600824313167
 20
8.716553775768865
 42
0.0818514225363451
 10
1.33249714243961
 20
8.745930615657599
 42
0.1069100077216601
 10
1.377095293505111
 20
8.79367752841263
 42
0.135394011665182
 10
1.390907518441257
 20
8.843749999999993
 42
0.1353940116651818
 10
1.377095293505111
 20
8.893822471587363
 42
0.1069100077216599
 10
1.33249714243961
 20
8.941569384342387
 42
0.0818514225363446
 10
1.270600824313167
 20
8.970946224231128
 42
0.0700628980345367
 10
1.191482020513124
 20
8.982087499999999
 42
0.0700628980345371
  0
ARC
  5
52
330
2
100
AcDbEntity
  8
0
100
AcDbCircle
 10
0.6986869436664058
 20
11.02772357603872
 30
0.0
 40
0.125
100
AcDbArc
 50
314.9999999999998
 51
0.0
  0
LINE
  5
53
330
2
100
AcDbEntity
  8
0
100
AcDbLine
 10
0.5111869436664058
 20
8.593749999999996
 30
0.0
 11
0.5111869436664058
 21
8.090223319994447
 31
0.0
  0
LINE
  5
54
330
2
100
AcDbEntity
  8
0
100
AcDbLine
 10
0.5111869436664058
 20
8.090223576038721
 30
0.0
 11
0.5111869436664058
 21
8.593749999999996
 31
0.0
  0
LINE
  5
55
330
2
100
AcDbEntity
  8
0
100
AcDbLine
 10
0.8236869436664058
 20
7.674170185445444
 30
0.0
 11
0.8236869436664058
 21
7.027723576038721
 31
0.0
  0
ARC
  5
56
330
2
100
AcDbEntity
  8
0
100
AcDbCircle
 10
0.6361869436664058
 20
6.611670185445444
 30
0.0
 40
0.125
100
AcDbArc
 50
134.9999999999999
 51
180.0
  0
LINE
  5
57
330
2
100
AcDbEntity
  8
0
100
AcDbLine
 10
0.5111869436664058
 20
6.090223576038721
 30
0.0
 11
0.5111869436664058
 21
6.593749999999996
 31
0.0
  0
LINE
  5
58
330
2
100
AcDbEntity
  8
0
100
AcDbLine
 10
0.5111869436664058
 20
6.593749999999996
 30
0.0
 11
0.5111869436664058
 21
6.090223319994447
 31
0.0
  0
ARC
  5
59
330
2
100
AcDbEntity
  8
0
100
AcDbCircle
 10
0.6986869436664058
 20
7.027723576038721
 30
0.0
 40
0.125
100
AcDbArc
 50
314.9999999999998
 51
0.0
  0
LINE
  5
5A
330
2
100
AcDbEntity
  8
0
100
AcDbLine
 10
0.787075291314725
 20
6.939335228390402
 30
0.0
 11
0.5477985960180867
 21
6.700058533093763
 31
0.0
  0
LWPOLYLINE
  5
5B
330
2
100
AcDbEntity
  8
0
100
AcDbPolyline
 90
        9
 70
     0
 43
0.0
 10
1.191482020513124
 20
6.764062499999994
 42
0.147269582437036
 10
1.209178443675665
 20
6.769390341687789
 42
0.1071386913803464
 10
1.226730337339166
 20
6.787402428374193
 42
0.0765137470862007
 10
1.237272251385935
 20
6.811907166408354
 42
0.063469041210727
 10
1.241330668219337
 20
6.84375
 42
0.0634690412107267
 10
1.237272251385935
 20
6.875592833591639
 42
0.0765137470862059
 10
1.226730337339166
 20
6.9000975716258
 42
0.1071386913803463
 10
1.209178443675665
 20
6.918109658312204
 42
0.1472695824370325
 10
1.191482020513124
 20
6.923437499999999
 42
0.1472695824370333
  0
LWPOLYLINE
  5
5C
330
2
100
AcDbEntity
  8
0
100
AcDbPolyline
 90
        9
 70
     0
 43
0.0
 10
1.191482020513124
 20
6.734737499999994
 42
0.1432467981947568
 10
1.216706671368581
 20
6.742115596871244
 42
0.1071754848060475
 10
1.241392837339166
 20
6.766666522015896
 42
0.0783035184710328
 10
1.256339504961527
 20
6.800287776366695
 42
0.0656020556757086
 10
1.262066574577634
 20
6.84375
 42
0.0656020556757101
 10
1.256339504961527
 20
6.887212223633298
 42
0.0783035184710357
 10
1.241392837339166
 20
6.920833477984097
 42
0.1071754848060445
 10
1.216706671368581
 20
6.945384403128749
 42
0.1432467981947535
 10
1.191482020513124
 20
6.952762499999999
 42
0.1432467981947515
  0
LINE
  5
5D
330
2
100
AcDbEntity
  8
0
100
AcDbLine
 10
1.191482020513124
 20
6.705412499999994
 30
0.0
 11
1.191482020513124
 21
6.982087499999999
 31
0.0
  0
LWPOLYLINE
  5
5E
330
2
100
AcDbEntity
  8
0
100
AcDbPolyline
 90
        9
 70
     0
 43
0.0
 10
1.191482020513124
 20
7.764062499999994
 42
0.147269582437036
 10
1.209178443675665
 20
7.769390341687789
 42
0.1071386913803464
 10
1.226730337339166
 20
7.787402428374193
 42
0.0765137470862007
 10
1.237272251385935
 20
7.811907166408354
 42
0.063469041210727
 10
1.241330668219337
 20
7.84375
 42
0.0634690412107267
 10
1.237272251385935
 20
7.875592833591639
 42
0.0765137470862059
 10
1.226730337339166
 20
7.9000975716258
 42
0.1071386913803463
 10
1.209178443675665
 20
7.918109658312204
 42
0.1472695824370325
 10
1.191482020513124
 20
7.923437499999999
 42
0.1472695824370333
  0
LWPOLYLINE
  5
5F
330
2
100
AcDbEntity
  8
0
100
AcDbPolyline
 90
        9
 70
     0
 43
0.0
 10
1.191482020513124
 20
7.734737499999994
 42
0.1432467981947568
 10
1.216706671368581
 20
7.742115596871244
 42
0.1071754848060475
 10
1.241392837339166
 20
7.766666522015896
 42
0.0783035184710328
 10
1.256339504961527
 20
7.800287776366695
 42
0.0656020556757086
 10
1.262066574577634
 20
7.84375
 42
0.0656020556757101
 10
1.256339504961527
 20
7.887212223633298
 42
0.0783035184710357
 10
1.241392837339166
 20
7.920833477984097
 42
0.1071754848060445
 10
1.216706671368581
 20
7.945384403128749
 42
0.1432467981947535
 10
1.191482020513124
 20
7.952762499999999
 42
0.1432467981947515
  0
LINE
  5
60
330
2
100
AcDbEntity
  8
0
100
AcDbLine
 10
1.191482020513124
 20
7.705412499999994
 30
0.0
 11
1.191482020513124
 21
7.982087499999999
 31
0.0
  0
LINE
  5
61
330
2
100
AcDbEntity
  8
0
100
AcDbLine
 10
0.5477985960180867
 20
8.001835228390402
 30
0.0
 11
0.787075291314725
 21
7.762558533093763
 31
0.0
  0
ARC
  5
62
330
2
100
AcDbEntity
  8
0
100
AcDbCircle
 10
0.6986869436664058
 20
7.674170185445444
 30
0.0
 40
0.125
100
AcDbArc
 50
0.0
 51
45.00000000000015
  0
ARC
  5
63
330
2
100
AcDbEntity
  8
0
100
AcDbCircle
 10
0.6361869436664058
 20
8.090223576038721
 30
0.0
 40
0.125
100
AcDbArc
 50
180.0
 51
225.0000000000001
  0
LINE
  5
64
330
2
100
AcDbEntity
  8
0
100
AcDbLine
 10
1.191482020513124
 20
9.705412499999994
 30
0.0
 11
1.191482020513124
 21
9.982087499999999
 31
0.0
  0
LWPOLYLINE
  5
65
330
2
100
AcDbEntity
  8
0
100
AcDbPolyline
 90
        9
 70
     0
 43
0.0
 10
1.191482020513124
 20
9.734737499999994
 42
0.1432467981947568
 10
1.216706671368581
 20
9.742115596871244
 42
0.1071754848060475
 10
1.241392837339166
 20
9.766666522015896
 42
0.0783035184710328
 10
1.256339504961527
 20
9.800287776366695
 42
0.0656020556757086
 10
1.262066574577634
 20
9.84375
 42
0.0656020556757101
 10
1.256339504961527
 20
9.887212223633298
 42
0.0783035184710357
 10
1.241392837339166
 20
9.920833477984097
 42
0.1071754848060445
 10
1.216706671368581
 20
9.945384403128749
 42
0.1432467981947535
 10
1.191482020513124
 20
9.952762499999999
 42
0.1432467981947515
  0
ARC
  5
66
330
2
100
AcDbEntity
  8
0
100
AcDbCircle
 10
0.6986869436664058
 20
9.674170185445444
 30
0.0
 40
0.125
100
AcDbArc
 50
0.0
 51
45.00000000000015
  0
LINE
  5
67
330
2
100
AcDbEntity
  8
0
100
AcDbLine
 10
0.8236869436664058
 20
9.674170185445444
 30
0.0
 11
0.8236869436664058
 21
9.027723576038721
 31
0.0
  0
ARC
  5
68
330
2
100
AcDbEntity
  8
0
100
AcDbCircle
 10
0.6986869436664058
 20
9.027723576038721
 30
0.0
 40
0.125
100
AcDbArc
 50
314.9999999999998
 51
0.0
  0
ARC
  5
69
330
2
100
AcDbEntity
  8
0
100
AcDbCircle
 10
0.6361869436664058
 20
8.611670185445444
 30
0.0
 40
0.125
100
AcDbArc
 50
134.9999999999999
 51
180.0
  0
LINE
  5
6A
330
2
100
AcDbEntity
  8
0
100
AcDbLine
 10
0.787075291314725
 20
8.939335228390402
 30
0.0
 11
0.5477985960180867
 21
8.700058533093763
 31
0.0
  0
LWPOLYLINE
  5
6B
330
2
100
AcDbEntity
  8
0
100
AcDbPolyline
 90
        9
 70
     0
 43
0.0
 10
1.191482020513124
 20
8.764062499999994
 42
0.147269582437036
 10
1.209178443675665
 20
8.769390341687789
 42
0.1071386913803464
 10
1.226730337339166
 20
8.787402428374193
 42
0.0765137470862007
 10
1.237272251385935
 20
8.811907166408354
 42
0.063469041210727
 10
1.241330668219337
 20
8.84375
 42
0.0634690412107267
 10
1.237272251385935
 20
8.875592833591639
 42
0.0765137470862059
 10
1.226730337339166
 20
8.9000975716258
 42
0.1071386913803463
 10
1.209178443675665
 20
8.918109658312204
 42
0.1472695824370325
 10
1.191482020513124
 20
8.923437499999999
 42
0.1472695824370333
  0
LWPOLYLINE
  5
6C
330
2
100
AcDbEntity
  8
0
100
AcDbPolyline
 90
        9
 70
     0
 43
0.0
 10
1.191482020513124
 20
8.734737499999994
 42
0.1432467981947568
 10
1.216706671368581
 20
8.742115596871244
 42
0.1071754848060475
 10
1.241392837339166
 20
8.766666522015896
 42
0.0783035184710328
 10
1.256339504961527
 20
8.800287776366695
 42
0.0656020556757086
 10
1.262066574577634
 20
8.84375
 42
0.0656020556757101
 10
1.256339504961527
 20
8.887212223633298
 42
0.0783035184710357
 10
1.241392837339166
 20
8.920833477984097
 42
0.1071754848060445
 10
1.216706671368581
 20
8.945384403128749
 42
0.1432467981947535
 10
1.191482020513124
 20
8.952762499999999
 42
0.1432467981947515
  0
LINE
  5
6D
330
2
100
AcDbEntity
  8
0
100
AcDbLine
 10
1.191482020513124
 20
8.705412499999994
 30
0.0
 11
1.191482020513124
 21
8.982087499999999
 31
0.0
  0
LINE
  5
6E
330
2
100
AcDbEntity
  8
0
100
AcDbLine
 10
0.5111869436664058
 20
10.59375
 30
0.0
 11
0.5111869436664058
 21
10.09022331999445
 31
0.0
  0
LINE
  5
6F
330
2
100
AcDbEntity
  8
0
100
AcDbLine
 10
0.5111869436664058
 20
10.09022357603872
 30
0.0
 11
0.5111869436664058
 21
10.59375
 31
0.0
  0
ARC
  5
70
330
2
100
AcDbEntity
  8
0
100
AcDbCircle
 10
0.6361869436664058
 20
10.09022357603872
 30
0.0
 40
0.125
100
AcDbArc
 50
180.0
 51
225.0000000000001
  0
LINE
  5
71
330
2
100
AcDbEntity
  8
0
100
AcDbLine
 10
0.5477985960180867
 20
10.0018352283904
 30
0.0
 11
0.787075291314725
 21
9.762558533093763
 31
0.0
  0
LWPOLYLINE
  5
72
330
2
100
AcDbEntity
  8
0
100
AcDbPolyline
 90
        9
 70
     0
 43
0.0
 10
1.191482020513124
 20
9.764062499999994
 42
0.147269582437036
 10
1.209178443675665
 20
9.769390341687789
 42
0.1071386913803464
 10
1.226730337339166
 20
9.787402428374193
 42
0.0765137470862007
 10
1.237272251385935
 20
9.811907166408354
 42
0.063469041210727
 10
1.241330668219337
 20
9.84375
 42
0.0634690412107267
 10
1.237272251385935
 20
9.875592833591639
 42
0.0765137470862059
 10
1.226730337339166
 20
9.9000975716258
 42
0.1071386913803463
 10
1.209178443675665
 20
9.918109658312204
 42
0.1472695824370325
 10
1.191482020513124
 20
9.923437499999999
 42
0.1472695824370333
  0
ARC
  5
73
330
2
100
AcDbEntity
  8
0
100
AcDbCircle
 10
0.6361869436664058
 20
10.61167018544544
 30
0.0
 40
0.125
100
AcDbArc
 50
134.9999999999999
 51
180.0
  0
LINE
  5
74
330
2
100
AcDbEntity
  8
0
100
AcDbLine
 10
0.787075291314725
 20
10.9393352283904
 30
0.0
 11
0.5477985960180867
 21
10.70005853309376
 31
0.0
  0
LINE
  5
75
330
2
100
AcDbEntity
  8
0
100
AcDbLine
 10
1.191482020513124
 20
10.70541249999999
 30
0.0
 11
1.191482020513124
 21
10.9820875
 31
0.0
  0
LWPOLYLINE
  5
76
330
2
100
AcDbEntity
  8
0
100
AcDbPolyline
 90
        9
 70
     0
 43
0.0
 10
1.191482020513124
 20
10.76406249999999
 42
0.147269582437036
 10
1.209178443675665
 20
10.76939034168779
 42
0.1071386913803464
 10
1.226730337339166
 20
10.78740242837419
 42
0.0765137470862007
 10
1.237272251385935
 20
10.81190716640835
 42
0.063469041210727
 10
1.241330668219337
 20
10.84375
 42
0.0634690412107267
 10
1.237272251385935
 20
10.87559283359164
 42
0.0765137470862059
 10
1.226730337339166
 20
10.9000975716258
 42
0.1071386913803463
 10
1.209178443675665
 20
10.9181096583122
 42
0.1472695824370325
 10
1.191482020513124
 20
10.9234375
 42
0.1472695824370333
  0
LWPOLYLINE
  5
77
330
2
100
AcDbEntity
  8
0
100
AcDbPolyline
 90
        9
 70
     0
 43
0.0
 10
1.191482020513124
 20
10.73473749999999
 42
0.1432467981947568
 10
1.216706671368581
 20
10.74211559687124
 42
0.1071754848060475
 10
1.241392837339166
 20
10.7666665220159
 42
0.0783035184710328
 10
1.256339504961527
 20
10.80028777636669
 42
0.0656020556757086
 10
1.262066574577634
 20
10.84375
 42
0.0656020556757101
 10
1.256339504961527
 20
10.8872122236333
 42
0.0783035184710357
 10
1.241392837339166
 20
10.9208334779841
 42
0.1071754848060445
 10
1.216706671368581
 20
10.94538440312875
 42
0.1432467981947535
 10
1.191482020513124
 20
10.9527625
 42
0.1432467981947515
  0
LINE
  5
78
330
2
100
AcDbEntity
  8
0
100
AcDbLine
 10
0.5111869436664058
 20
12.09022357603872
 30
0.0
 11
0.5111869436664058
 21
12.59375
 31
0.0
  0
LINE
  5
79
330
2
100
AcDbEntity
  8
0
100
AcDbLine
 10
0.5111869436664058
 20
12.59375
 30
0.0
 11
0.5111869436664058
 21
12.09022331999445
 31
0.0
  0
LINE
  5
7A
330
2
100
AcDbEntity
  8
0
100
AcDbLine
 10
0.8236869436664058
 20
11.67417018544544
 30
0.0
 11
0.8236869436664058
 21
11.02772357603872
 31
0.0
  0
ARC
  5
7B
330
2
100
AcDbEntity
  8
0
100
AcDbCircle
 10
0.6986869436664058
 20
11.67417018544544
 30
0.0
 40
0.125
100
AcDbArc
 50
0.0
 51
45.00000000000015
  0
ARC
  5
7C
330
2
100
AcDbEntity
  8
0
100
AcDbCircle
 10
0.6361869436664058
 20
12.09022357603872
 30
0.0
 40
0.125
100
AcDbArc
 50
180.0
 51
225.0000000000001
  0
LINE
  5
7D
330
2
100
AcDbEntity
  8
0
100
AcDbLine
 10
0.5477985960180867
 20
12.0018352283904
 30
0.0
 11
0.787075291314725
 21
11.76255853309376
 31
0.0
  0
LINE
  5
7E
330
2
100
AcDbEntity
  8
0
100
AcDbLine
 10
2.191482020513124
 20
12.59375
 30
0.0
 11
2.191482020513124
 21
6.293749999999992
 31
0.0
  0
LINE
  5
7F
330
2
100
AcDbEntity
  8
0
  6
DASHED
100
AcDbLine
 10
2.019327241263479
 20
0.09375
 30
0.0
 11
-1.967270916303509
 21
0.09375
 31
0.0
  0
LINE
  5
81
330
2
100
AcDbEntity
  8
0
  6
Continuous
100
AcDbLine
 10
1.984013471202989
 20
0.0
 30
0.0
 11
-1.984013471202989
 21
0.0
 31
0.0
  0
LINE
  5
82
330
2
100
AcDbEntity
  8
0
100
AcDbLine
 10
-0.4407160174773033
 20
1.774043919598327
 30
0.0
 11
-1.769143142223474
 21
0.445616794852171
 31
0.0
  0
ARC
  5
83
330
2
100
AcDbEntity
  8
0
100
AcDbCircle
 10
-1.238813056333566
 20
-0.0847132910377191
 30
0.0
 40
0.75
100
AcDbArc
 50
134.9999999999994
 51
173.5145409117434
  0
ENDSEC
  0
SECTION
  2
OBJECTS
  0
DICTIONARY
  5
9
330
0
100
AcDbDictionary
281
     1
  3
ACAD_COLOR
350
89
  3
ACAD_GROUP
350
23
  3
ACAD_LAYOUT
350
D
  3
ACAD_MATERIAL
350
8B
  3
ACAD_MLINESTYLE
350
24
  3
ACAD_PLOTSETTINGS
350
25
  3
ACAD_PLOTSTYLENAME
350
8
  3
ACDBHEADERROUNDTRIPXREC
350
88
  3
AcDbVariableDictionary
350
84
  0
DICTIONARY
  5
89
102
{ACAD_REACTORS
330
9
102
}
330
9
100
AcDbDictionary
281
     1
  0
DICTIONARY
  5
23
102
{ACAD_REACTORS
330
9
102
}
330
9
100
AcDbDictionary
281
     1
  0
DICTIONARY
  5
D
102
{ACAD_REACTORS
330
9
102
}
330
9
100
AcDbDictionary
281
     1
  3
Layout1
350
13
  3
Model
350
C
  0
DICTIONARY
  5
8B
102
{ACAD_REACTORS
330
9
102
}
330
9
100
AcDbDictionary
281
     1
  0
DICTIONARY
  5
24
102
{ACAD_REACTORS
330
9
102
}
330
9
100
AcDbDictionary
281
     1
  3
STANDARD
350
26
  0
DICTIONARY
  5
25
102
{ACAD_REACTORS
330
9
102
}
330
9
100
AcDbDictionary
281
     1
  0
ACDBDICTIONARYWDFLT
  5
8
102
{ACAD_REACTORS
330
9
102
}
330
9
100
AcDbDictionary
281
     1
  3
Normal
350
7
100
AcDbDictionaryWithDefault
340
7
  0
DICTIONARY
  5
88
102
{ACAD_REACTORS
330
9
102
}
330
9
100
AcDbDictionary
281
     1
  3
COLORDICT
350
8A
  3
MATERIALDICT
350
8C
  0
DICTIONARY
  5
84
102
{ACAD_REACTORS
330
9
102
}
330
9
100
AcDbDictionary
281
     1
  3
HIDETEXT
350
87
  0
LAYOUT
  5
13
102
{ACAD_REACTORS
330
D
102
}
102
{ACAD_XDICTIONARY
360
8D
102
}
330
D
100
AcDbPlotSettings
  1

  2
HP LaserJet 2100 Series PS
  4

  6

 40
0.0
 41
0.0
 42
0.0
 43
0.0
 44
0.0
 45
0.0
 46
0.0
 47
0.0
 48
0.0
 49
0.0
140
0.0
141
0.0
142
1.0
143
1.0
 70
   688
 72
     0
 73
     0
 74
     5
  7

 75
    16
147
1.0
148
0.0
149
0.0
100
AcDbLayout
  1
Layout1
 70
     0
 71
     1
 10
0.0
 20
0.0
 11
12.0
 21
9.0
 12
0.0
 22
0.0
 32
0.0
 14
1.000000000000000E+20
 24
1.000000000000000E+20
 34
1.000000000000000E+20
 15
-1.000000000000000E+20
 25
-1.000000000000000E+20
 35
-1.000000000000000E+20
146
0.0
 13
0.0
 23
0.0
 33
0.0
 16
1.0
 26
0.0
 36
0.0
 17
0.0
 27
1.0
 37
0.0
 76
     0
330
E
  0
LAYOUT
  5
C
102
{ACAD_REACTORS
330
D
102
}
102
{ACAD_XDICTIONARY
360
8F
102
}
330
D
100
AcDbPlotSettings
  1

  2
HP LaserJet 2100 Series PS
  4
Letter
  6

 40
5.365749835968018
 41
5.408084392547607
 42
5.4080810546875
 43
5.365753173828125
 44
215.8999938964844
 45
279.3999938964844
 46
0.0
 47
0.0
 48
0.0
 49
0.0
140
0.0
141
0.0
142
1.0
143
3.971318409846261
 70
 11952
 72
     0
 73
     1
 74
     2
  7

 75
     0
147
0.2518055458662435
148
0.0
149
0.0
100
AcDbLayout
  1
Model
 70
     1
 71
     0
 10
0.0
 20
0.0
 11
12.0
 21
9.0
 12
0.0
 22
0.0
 32
0.0
 14
0.0
 24
0.0
 34
0.0
 15
0.0
 25
0.0
 35
0.0
146
0.0
 13
0.0
 23
0.0
 33
0.0
 16
1.0
 26
0.0
 36
0.0
 17
0.0
 27
1.0
 37
0.0
 76
     0
330
2
  0
MLINESTYLE
  5
26
102
{ACAD_REACTORS
330
24
102
}
330
24
100
AcDbMlineStyle
  2
STANDARD
 70
     0
  3

 62
   256
 51
90.0
 52
90.0
 71
     2
 49
0.5
 62
   256
  6
BYLAYER
 49
-0.5
 62
   256
  6
BYLAYER
  0
ACDBPLACEHOLDER
  5
7
102
{ACAD_REACTORS
330
8
102
}
330
8
  0
XRECORD
  5
8A
102
{ACAD_REACTORS
330
88
102
}
330
88
100
AcDbXrecord
340
89
  0
XRECORD
  5
8C
102
{ACAD_REACTORS
330
88
102
}
330
88
100
AcDbXrecord
340
8B
  0
DICTIONARYVAR
  5
87
102
{ACAD_REACTORS
330
84
102
}
330
84
100
DictionaryVariables
280
     0
  1
0
  0
DICTIONARY
  5
8D
330
13
100
AcDbDictionary
280
     1
281
     1
  3
ACAD_XREC_ROUNDTRIP
360
8E
  0
DICTIONARY
  5
8F
330
C
100
AcDbDictionary
280
     1
281
     1
  3
ACAD_XREC_ROUNDTRIP
360
90
  0
XRECORD
  5
8E
102
{ACAD_REACTORS
330
8D
102
}
330
8D
100
AcDbXrecord
102
SHADEPLOT
 70
     0
102
SHADEPLOTRESLEVEL
 70
     2
102
SHADEPLOTCUSTOMDPI
 70
   300
  0
XRECORD
  5
90
102
{ACAD_REACTORS
330
8F
102
}
330
8F
100
AcDbXrecord
102
SHADEPLOT
 70
     0
102
SHADEPLOTRESLEVEL
 70
     2
102
SHADEPLOTCUSTOMDPI
 70
   300
  0
ENDSEC
  0
EOF
