  0
SECTION
  2
HEADER
  9
$ACADVER
  1
AC1015
  9
$ACADMAINTVER
 70
     6
  9
$DWGCODEPAGE
  3
ANSI_1252
  9
$INSBASE
 10
0.0
 20
0.0
 30
0.0
  9
$EXTMIN
 10
-17.57391349688861
 20
-0.2524413320380745
 30
-0.0015258207003583
  9
$EXTMAX
 10
19.35617072572487
 20
21.21484381195023
 30
0.0000000349246037
  9
$LIMMIN
 10
0.0
 20
0.0
  9
$LIMMAX
 10
42.0
 20
32.0
  9
$ORTHOMODE
 70
     1
  9
$REGENMODE
 70
     1
  9
$FILLMODE
 70
     1
  9
$QTEXTMODE
 70
     0
  9
$MIRRTEXT
 70
     1
  9
$LTSCALE
 40
0.75
  9
$ATTMODE
 70
     1
  9
$TEXTSIZE
 40
0.36
  9
$TRACEWID
 40
0.05
  9
$TEXTSTYLE
  7
STANDARD
  9
$CLAYER
  8
0
  9
$CELTYPE
  6
BYLAYER
  9
$CECOLOR
 62
   256
  9
$CELTSCALE
 40
1.0
  9
$DISPSILH
 70
     0
  9
$DIMSCALE
 40
4.0
  9
$DIMASZ
 40
0.125
  9
$DIMEXO
 40
0.062
  9
$DIMDLI
 40
0.375
  9
$DIMRND
 40
0.0
  9
$DIMDLE
 40
0.0
  9
$DIMEXE
 40
0.08
  9
$DIMTP
 40
0.0
  9
$DIMTM
 40
0.0
  9
$DIMTXT
 40
0.09
  9
$DIMCEN
 40
-0.06
  9
$DIMTSZ
 40
0.0
  9
$DIMTOL
 70
     0
  9
$DIMLIM
 70
     0
  9
$DIMTIH
 70
     1
  9
$DIMTOH
 70
     1
  9
$DIMSE1
 70
     0
  9
$DIMSE2
 70
     0
  9
$DIMTAD
 70
     0
  9
$DIMZIN
 70
     0
  9
$DIMBLK
  1

  9
$DIMASO
 70
     0
  9
$DIMSHO
 70
     0
  9
$DIMPOST
  1

  9
$DIMAPOST
  1

  9
$DIMALT
 70
     0
  9
$DIMALTD
 70
     2
  9
$DIMALTF
 40
25.4
  9
$DIMLFAC
 40
1.0
  9
$DIMTOFL
 70
     0
  9
$DIMTVP
 40
0.0
  9
$DIMTIX
 70
     0
  9
$DIMSOXD
 70
     0
  9
$DIMSAH
 70
     0
  9
$DIMBLK1
  1

  9
$DIMBLK2
  1

  9
$DIMSTYLE
  2
STANDARD
  9
$DIMCLRD
 70
     0
  9
$DIMCLRE
 70
     0
  9
$DIMCLRT
 70
     0
  9
$DIMTFAC
 40
1.0
  9
$DIMGAP
 40
0.09375
  9
$DIMJUST
 70
     0
  9
$DIMSD1
 70
     0
  9
$DIMSD2
 70
     0
  9
$DIMTOLJ
 70
     1
  9
$DIMTZIN
 70
     0
  9
$DIMALTZ
 70
     0
  9
$DIMALTTZ
 70
     0
  9
$DIMUPT
 70
     0
  9
$DIMDEC
 70
     5
  9
$DIMTDEC
 70
     5
  9
$DIMALTU
 70
     5
  9
$DIMALTTD
 70
     2
  9
$DIMTXSTY
  7
STANDARD
  9
$DIMAUNIT
 70
     0
  9
$DIMADEC
 70
     0
  9
$DIMALTRND
 40
0.0
  9
$DIMAZIN
 70
     0
  9
$DIMDSEP
 70
    46
  9
$DIMATFIT
 70
     3
  9
$DIMFRAC
 70
     2
  9
$DIMLDRBLK
  1

  9
$DIMLUNIT
 70
     5
  9
$DIMLWD
 70
    -2
  9
$DIMLWE
 70
    -2
  9
$DIMTMOVE
 70
     2
  9
$LUNITS
 70
     5
  9
$LUPREC
 70
     5
  9
$SKETCHINC
 40
0.1
  9
$FILLETRAD
 40
0.0
  9
$AUNITS
 70
     0
  9
$AUPREC
 70
     0
  9
$MENU
  1
SIMPSON
  9
$ELEVATION
 40
0.0
  9
$PELEVATION
 40
0.0
  9
$THICKNESS
 40
0.0
  9
$LIMCHECK
 70
     0
  9
$CHAMFERA
 40
0.0
  9
$CHAMFERB
 40
0.0
  9
$CHAMFERC
 40
0.0
  9
$CHAMFERD
 40
0.0
  9
$SKPOLY
 70
     0
  9
$TDCREATE
 40
2448957.705422801
  9
$TDUCREATE
 40
2448958.038756135
  9
$TDUPDATE
 40
2453817.642113253
  9
$TDUUPDATE
 40
2453817.975446586
  9
$TDINDWG
 40
0.1660868056
  9
$TDUSRTIMER
 40
0.1660868056
  9
$USRTIMER
 70
     1
  9
$ANGBASE
 50
0.0
  9
$ANGDIR
 70
     0
  9
$PDMODE
 70
     0
  9
$PDSIZE
 40
0.0
  9
$PLINEWID
 40
0.0
  9
$SPLFRAME
 70
     0
  9
$SPLINETYPE
 70
     6
  9
$SPLINESEGS
 70
     8
  9
$HANDSEED
  5
23B
  9
$SURFTAB1
 70
     6
  9
$SURFTAB2
 70
     6
  9
$SURFTYPE
 70
     6
  9
$SURFU
 70
     6
  9
$SURFV
 70
     6
  9
$UCSBASE
  2

  9
$UCSNAME
  2

  9
$UCSORG
 10
0.0
 20
0.0
 30
0.0
  9
$UCSXDIR
 10
1.0
 20
0.0
 30
0.0
  9
$UCSYDIR
 10
0.0
 20
1.0
 30
0.0
  9
$UCSORTHOREF
  2

  9
$UCSORTHOVIEW
 70
     0
  9
$UCSORGTOP
 10
0.0
 20
0.0
 30
0.0
  9
$UCSORGBOTTOM
 10
0.0
 20
0.0
 30
0.0
  9
$UCSORGLEFT
 10
0.0
 20
0.0
 30
0.0
  9
$UCSORGRIGHT
 10
0.0
 20
0.0
 30
0.0
  9
$UCSORGFRONT
 10
0.0
 20
0.0
 30
0.0
  9
$UCSORGBACK
 10
0.0
 20
0.0
 30
0.0
  9
$PUCSBASE
  2

  9
$PUCSNAME
  2

  9
$PUCSORG
 10
0.0
 20
0.0
 30
0.0
  9
$PUCSXDIR
 10
1.0
 20
0.0
 30
0.0
  9
$PUCSYDIR
 10
0.0
 20
1.0
 30
0.0
  9
$PUCSORTHOREF
  2

  9
$PUCSORTHOVIEW
 70
     0
  9
$PUCSORGTOP
 10
0.0
 20
0.0
 30
0.0
  9
$PUCSORGBOTTOM
 10
0.0
 20
0.0
 30
0.0
  9
$PUCSORGLEFT
 10
0.0
 20
0.0
 30
0.0
  9
$PUCSORGRIGHT
 10
0.0
 20
0.0
 30
0.0
  9
$PUCSORGFRONT
 10
0.0
 20
0.0
 30
0.0
  9
$PUCSORGBACK
 10
0.0
 20
0.0
 30
0.0
  9
$USERI1
 70
     0
  9
$USERI2
 70
     0
  9
$USERI3
 70
     0
  9
$USERI4
 70
     0
  9
$USERI5
 70
     0
  9
$USERR1
 40
0.0
  9
$USERR2
 40
0.0
  9
$USERR3
 40
0.0
  9
$USERR4
 40
0.0
  9
$USERR5
 40
0.0
  9
$WORLDVIEW
 70
     1
  9
$SHADEDGE
 70
     3
  9
$SHADEDIF
 70
    70
  9
$TILEMODE
 70
     1
  9
$MAXACTVP
 70
    16
  9
$PINSBASE
 10
0.0
 20
0.0
 30
0.0
  9
$PLIMCHECK
 70
     0
  9
$PEXTMIN
 10
1.000000000000000E+20
 20
1.000000000000000E+20
 30
1.000000000000000E+20
  9
$PEXTMAX
 10
-1.000000000000000E+20
 20
-1.000000000000000E+20
 30
-1.000000000000000E+20
  9
$PLIMMIN
 10
0.0
 20
0.0
  9
$PLIMMAX
 10
12.0
 20
9.0
  9
$UNITMODE
 70
     0
  9
$VISRETAIN
 70
     0
  9
$PLINEGEN
 70
     0
  9
$PSLTSCALE
 70
     0
  9
$TREEDEPTH
 70
  3020
  9
$CMLSTYLE
  2
STANDARD
  9
$CMLJUST
 70
     0
  9
$CMLSCALE
 40
1.0
  9
$PROXYGRAPHICS
 70
     1
  9
$MEASUREMENT
 70
     0
  9
$CELWEIGHT
370
    -1
  9
$ENDCAPS
280
     0
  9
$JOINSTYLE
280
     0
  9
$LWDISPLAY
290
     0
  9
$INSUNITS
 70
     0
  9
$HYPERLINKBASE
  1

  9
$STYLESHEET
  1

  9
$XEDIT
290
     1
  9
$CEPSNTYPE
380
     0
  9
$PSTYLEMODE
290
     1
  9
$FINGERPRINTGUID
  2
{69B101A7-8CA8-11D5-BE3F-00508B5FCD51}
  9
$VERSIONGUID
  2
{AD21718F-9852-4706-923B-FB6A6B61AC51}
  9
$EXTNAMES
290
     1
  9
$PSVPSCALE
 40
0.0
  9
$OLESTARTUP
290
     0
  0
ENDSEC
  0
SECTION
  2
CLASSES
  0
CLASS
  1
DICTIONARYVAR
  2
AcDbDictionaryVar
  3
AutoCAD 2000
 90
        0
280
     0
281
     0
  0
CLASS
  1
LWPOLYLINE
  2
AcDbPolyline
  3
AutoCAD 2000
 90
        0
280
     0
281
     1
  0
CLASS
  1
ACDBDICTIONARYWDFLT
  2
AcDbDictionaryWithDefault
  3
AutoCAD 2000
 90
        0
280
     0
281
     0
  0
CLASS
  1
ACDBPLACEHOLDER
  2
AcDbPlaceHolder
  3
ObjectDBX Classes
 90
        0
280
     0
281
     0
  0
CLASS
  1
LAYOUT
  2
AcDbLayout
  3
ObjectDBX Classes
 90
        0
280
     0
281
     0
  0
CLASS
  1
LONG_TRANSACTION
  2
AcDbLongTransaction
  3
AutoCAD 2000
 90
   -65536
280
     1
281
     0
  0
CLASS
  1
LWPOLYLINE
  2
AcDbPolyline
  3
AutoCAD 2000
 90
        0
280
     0
281
     1
  0
CLASS
  1
HATCH
  2
AcDbHatch
  3
AutoCAD 2000
 90
        0
280
     0
281
     1
  0
CLASS
  1
XRECORD
  2
AcDbXrecord
  3
AutoCAD 2000
 90
        0
280
     0
281
     0
  0
CLASS
  1
LONG_TRANSACTION
  2
AcDbLongTransaction
  3
AutoCAD 2000
 90
   -65536
280
     1
281
     0
  0
CLASS
  1
LWPOLYLINE
  2
AcDbPolyline
  3
AutoCAD 2000
 90
        0
280
     0
281
     1
  0
CLASS
  1
HATCH
  2
AcDbHatch
  3
AutoCAD 2000
 90
        0
280
     0
281
     1
  0
CLASS
  1
XRECORD
  2
AcDbXrecord
  3
AutoCAD 2000
 90
        0
280
     0
281
     0
  0
CLASS
  1
LONG_TRANSACTION
  2
AcDbLongTransaction
  3
AutoCAD 2000
 90
   -65536
280
     1
281
     0
  0
CLASS
  1
LWPOLYLINE
  2
AcDbPolyline
  3
AutoCAD 2000
 90
        0
280
     0
281
     1
  0
CLASS
  1
HATCH
  2
AcDbHatch
  3
AutoCAD 2000
 90
        0
280
     0
281
     1
  0
CLASS
  1
XRECORD
  2
AcDbXrecord
  3
AutoCAD 2000
 90
        0
280
     0
281
     0
  0
CLASS
  1
LONG_TRANSACTION
  2
AcDbLongTransaction
  3
AutoCAD 2000
 90
   -65536
280
     1
281
     0
  0
CLASS
  1
LWPOLYLINE
  2
AcDbPolyline
  3
AutoCAD 2000
 90
        0
280
     0
281
     1
  0
CLASS
  1
HATCH
  2
AcDbHatch
  3
AutoCAD 2000
 90
        0
280
     0
281
     1
  0
CLASS
  1
XRECORD
  2
AcDbXrecord
  3
AutoCAD 2000
 90
        0
280
     0
281
     0
  0
CLASS
  1
LONG_TRANSACTION
  2
AcDbLongTransaction
  3
AutoCAD 2000
 90
   -65536
280
     1
281
     0
  0
CLASS
  1
LWPOLYLINE
  2
AcDbPolyline
  3
AutoCAD 2000
 90
        0
280
     0
281
     1
  0
CLASS
  1
HATCH
  2
AcDbHatch
  3
AutoCAD 2000
 90
        0
280
     0
281
     1
  0
CLASS
  1
XRECORD
  2
AcDbXrecord
  3
AutoCAD 2000
 90
        0
280
     0
281
     0
  0
CLASS
  1
LONG_TRANSACTION
  2
AcDbLongTransaction
  3
AutoCAD 2000
 90
   -65536
280
     1
281
     0
  0
CLASS
  1
LWPOLYLINE
  2
AcDbPolyline
  3
AutoCAD 2000
 90
        0
280
     0
281
     1
  0
CLASS
  1
HATCH
  2
AcDbHatch
  3
AutoCAD 2000
 90
        0
280
     0
281
     1
  0
CLASS
  1
XRECORD
  2
AcDbXrecord
  3
AutoCAD 2000
 90
        0
280
     0
281
     0
  0
CLASS
  1
LONG_TRANSACTION
  2
AcDbLongTransaction
  3
AutoCAD 2000
 90
   -65536
280
     1
281
     0
  0
CLASS
  1
LWPOLYLINE
  2
AcDbPolyline
  3
AutoCAD 2000
 90
        0
280
     0
281
     1
  0
CLASS
  1
HATCH
  2
AcDbHatch
  3
AutoCAD 2000
 90
        0
280
     0
281
     1
  0
CLASS
  1
XRECORD
  2
AcDbXrecord
  3
AutoCAD 2000
 90
        0
280
     0
281
     0
  0
CLASS
  1
LONG_TRANSACTION
  2
AcDbLongTransaction
  3
AutoCAD 2000
 90
   -65536
280
     1
281
     0
  0
CLASS
  1
LWPOLYLINE
  2
AcDbPolyline
  3
AutoCAD 2000
 90
        0
280
     0
281
     1
  0
CLASS
  1
HATCH
  2
AcDbHatch
  3
AutoCAD 2000
 90
        0
280
     0
281
     1
  0
CLASS
  1
XRECORD
  2
AcDbXrecord
  3
AutoCAD 2000
 90
        0
280
     0
281
     0
  0
CLASS
  1
LONG_TRANSACTION
  2
AcDbLongTransaction
  3
AutoCAD 2000
 90
   -65536
280
     1
281
     0
  0
CLASS
  1
LWPOLYLINE
  2
AcDbPolyline
  3
AutoCAD 2000
 90
        0
280
     0
281
     1
  0
CLASS
  1
HATCH
  2
AcDbHatch
  3
AutoCAD 2000
 90
        0
280
     0
281
     1
  0
CLASS
  1
XRECORD
  2
AcDbXrecord
  3
AutoCAD 2000
 90
        0
280
     0
281
     0
  0
CLASS
  1
LONG_TRANSACTION
  2
AcDbLongTransaction
  3
AutoCAD 2000
 90
   -65536
280
     1
281
     0
  0
CLASS
  1
LWPOLYLINE
  2
AcDbPolyline
  3
AutoCAD 2000
 90
        0
280
     0
281
     1
  0
CLASS
  1
HATCH
  2
AcDbHatch
  3
AutoCAD 2000
 90
        0
280
     0
281
     1
  0
CLASS
  1
XRECORD
  2
AcDbXrecord
  3
AutoCAD 2000
 90
        0
280
     0
281
     0
  0
CLASS
  1
LONG_TRANSACTION
  2
AcDbLongTransaction
  3
AutoCAD 2000
 90
   -65536
280
     1
281
     0
  0
CLASS
  1
LWPOLYLINE
  2
AcDbPolyline
  3
AutoCAD 2000
 90
        0
280
     0
281
     1
  0
CLASS
  1
HATCH
  2
AcDbHatch
  3
AutoCAD 2000
 90
        0
280
     0
281
     1
  0
CLASS
  1
XRECORD
  2
AcDbXrecord
  3
AutoCAD 2000
 90
        0
280
     0
281
     0
  0
CLASS
  1
LONG_TRANSACTION
  2
AcDbLongTransaction
  3
AutoCAD 2000
 90
   -65536
280
     1
281
     0
  0
CLASS
  1
LWPOLYLINE
  2
AcDbPolyline
  3
AutoCAD 2000
 90
        0
280
     0
281
     1
  0
CLASS
  1
HATCH
  2
AcDbHatch
  3
AutoCAD 2000
 90
        0
280
     0
281
     1
  0
CLASS
  1
XRECORD
  2
AcDbXrecord
  3
AutoCAD 2000
 90
        0
280
     0
281
     0
  0
CLASS
  1
LONG_TRANSACTION
  2
AcDbLongTransaction
  3
AutoCAD 2000
 90
   -65536
280
     1
281
     0
  0
CLASS
  1
LWPOLYLINE
  2
AcDbPolyline
  3
AutoCAD 2000
 90
        0
280
     0
281
     1
  0
CLASS
  1
HATCH
  2
AcDbHatch
  3
AutoCAD 2000
 90
        0
280
     0
281
     1
  0
CLASS
  1
XRECORD
  2
AcDbXrecord
  3
AutoCAD 2000
 90
        0
280
     0
281
     0
  0
CLASS
  1
LONG_TRANSACTION
  2
AcDbLongTransaction
  3
AutoCAD 2000
 90
   -65536
280
     1
281
     0
  0
CLASS
  1
LWPOLYLINE
  2
AcDbPolyline
  3
AutoCAD 2000
 90
        0
280
     0
281
     1
  0
CLASS
  1
HATCH
  2
AcDbHatch
  3
AutoCAD 2000
 90
        0
280
     0
281
     1
  0
CLASS
  1
XRECORD
  2
AcDbXrecord
  3
AutoCAD 2000
 90
        0
280
     0
281
     0
  0
CLASS
  1
LONG_TRANSACTION
  2
AcDbLongTransaction
  3
AutoCAD 2000
 90
   -65536
280
     1
281
     0
  0
CLASS
  1
LWPOLYLINE
  2
AcDbPolyline
  3
AutoCAD 2000
 90
        0
280
     0
281
     1
  0
CLASS
  1
HATCH
  2
AcDbHatch
  3
AutoCAD 2000
 90
        0
280
     0
281
     1
  0
CLASS
  1
XRECORD
  2
AcDbXrecord
  3
AutoCAD 2000
 90
        0
280
     0
281
     0
  0
CLASS
  1
LONG_TRANSACTION
  2
AcDbLongTransaction
  3
AutoCAD 2000
 90
   -65536
280
     1
281
     0
  0
CLASS
  1
LWPOLYLINE
  2
AcDbPolyline
  3
AutoCAD 2000
 90
        0
280
     0
281
     1
  0
CLASS
  1
HATCH
  2
AcDbHatch
  3
AutoCAD 2000
 90
        0
280
     0
281
     1
  0
CLASS
  1
XRECORD
  2
AcDbXrecord
  3
AutoCAD 2000
 90
        0
280
     0
281
     0
  0
ENDSEC
  0
SECTION
  2
TABLES
  0
TABLE
  2
VPORT
  5
1D
330
0
100
AcDbSymbolTable
 70
     3
  0
VPORT
  5
230
330
1D
100
AcDbSymbolTableRecord
100
AcDbViewportTableRecord
  2
*Active
 70
     0
 10
0.0
 20
0.0
 11
1.0
 21
1.0
 12
12.2130432515557
 22
15.87377933398097
 13
0.0
 23
0.0
 14
0.063
 24
0.063
 15
0.25
 25
0.25
 16
0.0
 26
0.0
 36
1.0
 17
0.0
 27
0.0
 37
0.0
 40
38.16180340140699
 41
1.568831168831169
 42
50.0
 43
0.0
 44
0.0
 50
0.0
 51
0.0
 71
     0
 72
   100
 73
     1
 74
     1
 75
     0
 76
     0
 77
     0
 78
     0
281
     0
 65
     1
110
0.0
120
0.0
130
0.0
111
1.0
121
0.0
131
0.0
112
0.0
122
1.0
132
0.0
 79
     0
146
0.0
  0
ENDTAB
  0
TABLE
  2
LTYPE
  5
18
330
0
100
AcDbSymbolTable
 70
     2
  0
LTYPE
  5
19
330
18
100
AcDbSymbolTableRecord
100
AcDbLinetypeTableRecord
  2
BYBLOCK
 70
     0
  3

 72
    65
 73
     0
 40
0.0
  0
LTYPE
  5
1A
330
18
100
AcDbSymbolTableRecord
100
AcDbLinetypeTableRecord
  2
BYLAYER
 70
     0
  3

 72
    65
 73
     0
 40
0.0
  0
LTYPE
  5
A
330
18
100
AcDbSymbolTableRecord
100
AcDbLinetypeTableRecord
  2
CONTINUOUS
 70
     0
  3
Solid line
 72
    65
 73
     0
 40
0.0
  0
LTYPE
  5
3C
330
18
100
AcDbSymbolTableRecord
100
AcDbLinetypeTableRecord
  2
DASHED
 70
     0
  3
__ __ __ __ __ __ __ __ __ __ __ __ __ __ __
 72
    65
 73
     2
 40
0.75
 49
0.5
 74
     0
 49
-0.25
 74
     0
  0
ENDTAB
  0
TABLE
  2
LAYER
  5
14
330
0
100
AcDbSymbolTable
 70
     1
  0
LAYER
  5
6
330
14
100
AcDbSymbolTableRecord
100
AcDbLayerTableRecord
  2
0
 70
     0
 62
     7
  6
CONTINUOUS
370
    -3
390
7
  0
ENDTAB
  0
TABLE
  2
STYLE
  5
15
330
0
100
AcDbSymbolTable
 70
     1
  0
STYLE
  5
16
330
15
100
AcDbSymbolTableRecord
100
AcDbTextStyleTableRecord
  2
STANDARD
 70
     0
 40
0.0
 41
1.0
 50
0.0
 71
     0
 42
0.36
  3
TXT
  4

  0
ENDTAB
  0
TABLE
  2
VIEW
  5
1B
330
0
100
AcDbSymbolTable
 70
     0
  0
ENDTAB
  0
TABLE
  2
UCS
  5
1C
330
0
100
AcDbSymbolTable
 70
     0
  0
ENDTAB
  0
TABLE
  2
APPID
  5
1F
330
0
100
AcDbSymbolTable
 70
     1
  0
APPID
  5
20
330
1F
100
AcDbSymbolTableRecord
100
AcDbRegAppTableRecord
  2
ACAD
 70
     0
  0
ENDTAB
  0
TABLE
  2
DIMSTYLE
  5
21
330
0
100
AcDbSymbolTable
 70
     1
100
AcDbDimStyleTable
  0
DIMSTYLE
105
27
330
21
100
AcDbSymbolTableRecord
100
AcDbDimStyleTableRecord
  2
STANDARD
 70
     0
  3

  4

340
16
  0
ENDTAB
  0
TABLE
  2
BLOCK_RECORD
  5
1
330
0
100
AcDbSymbolTable
 70
     0
  0
BLOCK_RECORD
  5
2
330
1
100
AcDbSymbolTableRecord
100
AcDbBlockTableRecord
  2
*MODEL_SPACE
340
C
  0
BLOCK_RECORD
  5
E
330
1
100
AcDbSymbolTableRecord
100
AcDbBlockTableRecord
  2
*PAPER_SPACE
340
13
  0
ENDTAB
  0
ENDSEC
  0
SECTION
  2
BLOCKS
  0
BLOCK
  5
5
330
2
100
AcDbEntity
  8
0
100
AcDbBlockBegin
  2
*MODEL_SPACE
 70
     0
 10
0.0
 20
0.0
 30
0.0
  3
*MODEL_SPACE
  1

  4

  0
ENDBLK
  5
B
330
2
100
AcDbEntity
  8
0
100
AcDbBlockEnd
  0
BLOCK
  5
11
330
E
100
AcDbEntity
 67
     1
  8
0
100
AcDbBlockBegin
  2
*PAPER_SPACE
 70
     0
 10
0.0
 20
0.0
 30
0.0
  3
*PAPER_SPACE
  1

  4

  0
ENDBLK
  5
12
330
E
100
AcDbEntity
 67
     1
  8
0
100
AcDbBlockEnd
  0
ENDSEC
  0
SECTION
  2
ENTITIES
  0
LINE
  5
28
330
2
100
AcDbEntity
  8
0
  6
Continuous
100
AcDbLine
 10
-17.57179035570236
 20
0.1566565610497541
 30
0.0
 11
-17.57179035570236
 21
12.34375000000001
 31
0.0
  0
LINE
  5
29
330
2
100
AcDbEntity
  8
0
100
AcDbLine
 10
-17.47804035570236
 20
12.34375000000001
 30
0.0
 11
-17.47804035570236
 21
6.043750000000003
 31
0.0
  0
LINE
  5
2A
330
2
100
AcDbEntity
  8
0
100
AcDbLine
 10
-16.11024527885564
 20
7.424170185445455
 30
0.0
 11
-16.11024527885564
 21
6.777723576038731
 31
0.0
  0
ARC
  5
2B
330
2
100
AcDbEntity
  8
0
100
AcDbCircle
 10
-4.389669104289119
 20
7.035647300821385
 30
0.0
 40
0.125
100
AcDbArc
 50
180.0
 51
225.0000000000003
  0
ARC
  5
2C
330
2
100
AcDbEntity
  8
0
100
AcDbCircle
 10
4.389669104289126
 20
7.027723576038724
 30
0.0
 40
0.125
100
AcDbArc
 50
314.9999999999997
 51
0.0
  0
LINE
  5
2D
330
2
100
AcDbEntity
  8
0
100
AcDbLine
 10
-1.882464181135838
 20
7.125000000000007
 30
0.0
 11
-1.882464181135838
 21
6.812500000000007
 31
0.0
  0
ELLIPSE
  5
2E
330
2
100
AcDbEntity
  8
0
100
AcDbEllipse
 10
-1.882464181135838
 20
6.968750000000007
 30
0.0
 11
0.0
 21
-0.1383375000000022
 31
0.0
210
0.0
220
0.0
230
-1.0
 40
0.9035872413481376
 41
0.0
 42
3.141592653589793
  0
ELLIPSE
  5
2F
330
2
100
AcDbEntity
  8
0
100
AcDbEllipse
 10
-1.882464181135838
 20
6.968750000000021
 30
0.0
 11
0.0
 21
-0.1875000000000142
 31
0.0
210
0.0
220
0.0
230
-1.0
 40
0.9999999999999242
 41
0.0
 42
3.141592653589793
  0
LINE
  5
30
330
2
100
AcDbEntity
  8
0
  6
Continuous
100
AcDbLine
 10
-1.788714181135838
 20
0.1875
 30
0.0
 11
-1.788714181135838
 21
12.60167372478266
 31
0.0
  0
LINE
  5
31
330
2
100
AcDbEntity
  8
0
  6
Continuous
100
AcDbLine
 10
1.788714181135838
 20
0.1875
 30
0.0
 11
1.788714181135838
 21
12.59375
 31
0.0
  0
LINE
  5
32
330
2
100
AcDbEntity
  8
0
  6
Continuous
100
AcDbLine
 10
-1.882464181135838
 20
0.1875
 30
0.0
 11
-1.882464181135838
 21
12.60167372478266
 31
0.0
  0
LINE
  5
33
330
2
100
AcDbEntity
  8
0
  6
Continuous
100
AcDbLine
 10
1.882464181135838
 20
0.1874999999999982
 30
0.0
 11
1.882464181135838
 21
12.59375
 31
0.0
  0
ARC
  5
34
330
2
100
AcDbEntity
  8
0
100
AcDbCircle
 10
-0.9449641811356457
 20
4.064894077712609
 30
0.0
 40
3.25
100
AcDbArc
 50
180.0
 51
225.0000000000005
  0
CIRCLE
  5
35
330
2
100
AcDbEntity
  8
0
100
AcDbCircle
 10
-3.733414181135842
 20
3.726673724782661
 30
0.0
 40
0.0855
  0
CIRCLE
  5
36
330
2
100
AcDbEntity
  8
0
100
AcDbCircle
 10
-3.733414181135842
 20
5.726673724782661
 30
0.0
 40
0.0855
  0
LINE
  5
37
330
2
100
AcDbEntity
  8
0
  6
Continuous
100
AcDbLine
 10
-17.47804035570236
 20
0.0825529292420022
 30
0.0
 11
-17.47804035570236
 21
6.343750000000007
 31
0.0
  0
ARC
  5
38
330
2
100
AcDbEntity
  8
0
100
AcDbCircle
 10
-12.54774527885564
 20
3.822140958454664
 30
0.0
 40
3.25
100
AcDbArc
 50
180.0
 51
225.0000000000006
  0
ARC
  5
39
330
2
100
AcDbEntity
  8
0
100
AcDbCircle
 10
-17.98852003842244
 20
-0.4669108944352374
 30
0.0
 40
0.75
100
AcDbArc
 50
16.81093668363811
 51
56.24522144191531
  0
LINE
  5
3A
330
2
100
AcDbEntity
  8
0
  6
Continuous
100
AcDbLine
 10
-17.27057180639223
 20
-0.2499999999999893
 30
0.0
 11
-13.30254486398625
 21
-0.2499999999999893
 31
0.0
  0
LINE
  5
3B
330
2
100
AcDbEntity
  8
0
  6
DASHED
100
AcDbLine
 10
-17.30588557645272
 20
-0.1562499999999893
 30
0.0
 11
-13.31928741888573
 21
-0.1562499999999893
 31
0.0
  0
LINE
  5
3D
330
2
100
AcDbEntity
  8
0
100
AcDbLine
 10
-16.47804035570236
 20
0.4554125000000102
 30
0.0
 11
-16.47804035570236
 21
0.7320875000000147
 31
0.0
  0
LWPOLYLINE
  5
3E
330
2
100
AcDbEntity
  8
0
100
AcDbPolyline
 90
        9
 70
     0
 43
0.0
 10
-16.47804035570236
 20
0.4554125000000102
 42
-0.0700628980345364
 10
-16.55715915950241
 20
0.4665537757688814
 42
-0.0818514225363451
 10
-16.61905547762885
 20
0.4959306156576151
 42
-0.1069100077216601
 10
-16.66365362869435
 20
0.5436775284126458
 42
-0.135394011665182
 10
-16.67746585363049
 20
0.5937500000000089
 42
-0.1353940116651818
 10
-16.66365362869435
 20
0.643822471587379
 42
-0.1069100077216599
 10
-16.61905547762885
 20
0.6915693843424027
 42
-0.0818514225363446
 10
-16.55715915950241
 20
0.7209462242311435
 42
-0.0700628980345367
 10
-16.47804035570236
 20
0.7320875000000147
 42
-0.0700628980345371
  0
LWPOLYLINE
  5
3F
330
2
100
AcDbEntity
  8
0
100
AcDbPolyline
 90
        9
 70
     0
 43
0.0
 10
-16.47804035570236
 20
0.4847375000000103
 42
-0.1432467981947568
 10
-16.50326500655782
 20
0.4921155968712601
 42
-0.1071754848060475
 10
-16.5279511725284
 20
0.5166665220159121
 42
-0.0783035184710328
 10
-16.54289784015077
 20
0.5502877763667105
 42
-0.0656020556757086
 10
-16.54862490976687
 20
0.593750000000016
 42
-0.0656020556757101
 10
-16.54289784015077
 20
0.6372122236333144
 42
-0.0783035184710357
 10
-16.5279511725284
 20
0.6708334779841128
 42
-0.1071754848060445
 10
-16.50326500655782
 20
0.6953844031287648
 42
-0.1432467981947535
 10
-16.47804035570236
 20
0.7027625000000146
 42
-0.1432467981947515
  0
LWPOLYLINE
  5
40
330
2
100
AcDbEntity
  8
0
100
AcDbPolyline
 90
        9
 70
     0
 43
0.0
 10
-16.47804035570236
 20
0.5140625000000103
 42
-0.147269582437036
 10
-16.4957367788649
 20
0.5193903416878047
 42
-0.1071386913803464
 10
-16.5132886725284
 20
0.5374024283742092
 42
-0.0765137470862007
 10
-16.52383058657517
 20
0.5619071664083695
 42
-0.063469041210727
 10
-16.52788900340858
 20
0.593750000000016
 42
-0.0634690412107267
 10
-16.52383058657517
 20
0.6255928335916554
 42
-0.0765137470862059
 10
-16.5132886725284
 20
0.6500975716258157
 42
-0.1071386913803463
 10
-16.4957367788649
 20
0.6681096583122201
 42
-0.1472695824370325
 10
-16.47804035570236
 20
0.6734375000000146
 42
-0.1472695824370333
  0
LINE
  5
41
330
2
100
AcDbEntity
  8
0
100
AcDbLine
 10
-16.47804035570236
 20
1.45541250000001
 30
0.0
 11
-16.47804035570236
 21
1.732087500000015
 31
0.0
  0
LWPOLYLINE
  5
42
330
2
100
AcDbEntity
  8
0
100
AcDbPolyline
 90
        9
 70
     0
 43
0.0
 10
-16.47804035570236
 20
1.48473750000001
 42
-0.1432467981947568
 10
-16.50326500655782
 20
1.49211559687126
 42
-0.1071754848060475
 10
-16.5279511725284
 20
1.516666522015912
 42
-0.0783035184710328
 10
-16.54289784015077
 20
1.55028777636671
 42
-0.0656020556757086
 10
-16.54862490976687
 20
1.593750000000016
 42
-0.0656020556757101
 10
-16.54289784015077
 20
1.637212223633314
 42
-0.0783035184710357
 10
-16.5279511725284
 20
1.670833477984113
 42
-0.1071754848060445
 10
-16.50326500655782
 20
1.695384403128765
 42
-0.1432467981947535
 10
-16.47804035570236
 20
1.702762500000015
 42
-0.1432467981947515
  0
LWPOLYLINE
  5
43
330
2
100
AcDbEntity
  8
0
100
AcDbPolyline
 90
        9
 70
     0
 43
0.0
 10
-16.47804035570236
 20
1.45541250000001
 42
-0.0700628980345364
 10
-16.55715915950241
 20
1.466553775768881
 42
-0.0818514225363451
 10
-16.61905547762885
 20
1.495930615657615
 42
-0.1069100077216601
 10
-16.66365362869435
 20
1.543677528412646
 42
-0.135394011665182
 10
-16.67746585363049
 20
1.593750000000009
 42
-0.1353940116651818
 10
-16.66365362869435
 20
1.643822471587379
 42
-0.1069100077216599
 10
-16.61905547762885
 20
1.691569384342403
 42
-0.0818514225363446
 10
-16.55715915950241
 20
1.720946224231144
 42
-0.0700628980345367
 10
-16.47804035570236
 20
1.732087500000015
 42
-0.0700628980345371
  0
LWPOLYLINE
  5
44
330
2
100
AcDbEntity
  8
0
100
AcDbPolyline
 90
        9
 70
     0
 43
0.0
 10
-16.47804035570236
 20
1.51406250000001
 42
-0.147269582437036
 10
-16.4957367788649
 20
1.519390341687805
 42
-0.1071386913803464
 10
-16.5132886725284
 20
1.537402428374209
 42
-0.0765137470862007
 10
-16.52383058657517
 20
1.56190716640837
 42
-0.063469041210727
 10
-16.52788900340858
 20
1.593750000000016
 42
-0.0634690412107267
 10
-16.52383058657517
 20
1.625592833591655
 42
-0.0765137470862059
 10
-16.5132886725284
 20
1.650097571625816
 42
-0.1071386913803463
 10
-16.4957367788649
 20
1.66810965831222
 42
-0.1472695824370325
 10
-16.47804035570236
 20
1.673437500000015
 42
-0.1472695824370333
  0
LINE
  5
45
330
2
100
AcDbEntity
  8
0
100
AcDbLine
 10
-14.84584231771193
 20
1.524043919598338
 30
0.0
 11
-13.51741519296576
 21
0.1956167948521816
 31
0.0
  0
ARC
  5
46
330
2
100
AcDbEntity
  8
0
100
AcDbCircle
 10
-14.04774527885567
 20
-0.3347132910377084
 30
0.0
 40
0.75
100
AcDbArc
 50
6.485459088256595
 51
45.00000000000059
  0
LINE
  5
47
330
2
100
AcDbEntity
  8
0
100
AcDbLine
 10
-16.47804035570236
 20
4.455412500000008
 30
0.0
 11
-16.47804035570236
 21
4.732087500000013
 31
0.0
  0
LWPOLYLINE
  5
48
330
2
100
AcDbEntity
  8
0
100
AcDbPolyline
 90
        9
 70
     0
 43
0.0
 10
-16.47804035570236
 20
4.455412500000008
 42
-0.0700628980345364
 10
-16.55715915950241
 20
4.46655377576888
 42
-0.0818514225363451
 10
-16.61905547762885
 20
4.495930615657613
 42
-0.1069100077216601
 10
-16.66365362869435
 20
4.543677528412644
 42
-0.135394011665182
 10
-16.67746585363049
 20
4.593750000000007
 42
-0.1353940116651818
 10
-16.66365362869435
 20
4.643822471587377
 42
-0.1069100077216599
 10
-16.61905547762885
 20
4.691569384342401
 42
-0.0818514225363446
 10
-16.55715915950241
 20
4.720946224231142
 42
-0.0700628980345367
 10
-16.47804035570236
 20
4.732087500000013
 42
-0.0700628980345371
  0
LINE
  5
49
330
2
100
AcDbEntity
  8
0
100
AcDbLine
 10
-16.07363362650396
 20
4.689335228390412
 30
0.0
 11
-15.83435693120732
 21
4.450058533093774
 31
0.0
  0
LINE
  5
4A
330
2
100
AcDbEntity
  8
0
100
AcDbLine
 10
-16.47804035570236
 20
2.455412500000008
 30
0.0
 11
-16.47804035570236
 21
2.732087500000013
 31
0.0
  0
LWPOLYLINE
  5
4B
330
2
100
AcDbEntity
  8
0
100
AcDbPolyline
 90
        9
 70
     0
 43
0.0
 10
-16.47804035570236
 20
2.484737500000009
 42
-0.1432467981947568
 10
-16.50326500655782
 20
2.492115596871258
 42
-0.1071754848060475
 10
-16.5279511725284
 20
2.51666652201591
 42
-0.0783035184710328
 10
-16.54289784015077
 20
2.550287776366709
 42
-0.0656020556757086
 10
-16.54862490976687
 20
2.593750000000014
 42
-0.0656020556757101
 10
-16.54289784015077
 20
2.637212223633313
 42
-0.0783035184710357
 10
-16.5279511725284
 20
2.670833477984111
 42
-0.1071754848060445
 10
-16.50326500655782
 20
2.695384403128763
 42
-0.1432467981947535
 10
-16.47804035570236
 20
2.702762500000013
 42
-0.1432467981947515
  0
LWPOLYLINE
  5
4C
330
2
100
AcDbEntity
  8
0
100
AcDbPolyline
 90
        9
 70
     0
 43
0.0
 10
-16.47804035570236
 20
2.455412500000008
 42
-0.0700628980345364
 10
-16.55715915950241
 20
2.46655377576888
 42
-0.0818514225363451
 10
-16.61905547762885
 20
2.495930615657613
 42
-0.1069100077216601
 10
-16.66365362869435
 20
2.543677528412644
 42
-0.135394011665182
 10
-16.67746585363049
 20
2.593750000000007
 42
-0.1353940116651818
 10
-16.66365362869435
 20
2.643822471587377
 42
-0.1069100077216599
 10
-16.61905547762885
 20
2.691569384342401
 42
-0.0818514225363446
 10
-16.55715915950241
 20
2.720946224231142
 42
-0.0700628980345367
 10
-16.47804035570236
 20
2.732087500000013
 42
-0.0700628980345371
  0
LWPOLYLINE
  5
4D
330
2
100
AcDbEntity
  8
0
100
AcDbPolyline
 90
        9
 70
     0
 43
0.0
 10
-16.47804035570236
 20
2.514062500000009
 42
-0.147269582437036
 10
-16.4957367788649
 20
2.519390341687803
 42
-0.1071386913803464
 10
-16.5132886725284
 20
2.537402428374207
 42
-0.0765137470862007
 10
-16.52383058657517
 20
2.561907166408368
 42
-0.063469041210727
 10
-16.52788900340858
 20
2.593750000000014
 42
-0.0634690412107267
 10
-16.52383058657517
 20
2.625592833591654
 42
-0.0765137470862059
 10
-16.5132886725284
 20
2.650097571625814
 42
-0.1071386913803463
 10
-16.4957367788649
 20
2.668109658312218
 42
-0.1472695824370325
 10
-16.47804035570236
 20
2.673437500000013
 42
-0.1472695824370333
  0
LINE
  5
4E
330
2
100
AcDbEntity
  8
0
100
AcDbLine
 10
-16.47804035570236
 20
3.455412500000008
 30
0.0
 11
-16.47804035570236
 21
3.732087500000013
 31
0.0
  0
LWPOLYLINE
  5
4F
330
2
100
AcDbEntity
  8
0
100
AcDbPolyline
 90
        9
 70
     0
 43
0.0
 10
-16.47804035570236
 20
3.484737500000009
 42
-0.1432467981947568
 10
-16.50326500655782
 20
3.492115596871258
 42
-0.1071754848060475
 10
-16.5279511725284
 20
3.51666652201591
 42
-0.0783035184710328
 10
-16.54289784015077
 20
3.550287776366709
 42
-0.0656020556757086
 10
-16.54862490976687
 20
3.593750000000014
 42
-0.0656020556757101
 10
-16.54289784015077
 20
3.637212223633313
 42
-0.0783035184710357
 10
-16.5279511725284
 20
3.670833477984111
 42
-0.1071754848060445
 10
-16.50326500655782
 20
3.695384403128763
 42
-0.1432467981947535
 10
-16.47804035570236
 20
3.702762500000013
 42
-0.1432467981947515
  0
LWPOLYLINE
  5
50
330
2
100
AcDbEntity
  8
0
100
AcDbPolyline
 90
        9
 70
     0
 43
0.0
 10
-16.47804035570236
 20
3.455412500000008
 42
-0.0700628980345364
 10
-16.55715915950241
 20
3.46655377576888
 42
-0.0818514225363451
 10
-16.61905547762885
 20
3.495930615657613
 42
-0.1069100077216601
 10
-16.66365362869435
 20
3.543677528412644
 42
-0.135394011665182
 10
-16.67746585363049
 20
3.593750000000007
 42
-0.1353940116651818
 10
-16.66365362869435
 20
3.643822471587377
 42
-0.1069100077216599
 10
-16.61905547762885
 20
3.691569384342401
 42
-0.0818514225363446
 10
-16.55715915950241
 20
3.720946224231142
 42
-0.0700628980345367
 10
-16.47804035570236
 20
3.732087500000013
 42
-0.0700628980345371
  0
LWPOLYLINE
  5
51
330
2
100
AcDbEntity
  8
0
100
AcDbPolyline
 90
        9
 70
     0
 43
0.0
 10
-16.47804035570236
 20
3.514062500000009
 42
-0.147269582437036
 10
-16.4957367788649
 20
3.519390341687803
 42
-0.1071386913803464
 10
-16.5132886725284
 20
3.537402428374207
 42
-0.0765137470862007
 10
-16.52383058657517
 20
3.561907166408368
 42
-0.063469041210727
 10
-16.52788900340858
 20
3.593750000000014
 42
-0.0634690412107267
 10
-16.52383058657517
 20
3.625592833591654
 42
-0.0765137470862059
 10
-16.5132886725284
 20
3.650097571625814
 42
-0.1071386913803463
 10
-16.4957367788649
 20
3.668109658312218
 42
-0.1472695824370325
 10
-16.47804035570236
 20
3.673437500000013
 42
-0.1472695824370333
  0
LINE
  5
52
330
2
100
AcDbEntity
  8
0
100
AcDbLine
 10
-15.79774527885565
 20
3.822140958454664
 30
0.0
 11
-15.79774527885565
 21
4.361670185445458
 31
0.0
  0
ARC
  5
53
330
2
100
AcDbEntity
  8
0
100
AcDbCircle
 10
-15.92274527885564
 20
4.361670185445455
 30
0.0
 40
0.125
100
AcDbArc
 50
0.000000000000007
 51
45.00000000000016
  0
LINE
  5
54
330
2
100
AcDbEntity
  8
0
100
AcDbLine
 10
-16.47804035570236
 20
5.455412500000008
 30
0.0
 11
-16.47804035570236
 21
5.732087500000013
 31
0.0
  0
LWPOLYLINE
  5
55
330
2
100
AcDbEntity
  8
0
100
AcDbPolyline
 90
        9
 70
     0
 43
0.0
 10
-16.47804035570236
 20
5.455412500000008
 42
-0.0700628980345364
 10
-16.55715915950241
 20
5.46655377576888
 42
-0.0818514225363451
 10
-16.61905547762885
 20
5.495930615657613
 42
-0.1069100077216601
 10
-16.66365362869435
 20
5.543677528412644
 42
-0.135394011665182
 10
-16.67746585363049
 20
5.593750000000007
 42
-0.1353940116651818
 10
-16.66365362869435
 20
5.643822471587377
 42
-0.1069100077216599
 10
-16.61905547762885
 20
5.691569384342401
 42
-0.0818514225363446
 10
-16.55715915950241
 20
5.720946224231142
 42
-0.0700628980345367
 10
-16.47804035570236
 20
5.732087500000013
 42
-0.0700628980345371
  0
LINE
  5
56
330
2
100
AcDbEntity
  8
0
100
AcDbLine
 10
-15.83435693120732
 20
5.751835228390412
 30
0.0
 11
-16.07363362650396
 21
5.512558533093774
 31
0.0
  0
LWPOLYLINE
  5
57
330
2
100
AcDbEntity
  8
0
100
AcDbPolyline
 90
        9
 70
     0
 43
0.0
 10
-16.47804035570236
 20
4.484737500000009
 42
-0.1432467981947568
 10
-16.50326500655782
 20
4.492115596871258
 42
-0.1071754848060475
 10
-16.5279511725284
 20
4.51666652201591
 42
-0.0783035184710328
 10
-16.54289784015077
 20
4.550287776366709
 42
-0.0656020556757086
 10
-16.54862490976687
 20
4.593750000000014
 42
-0.0656020556757101
 10
-16.54289784015077
 20
4.637212223633313
 42
-0.0783035184710357
 10
-16.5279511725284
 20
4.670833477984111
 42
-0.1071754848060445
 10
-16.50326500655782
 20
4.695384403128763
 42
-0.1432467981947535
 10
-16.47804035570236
 20
4.702762500000013
 42
-0.1432467981947515
  0
LWPOLYLINE
  5
58
330
2
100
AcDbEntity
  8
0
100
AcDbPolyline
 90
        9
 70
     0
 43
0.0
 10
-16.47804035570236
 20
4.514062500000009
 42
-0.147269582437036
 10
-16.4957367788649
 20
4.519390341687803
 42
-0.1071386913803464
 10
-16.5132886725284
 20
4.537402428374207
 42
-0.0765137470862007
 10
-16.52383058657517
 20
4.561907166408368
 42
-0.063469041210727
 10
-16.52788900340858
 20
4.593750000000014
 42
-0.0634690412107267
 10
-16.52383058657517
 20
4.625592833591654
 42
-0.0765137470862059
 10
-16.5132886725284
 20
4.650097571625814
 42
-0.1071386913803463
 10
-16.4957367788649
 20
4.668109658312218
 42
-0.1472695824370325
 10
-16.47804035570236
 20
4.673437500000013
 42
-0.1472695824370333
  0
LWPOLYLINE
  5
59
330
2
100
AcDbEntity
  8
0
100
AcDbPolyline
 90
        9
 70
     0
 43
0.0
 10
-16.47804035570236
 20
5.484737500000009
 42
-0.1432467981947568
 10
-16.50326500655782
 20
5.492115596871258
 42
-0.1071754848060475
 10
-16.5279511725284
 20
5.51666652201591
 42
-0.0783035184710328
 10
-16.54289784015077
 20
5.550287776366709
 42
-0.0656020556757086
 10
-16.54862490976687
 20
5.593750000000014
 42
-0.0656020556757101
 10
-16.54289784015077
 20
5.637212223633313
 42
-0.0783035184710357
 10
-16.5279511725284
 20
5.670833477984111
 42
-0.1071754848060445
 10
-16.50326500655782
 20
5.695384403128763
 42
-0.1432467981947535
 10
-16.47804035570236
 20
5.702762500000013
 42
-0.1432467981947515
  0
LWPOLYLINE
  5
5A
330
2
100
AcDbEntity
  8
0
100
AcDbPolyline
 90
        9
 70
     0
 43
0.0
 10
-16.47804035570236
 20
5.514062500000009
 42
-0.147269582437036
 10
-16.4957367788649
 20
5.519390341687803
 42
-0.1071386913803464
 10
-16.5132886725284
 20
5.537402428374207
 42
-0.0765137470862007
 10
-16.52383058657517
 20
5.561907166408368
 42
-0.063469041210727
 10
-16.52788900340858
 20
5.593750000000014
 42
-0.0634690412107267
 10
-16.52383058657517
 20
5.625592833591654
 42
-0.0765137470862059
 10
-16.5132886725284
 20
5.650097571625814
 42
-0.1071386913803463
 10
-16.4957367788649
 20
5.668109658312218
 42
-0.1472695824370325
 10
-16.47804035570236
 20
5.673437500000013
 42
-0.1472695824370333
  0
LINE
  5
5B
330
2
100
AcDbEntity
  8
0
100
AcDbLine
 10
-16.11024527885564
 20
5.424170185445455
 30
0.0
 11
-16.11024527885564
 21
4.777723576038731
 31
0.0
  0
ARC
  5
5C
330
2
100
AcDbEntity
  8
0
100
AcDbCircle
 10
-15.98524527885564
 20
4.777723576038731
 30
0.0
 40
0.125
100
AcDbArc
 50
180.0
 51
225.0000000000002
  0
ARC
  5
5D
330
2
100
AcDbEntity
  8
0
100
AcDbCircle
 10
-15.98524527885564
 20
5.424170185445455
 30
0.0
 40
0.125
100
AcDbArc
 50
134.9999999999999
 51
180.0
  0
LINE
  5
5E
330
2
100
AcDbEntity
  8
0
100
AcDbLine
 10
-16.47804035570236
 20
6.455412500000005
 30
0.0
 11
-16.47804035570236
 21
6.732087500000009
 31
0.0
  0
LWPOLYLINE
  5
5F
330
2
100
AcDbEntity
  8
0
100
AcDbPolyline
 90
        9
 70
     0
 43
0.0
 10
-16.47804035570236
 20
6.484737500000005
 42
-0.1432467981947568
 10
-16.50326500655782
 20
6.492115596871255
 42
-0.1071754848060475
 10
-16.5279511725284
 20
6.516666522015907
 42
-0.0783035184710328
 10
-16.54289784015077
 20
6.550287776366705
 42
-0.0656020556757086
 10
-16.54862490976687
 20
6.593750000000011
 42
-0.0656020556757101
 10
-16.54289784015077
 20
6.637212223633309
 42
-0.0783035184710357
 10
-16.5279511725284
 20
6.670833477984107
 42
-0.1071754848060445
 10
-16.50326500655782
 20
6.69538440312876
 42
-0.1432467981947535
 10
-16.47804035570236
 20
6.702762500000009
 42
-0.1432467981947515
  0
LWPOLYLINE
  5
60
330
2
100
AcDbEntity
  8
0
100
AcDbPolyline
 90
        9
 70
     0
 43
0.0
 10
-16.47804035570236
 20
6.455412500000005
 42
-0.0700628980345364
 10
-16.55715915950241
 20
6.466553775768876
 42
-0.0818514225363451
 10
-16.61905547762885
 20
6.49593061565761
 42
-0.1069100077216601
 10
-16.66365362869435
 20
6.543677528412641
 42
-0.135394011665182
 10
-16.67746585363049
 20
6.593750000000004
 42
-0.1353940116651818
 10
-16.66365362869435
 20
6.643822471587374
 42
-0.1069100077216599
 10
-16.61905547762885
 20
6.691569384342397
 42
-0.0818514225363446
 10
-16.55715915950241
 20
6.720946224231138
 42
-0.0700628980345367
 10
-16.47804035570236
 20
6.732087500000009
 42
-0.0700628980345371
  0
LWPOLYLINE
  5
61
330
2
100
AcDbEntity
  8
0
100
AcDbPolyline
 90
        9
 70
     0
 43
0.0
 10
-16.47804035570236
 20
6.514062500000005
 42
-0.147269582437036
 10
-16.4957367788649
 20
6.519390341687799
 42
-0.1071386913803464
 10
-16.5132886725284
 20
6.537402428374204
 42
-0.0765137470862007
 10
-16.52383058657517
 20
6.561907166408364
 42
-0.063469041210727
 10
-16.52788900340858
 20
6.593750000000011
 42
-0.0634690412107267
 10
-16.52383058657517
 20
6.62559283359165
 42
-0.0765137470862059
 10
-16.5132886725284
 20
6.65009757162581
 42
-0.1071386913803463
 10
-16.4957367788649
 20
6.668109658312215
 42
-0.1472695824370325
 10
-16.47804035570236
 20
6.673437500000009
 42
-0.1472695824370333
  0
LINE
  5
62
330
2
100
AcDbEntity
  8
0
100
AcDbLine
 10
-15.79774527885564
 20
6.343750000000007
 30
0.0
 11
-15.79774527885564
 21
5.840223319994458
 31
0.0
  0
LINE
  5
63
330
2
100
AcDbEntity
  8
0
100
AcDbLine
 10
-15.79774527885564
 20
5.840223576038731
 30
0.0
 11
-15.79774527885564
 21
6.343750000000007
 31
0.0
  0
ARC
  5
64
330
2
100
AcDbEntity
  8
0
100
AcDbCircle
 10
-15.92274527885564
 20
5.840223576038731
 30
0.0
 40
0.125
100
AcDbArc
 50
314.9999999999999
 51
0.000000000000007
  0
LINE
  5
65
330
2
100
AcDbEntity
  8
0
100
AcDbLine
 10
-16.07363362650396
 20
6.689335228390412
 30
0.0
 11
-15.83435693120732
 21
6.450058533093774
 31
0.0
  0
ARC
  5
66
330
2
100
AcDbEntity
  8
0
100
AcDbCircle
 10
-15.92274527885564
 20
6.361670185445455
 30
0.0
 40
0.125
100
AcDbArc
 50
0.000000000000007
 51
45.00000000000016
  0
ARC
  5
67
330
2
100
AcDbEntity
  8
0
100
AcDbCircle
 10
-15.98524527885564
 20
6.777723576038731
 30
0.0
 40
0.125
100
AcDbArc
 50
180.0
 51
225.0000000000002
  0
LINE
  5
68
330
2
100
AcDbEntity
  8
0
100
AcDbLine
 10
-4.194964181135653
 20
4.064894077712609
 30
0.0
 11
-4.194964181135653
 21
4.604423304703404
 31
0.0
  0
CIRCLE
  5
69
330
2
100
AcDbEntity
  8
0
100
AcDbCircle
 10
-3.952164181135835
 20
4.351673724782661
 30
0.0
 40
0.0855
  0
ARC
  5
6A
330
2
100
AcDbEntity
  8
0
100
AcDbCircle
 10
-4.389669104289119
 20
5.682093910228101
 30
0.0
 40
0.125
100
AcDbArc
 50
134.9999999999996
 51
180.0
  0
LINE
  5
6B
330
2
100
AcDbEntity
  8
0
100
AcDbLine
 10
-4.514669104289119
 20
5.682093910228101
 30
0.0
 11
-4.514669104289119
 21
5.035647300821385
 31
0.0
  0
LINE
  5
6C
330
2
100
AcDbEntity
  8
0
100
AcDbLine
 10
-4.478057451937438
 20
4.947258953173066
 30
0.0
 11
-4.238780756640804
 21
4.707982257876427
 31
0.0
  0
ARC
  5
6D
330
2
100
AcDbEntity
  8
0
100
AcDbCircle
 10
-4.389669104289119
 20
5.035647300821385
 30
0.0
 40
0.125
100
AcDbArc
 50
180.0
 51
225.0000000000003
  0
ARC
  5
6E
330
2
100
AcDbEntity
  8
0
100
AcDbCircle
 10
-4.327169104289119
 20
4.619593910228108
 30
0.0
 40
0.125
100
AcDbArc
 50
0.0
 51
45.00000000000014
  0
CIRCLE
  5
6F
330
2
100
AcDbEntity
  8
0
100
AcDbCircle
 10
-4.264664181135835
 20
5.351673724782661
 30
0.0
 40
0.0855
  0
CIRCLE
  5
70
330
2
100
AcDbEntity
  8
0
100
AcDbCircle
 10
-3.952164181135835
 20
6.351673724782668
 30
0.0
 40
0.0855
  0
LINE
  5
71
330
2
100
AcDbEntity
  8
0
100
AcDbLine
 10
-4.202169104289119
 20
6.098147402433749
 30
0.0
 11
-4.202169104289116
 21
6.601673724782657
 31
0.0
  0
LINE
  5
72
330
2
100
AcDbEntity
  8
0
100
AcDbLine
 10
-4.202169104289119
 20
6.601673724782657
 30
0.0
 11
-4.202169104289119
 21
6.098147300821378
 31
0.0
  0
LINE
  5
73
330
2
100
AcDbEntity
  8
0
100
AcDbLine
 10
-4.2387807566408
 20
6.009758953173058
 30
0.0
 11
-4.478057451937438
 21
5.77048225787642
 31
0.0
  0
ARC
  5
74
330
2
100
AcDbEntity
  8
0
100
AcDbCircle
 10
-4.327169104289119
 20
6.098147300821378
 30
0.0
 40
0.125
100
AcDbArc
 50
315.0
 51
0.0
  0
LINE
  5
75
330
2
100
AcDbEntity
  8
0
100
AcDbLine
 10
-4.478057451937438
 20
6.947258953173066
 30
0.0
 11
-4.238780756640804
 21
6.707982257876427
 31
0.0
  0
ARC
  5
76
330
2
100
AcDbEntity
  8
0
100
AcDbCircle
 10
-4.327169104289119
 20
6.619593910228108
 30
0.0
 40
0.125
100
AcDbArc
 50
0.0
 51
45.00000000000014
  0
ARC
  5
77
330
2
100
AcDbEntity
  8
0
100
AcDbCircle
 10
0.9449641811356457
 20
4.064894077712609
 30
0.0
 40
3.25
100
AcDbArc
 50
314.9999999999995
 51
0.0
  0
LINE
  5
78
330
2
100
AcDbEntity
  8
0
100
AcDbLine
 10
-1.882464181135838
 20
2.125000000000007
 30
0.0
 11
-1.882464181135838
 21
1.812500000000007
 31
0.0
  0
ELLIPSE
  5
79
330
2
100
AcDbEntity
  8
0
100
AcDbEllipse
 10
-1.882464181135838
 20
1.968750000000007
 30
0.0
 11
0.0
 21
-0.1383375000000022
 31
0.0
210
0.0
220
0.0
230
-1.0
 40
0.9035872413481376
 41
0.0
 42
3.141592653589793
  0
ELLIPSE
  5
7A
330
2
100
AcDbEntity
  8
0
100
AcDbEllipse
 10
-1.882464181135838
 20
1.968750000000021
 30
0.0
 11
0.0
 21
-0.1875000000000142
 31
0.0
210
0.0
220
0.0
230
-1.0
 40
0.9999999999999242
 41
0.0
 42
3.141592653589793
  0
LINE
  5
7B
330
2
100
AcDbEntity
  8
0
100
AcDbLine
 10
-1.694964181135838
 20
0.0
 30
0.0
 11
1.694964181135838
 21
-0.0000000000000018
 31
0.0
  0
LINE
  5
7C
330
2
100
AcDbEntity
  8
0
100
AcDbLine
 10
-1.694964181135838
 20
0.09375
 30
0.0
 11
1.694964181135838
 21
0.09375
 31
0.0
  0
LINE
  5
7D
330
2
100
AcDbEntity
  8
0
100
AcDbLine
 10
-3.243061219991937
 20
1.766797038856282
 30
0.0
 11
-1.882464181135838
 21
0.4062000000001973
 31
0.0
  0
ARC
  5
7E
330
2
100
AcDbEntity
  8
0
100
AcDbCircle
 10
-1.694964181135838
 20
0.1875
 30
0.0
 40
0.1875
100
AcDbArc
 50
180.0
 51
270.0
  0
ARC
  5
7F
330
2
100
AcDbEntity
  8
0
100
AcDbCircle
 10
-1.694964181135838
 20
0.1875
 30
0.0
 40
0.09375
100
AcDbArc
 50
180.0
 51
269.9999999999998
  0
LINE
  5
80
330
2
100
AcDbEntity
  8
0
100
AcDbLine
 10
-2.759664181135829
 20
1.664173724782661
 30
0.0
 11
-2.519664181135827
 21
1.664173724782661
 31
0.0
  0
CIRCLE
  5
81
330
2
100
AcDbEntity
  8
0
100
AcDbCircle
 10
-2.639664181135828
 20
1.664173724782661
 30
0.0
 40
0.0855
  0
LINE
  5
82
330
2
100
AcDbEntity
  8
0
100
AcDbLine
 10
-2.639664181135828
 20
1.544173724782663
 30
0.0
 11
-2.639664181135828
 21
1.784173724782658
 31
0.0
  0
ELLIPSE
  5
83
330
2
100
AcDbEntity
  8
0
100
AcDbEllipse
 10
-1.882464181135838
 20
0.9687500000000213
 30
0.0
 11
0.0
 21
-0.1875000000000142
 31
0.0
210
0.0
220
0.0
230
-1.0
 40
0.9999999999999242
 41
0.0
 42
3.141592653589793
  0
LINE
  5
84
330
2
100
AcDbEntity
  8
0
100
AcDbLine
 10
-1.882464181135838
 20
1.125000000000007
 30
0.0
 11
-1.882464181135838
 21
0.8125000000000071
 31
0.0
  0
LINE
  5
85
330
2
100
AcDbEntity
  8
0
100
AcDbLine
 10
-1.882464181135838
 20
0.8125000000000071
 30
0.0
 11
-1.882464181135838
 21
0.7812500000000071
 31
0.0
  0
LINE
  5
86
330
2
100
AcDbEntity
  8
0
100
AcDbLine
 10
-1.882464181135838
 20
1.125000000000036
 30
0.0
 11
-1.882464181135838
 21
1.156250000000036
 31
0.0
  0
ELLIPSE
  5
87
330
2
100
AcDbEntity
  8
0
100
AcDbEllipse
 10
-1.882464181135838
 20
0.9687500000000071
 30
0.0
 11
0.0
 21
-0.1383375000000022
 31
0.0
210
0.0
220
0.0
230
-1.0
 40
0.9035872413481376
 41
0.0
 42
3.141592653589793
  0
LINE
  5
88
330
2
100
AcDbEntity
  8
0
100
AcDbLine
 10
-1.882464181135838
 20
1.812500000000007
 30
0.0
 11
-1.882464181135838
 21
1.781250000000007
 31
0.0
  0
LINE
  5
89
330
2
100
AcDbEntity
  8
0
100
AcDbLine
 10
3.243061219991937
 20
1.766797038856282
 30
0.0
 11
1.882464181135838
 21
0.4062000000001973
 31
0.0
  0
LINE
  5
8A
330
2
100
AcDbEntity
  8
0
100
AcDbLine
 10
1.882464181135838
 20
0.7500000000000071
 30
0.0
 11
1.882464181135838
 21
0.4375000000000071
 31
0.0
  0
ELLIPSE
  5
8B
330
2
100
AcDbEntity
  8
0
100
AcDbEllipse
 10
1.882464181135838
 20
0.5937500000000213
 30
0.0
 11
0.0
 21
-0.1875000000000142
 31
0.0
210
0.0
220
0.0
230
1.0
 40
0.9999999999999242
 41
0.0
 42
3.141592653589793
  0
ELLIPSE
  5
8C
330
2
100
AcDbEntity
  8
0
100
AcDbEllipse
 10
1.882464181135838
 20
0.5937500000000071
 30
0.0
 11
0.0
 21
-0.1383375000000022
 31
0.0
210
0.0
220
0.0
230
1.0
 40
0.9035872413481376
 41
0.0
 42
3.141592653589793
  0
ARC
  5
8D
330
2
100
AcDbEntity
  8
0
100
AcDbCircle
 10
1.694964181135838
 20
0.1874999999999982
 30
0.0
 40
0.1875
100
AcDbArc
 50
270.0
 51
0.0
  0
ARC
  5
8E
330
2
100
AcDbEntity
  8
0
100
AcDbCircle
 10
1.694964181135838
 20
0.1875
 30
0.0
 40
0.09375
100
AcDbArc
 50
270.0
 51
0.0
  0
LINE
  5
8F
330
2
100
AcDbEntity
  8
0
100
AcDbLine
 10
1.882464181135838
 20
0.4375000000000071
 30
0.0
 11
1.882464181135838
 21
0.4062500000000071
 31
0.0
  0
ELLIPSE
  5
90
330
2
100
AcDbEntity
  8
0
100
AcDbEllipse
 10
1.882464181135838
 20
1.593750000000007
 30
0.0
 11
0.0
 21
-0.1383375000000022
 31
0.0
210
0.0
220
0.0
230
1.0
 40
0.9035872413481376
 41
0.0
 42
3.141592653589793
  0
ELLIPSE
  5
91
330
2
100
AcDbEntity
  8
0
100
AcDbEllipse
 10
1.882464181135838
 20
1.593750000000021
 30
0.0
 11
0.0
 21
-0.1875000000000142
 31
0.0
210
0.0
220
0.0
230
1.0
 40
0.9999999999999242
 41
0.0
 42
3.141592653589793
  0
LINE
  5
92
330
2
100
AcDbEntity
  8
0
100
AcDbLine
 10
1.882464181135838
 20
0.7500000000000355
 30
0.0
 11
1.882464181135838
 21
0.7812500000000355
 31
0.0
  0
LINE
  5
93
330
2
100
AcDbEntity
  8
0
100
AcDbLine
 10
1.882464181135838
 20
1.750000000000007
 30
0.0
 11
1.882464181135838
 21
1.437500000000007
 31
0.0
  0
LINE
  5
94
330
2
100
AcDbEntity
  8
0
100
AcDbLine
 10
1.882464181135838
 20
1.437500000000007
 30
0.0
 11
1.882464181135838
 21
1.406250000000007
 31
0.0
  0
LINE
  5
95
330
2
100
AcDbEntity
  8
0
100
AcDbLine
 10
1.882464181135838
 20
1.750000000000036
 30
0.0
 11
1.882464181135838
 21
1.781250000000036
 31
0.0
  0
CIRCLE
  5
96
330
2
100
AcDbEntity
  8
0
100
AcDbCircle
 10
2.639664181135832
 20
1.65625
 30
0.0
 40
0.0855
  0
LINE
  5
97
330
2
100
AcDbEntity
  8
0
100
AcDbLine
 10
-2.634664181135829
 20
2.861970405981083
 30
0.0
 11
-2.394664181135827
 21
2.861970405981083
 31
0.0
  0
CIRCLE
  5
98
330
2
100
AcDbEntity
  8
0
100
AcDbCircle
 10
-3.202164181135835
 20
2.351673724782661
 30
0.0
 40
0.0855
  0
CIRCLE
  5
99
330
2
100
AcDbEntity
  8
0
100
AcDbCircle
 10
-3.514664181135835
 20
3.101673724782661
 30
0.0
 40
0.0855
  0
LINE
  5
9A
330
2
100
AcDbEntity
  8
0
100
AcDbLine
 10
-1.882464181135838
 20
2.125000000000036
 30
0.0
 11
-1.882464181135838
 21
2.156250000000036
 31
0.0
  0
ELLIPSE
  5
9B
330
2
100
AcDbEntity
  8
0
100
AcDbEllipse
 10
-1.882464181135838
 20
2.968750000000021
 30
0.0
 11
0.0
 21
-0.1875000000000142
 31
0.0
210
0.0
220
0.0
230
-1.0
 40
0.9999999999999242
 41
0.0
 42
3.141592653589793
  0
LINE
  5
9C
330
2
100
AcDbEntity
  8
0
100
AcDbLine
 10
-2.514664181135828
 20
2.741970405981085
 30
0.0
 11
-2.514664181135828
 21
2.98197040598108
 31
0.0
  0
CIRCLE
  5
9D
330
2
100
AcDbEntity
  8
0
100
AcDbCircle
 10
-2.514664181135828
 20
2.861970405981083
 30
0.0
 40
0.0855
  0
LINE
  5
9E
330
2
100
AcDbEntity
  8
0
100
AcDbLine
 10
-1.882464181135838
 20
3.125000000000007
 30
0.0
 11
-1.882464181135838
 21
2.812500000000007
 31
0.0
  0
LINE
  5
9F
330
2
100
AcDbEntity
  8
0
100
AcDbLine
 10
-1.882464181135838
 20
2.812500000000007
 30
0.0
 11
-1.882464181135838
 21
2.781250000000007
 31
0.0
  0
LINE
  5
A0
330
2
100
AcDbEntity
  8
0
100
AcDbLine
 10
-1.882464181135838
 20
3.125000000000036
 30
0.0
 11
-1.882464181135838
 21
3.156250000000036
 31
0.0
  0
ELLIPSE
  5
A1
330
2
100
AcDbEntity
  8
0
100
AcDbEllipse
 10
-1.882464181135838
 20
2.968750000000007
 30
0.0
 11
0.0
 21
-0.1383375000000022
 31
0.0
210
0.0
220
0.0
230
-1.0
 40
0.9035872413481376
 41
0.0
 42
3.141592653589793
  0
CIRCLE
  5
A2
330
2
100
AcDbEntity
  8
0
100
AcDbCircle
 10
-2.639664181135828
 20
3.351673724782661
 30
0.0
 40
0.0855
  0
CIRCLE
  5
A3
330
2
100
AcDbEntity
  8
0
100
AcDbCircle
 10
-3.023964181135831
 20
3.53125
 30
0.0
 40
0.0855
  0
CIRCLE
  5
A4
330
2
100
AcDbEntity
  8
0
100
AcDbCircle
 10
-3.202164181135835
 20
4.101673724782661
 30
0.0
 40
0.0855
  0
LINE
  5
A5
330
2
100
AcDbEntity
  8
0
100
AcDbLine
 10
-1.882464181135838
 20
4.125000000000007
 30
0.0
 11
-1.882464181135838
 21
3.812500000000007
 31
0.0
  0
ELLIPSE
  5
A6
330
2
100
AcDbEntity
  8
0
100
AcDbEllipse
 10
-1.882464181135838
 20
3.968750000000021
 30
0.0
 11
0.0
 21
-0.1875000000000142
 31
0.0
210
0.0
220
0.0
230
-1.0
 40
0.9999999999999242
 41
0.0
 42
3.141592653589793
  0
ELLIPSE
  5
A7
330
2
100
AcDbEntity
  8
0
100
AcDbEllipse
 10
-1.882464181135838
 20
3.968750000000007
 30
0.0
 11
0.0
 21
-0.1383375000000022
 31
0.0
210
0.0
220
0.0
230
-1.0
 40
0.9035872413481376
 41
0.0
 42
3.141592653589793
  0
LINE
  5
A8
330
2
100
AcDbEntity
  8
0
100
AcDbLine
 10
-1.882464181135838
 20
3.812500000000007
 30
0.0
 11
-1.882464181135838
 21
3.781250000000007
 31
0.0
  0
CIRCLE
  5
A9
330
2
100
AcDbEntity
  8
0
100
AcDbCircle
 10
-2.514664181135828
 20
4.352344673588402
 30
0.0
 40
0.0855
  0
LINE
  5
AA
330
2
100
AcDbEntity
  8
0
100
AcDbLine
 10
-1.882464181135838
 20
4.125000000000036
 30
0.0
 11
-1.882464181135838
 21
4.156250000000036
 31
0.0
  0
LINE
  5
AB
330
2
100
AcDbEntity
  8
0
100
AcDbLine
 10
-2.759664181135829
 20
5.476673724782661
 30
0.0
 11
-2.519664181135827
 21
5.476673724782661
 31
0.0
  0
CIRCLE
  5
AC
330
2
100
AcDbEntity
  8
0
100
AcDbCircle
 10
-2.639664181135828
 20
5.476673724782661
 30
0.0
 40
0.0855
  0
CIRCLE
  5
AD
330
2
100
AcDbEntity
  8
0
100
AcDbCircle
 10
-3.514664181135835
 20
5.101673724782661
 30
0.0
 40
0.0855
  0
LINE
  5
AE
330
2
100
AcDbEntity
  8
0
100
AcDbLine
 10
-2.639664181135828
 20
5.356673724782663
 30
0.0
 11
-2.639664181135828
 21
5.596673724782658
 31
0.0
  0
LINE
  5
AF
330
2
100
AcDbEntity
  8
0
100
AcDbLine
 10
-1.882464181135838
 20
5.125000000000007
 30
0.0
 11
-1.882464181135838
 21
4.812500000000007
 31
0.0
  0
ELLIPSE
  5
B0
330
2
100
AcDbEntity
  8
0
100
AcDbEllipse
 10
-1.882464181135838
 20
4.968750000000021
 30
0.0
 11
0.0
 21
-0.1875000000000142
 31
0.0
210
0.0
220
0.0
230
-1.0
 40
0.9999999999999242
 41
0.0
 42
3.141592653589793
  0
ELLIPSE
  5
B1
330
2
100
AcDbEntity
  8
0
100
AcDbEllipse
 10
-1.882464181135838
 20
4.968750000000007
 30
0.0
 11
0.0
 21
-0.1383375000000022
 31
0.0
210
0.0
220
0.0
230
-1.0
 40
0.9035872413481376
 41
0.0
 42
3.141592653589793
  0
CIRCLE
  5
B2
330
2
100
AcDbEntity
  8
0
100
AcDbCircle
 10
-2.514664181135828
 20
4.851673724782668
 30
0.0
 40
0.0855
  0
LINE
  5
B3
330
2
100
AcDbEntity
  8
0
100
AcDbLine
 10
-1.882464181135838
 20
4.812500000000007
 30
0.0
 11
-1.882464181135838
 21
4.781250000000007
 31
0.0
  0
LINE
  5
B4
330
2
100
AcDbEntity
  8
0
100
AcDbLine
 10
-1.882464181135838
 20
5.125000000000036
 30
0.0
 11
-1.882464181135838
 21
5.156250000000036
 31
0.0
  0
CIRCLE
  5
B5
330
2
100
AcDbEntity
  8
0
100
AcDbCircle
 10
-3.202164181135835
 20
6.101673724782668
 30
0.0
 40
0.0855
  0
CIRCLE
  5
B6
330
2
100
AcDbEntity
  8
0
100
AcDbCircle
 10
-2.514664181135828
 20
6.351673724782668
 30
0.0
 40
0.0855
  0
ELLIPSE
  5
B7
330
2
100
AcDbEntity
  8
0
100
AcDbEllipse
 10
-1.882464181135838
 20
5.968750000000021
 30
0.0
 11
0.0
 21
-0.1875000000000142
 31
0.0
210
0.0
220
0.0
230
-1.0
 40
0.9999999999999242
 41
0.0
 42
3.141592653589793
  0
LINE
  5
B8
330
2
100
AcDbEntity
  8
0
100
AcDbLine
 10
-1.882464181135838
 20
6.125000000000036
 30
0.0
 11
-1.882464181135838
 21
6.156250000000036
 31
0.0
  0
LINE
  5
B9
330
2
100
AcDbEntity
  8
0
100
AcDbLine
 10
-1.882464181135838
 20
5.812500000000007
 30
0.0
 11
-1.882464181135838
 21
5.781250000000007
 31
0.0
  0
LINE
  5
BA
330
2
100
AcDbEntity
  8
0
100
AcDbLine
 10
-1.882464181135838
 20
6.125000000000007
 30
0.0
 11
-1.882464181135838
 21
5.812500000000007
 31
0.0
  0
ELLIPSE
  5
BB
330
2
100
AcDbEntity
  8
0
100
AcDbEllipse
 10
-1.882464181135838
 20
5.968750000000007
 30
0.0
 11
0.0
 21
-0.1383375000000022
 31
0.0
210
0.0
220
0.0
230
-1.0
 40
0.9035872413481376
 41
0.0
 42
3.141592653589793
  0
LINE
  5
BC
330
2
100
AcDbEntity
  8
0
100
AcDbLine
 10
-1.882464181135838
 20
6.812500000000007
 30
0.0
 11
-1.882464181135838
 21
6.781250000000007
 31
0.0
  0
LINE
  5
BD
330
2
100
AcDbEntity
  8
0
100
AcDbLine
 10
4.194964181135653
 20
4.064894077712609
 30
0.0
 11
4.194964181135653
 21
4.604423304703404
 31
0.0
  0
LINE
  5
BE
330
2
100
AcDbEntity
  8
0
100
AcDbLine
 10
1.882464181135838
 20
4.750000000000007
 30
0.0
 11
1.882464181135838
 21
4.437500000000007
 31
0.0
  0
ELLIPSE
  5
BF
330
2
100
AcDbEntity
  8
0
100
AcDbEllipse
 10
1.882464181135838
 20
4.593750000000021
 30
0.0
 11
0.0
 21
-0.1875000000000142
 31
0.0
210
0.0
220
0.0
230
1.0
 40
0.9999999999999242
 41
0.0
 42
3.141592653589793
  0
ELLIPSE
  5
C0
330
2
100
AcDbEntity
  8
0
100
AcDbEllipse
 10
1.882464181135838
 20
4.593750000000007
 30
0.0
 11
0.0
 21
-0.1383375000000022
 31
0.0
210
0.0
220
0.0
230
1.0
 40
0.9035872413481376
 41
0.0
 42
3.141592653589793
  0
CIRCLE
  5
C1
330
2
100
AcDbEntity
  8
0
100
AcDbCircle
 10
3.023964181135831
 20
3.53125
 30
0.0
 40
0.0855
  0
ELLIPSE
  5
C2
330
2
100
AcDbEntity
  8
0
100
AcDbEllipse
 10
1.882464181135838
 20
2.593750000000007
 30
0.0
 11
0.0
 21
-0.1383375000000022
 31
0.0
210
0.0
220
0.0
230
1.0
 40
0.9035872413481376
 41
0.0
 42
3.141592653589793
  0
ELLIPSE
  5
C3
330
2
100
AcDbEntity
  8
0
100
AcDbEllipse
 10
1.882464181135838
 20
2.593750000000021
 30
0.0
 11
0.0
 21
-0.1875000000000142
 31
0.0
210
0.0
220
0.0
230
1.0
 40
0.9999999999999242
 41
0.0
 42
3.141592653589793
  0
LINE
  5
C4
330
2
100
AcDbEntity
  8
0
100
AcDbLine
 10
1.882464181135838
 20
2.750000000000007
 30
0.0
 11
1.882464181135838
 21
2.437500000000007
 31
0.0
  0
LINE
  5
C5
330
2
100
AcDbEntity
  8
0
100
AcDbLine
 10
1.882464181135838
 20
2.437500000000007
 30
0.0
 11
1.882464181135838
 21
2.406250000000007
 31
0.0
  0
LINE
  5
C6
330
2
100
AcDbEntity
  8
0
100
AcDbLine
 10
1.882464181135838
 20
2.750000000000036
 30
0.0
 11
1.882464181135838
 21
2.781250000000036
 31
0.0
  0
CIRCLE
  5
C7
330
2
100
AcDbEntity
  8
0
100
AcDbCircle
 10
2.514664181135828
 20
2.861970405981083
 30
0.0
 40
0.0855
  0
ELLIPSE
  5
C8
330
2
100
AcDbEntity
  8
0
100
AcDbEllipse
 10
1.882464181135838
 20
3.593750000000021
 30
0.0
 11
0.0
 21
-0.1875000000000142
 31
0.0
210
0.0
220
0.0
230
1.0
 40
0.9999999999999242
 41
0.0
 42
3.141592653589793
  0
ELLIPSE
  5
C9
330
2
100
AcDbEntity
  8
0
100
AcDbEllipse
 10
1.882464181135838
 20
3.593750000000007
 30
0.0
 11
0.0
 21
-0.1383375000000022
 31
0.0
210
0.0
220
0.0
230
1.0
 40
0.9035872413481376
 41
0.0
 42
3.141592653589793
  0
LINE
  5
CA
330
2
100
AcDbEntity
  8
0
100
AcDbLine
 10
1.882464181135838
 20
3.750000000000007
 30
0.0
 11
1.882464181135838
 21
3.437500000000007
 31
0.0
  0
LINE
  5
CB
330
2
100
AcDbEntity
  8
0
100
AcDbLine
 10
1.882464181135838
 20
3.437500000000007
 30
0.0
 11
1.882464181135838
 21
3.406250000000007
 31
0.0
  0
LINE
  5
CC
330
2
100
AcDbEntity
  8
0
100
AcDbLine
 10
1.882464181135838
 20
3.750000000000036
 30
0.0
 11
1.882464181135838
 21
3.781250000000036
 31
0.0
  0
LINE
  5
CD
330
2
100
AcDbEntity
  8
0
100
AcDbLine
 10
1.882464181135838
 20
4.437500000000007
 30
0.0
 11
1.882464181135838
 21
4.406250000000007
 31
0.0
  0
CIRCLE
  5
CE
330
2
100
AcDbEntity
  8
0
100
AcDbCircle
 10
2.639664181135832
 20
3.343750000000004
 30
0.0
 40
0.0855
  0
CIRCLE
  5
CF
330
2
100
AcDbEntity
  8
0
100
AcDbCircle
 10
2.514664181135828
 20
4.352344673588402
 30
0.0
 40
0.0855
  0
CIRCLE
  5
D0
330
2
100
AcDbEntity
  8
0
100
AcDbCircle
 10
3.202164181135842
 20
2.343750000000004
 30
0.0
 40
0.0855
  0
CIRCLE
  5
D1
330
2
100
AcDbEntity
  8
0
100
AcDbCircle
 10
3.514664181135842
 20
3.093750000000004
 30
0.0
 40
0.0855
  0
CIRCLE
  5
D2
330
2
100
AcDbEntity
  8
0
100
AcDbCircle
 10
3.733414181135842
 20
3.71875
 30
0.0
 40
0.0855
  0
CIRCLE
  5
D3
330
2
100
AcDbEntity
  8
0
100
AcDbCircle
 10
3.202164181135842
 20
4.093750000000004
 30
0.0
 40
0.0855
  0
CIRCLE
  5
D4
330
2
100
AcDbEntity
  8
0
100
AcDbCircle
 10
3.952164181135842
 20
4.343750000000004
 30
0.0
 40
0.0855
  0
LINE
  5
D5
330
2
100
AcDbEntity
  8
0
100
AcDbLine
 10
1.882464181135838
 20
5.750000000000007
 30
0.0
 11
1.882464181135838
 21
5.437500000000007
 31
0.0
  0
ELLIPSE
  5
D6
330
2
100
AcDbEntity
  8
0
100
AcDbEllipse
 10
1.882464181135838
 20
5.593750000000021
 30
0.0
 11
0.0
 21
-0.1875000000000142
 31
0.0
210
0.0
220
0.0
230
1.0
 40
0.9999999999999242
 41
0.0
 42
3.141592653589793
  0
ELLIPSE
  5
D7
330
2
100
AcDbEntity
  8
0
100
AcDbEllipse
 10
1.882464181135838
 20
5.593750000000007
 30
0.0
 11
0.0
 21
-0.1383375000000022
 31
0.0
210
0.0
220
0.0
230
1.0
 40
0.9035872413481376
 41
0.0
 42
3.141592653589793
  0
LINE
  5
D8
330
2
100
AcDbEntity
  8
0
100
AcDbLine
 10
1.882464181135838
 20
4.750000000000036
 30
0.0
 11
1.882464181135838
 21
4.781250000000036
 31
0.0
  0
LINE
  5
D9
330
2
100
AcDbEntity
  8
0
100
AcDbLine
 10
1.882464181135838
 20
5.437500000000007
 30
0.0
 11
1.882464181135838
 21
5.406250000000007
 31
0.0
  0
CIRCLE
  5
DA
330
2
100
AcDbEntity
  8
0
100
AcDbCircle
 10
2.514664181135828
 20
4.851673724782668
 30
0.0
 40
0.0855
  0
CIRCLE
  5
DB
330
2
100
AcDbEntity
  8
0
100
AcDbCircle
 10
2.639664181135832
 20
5.46875
 30
0.0
 40
0.0855
  0
ELLIPSE
  5
DC
330
2
100
AcDbEntity
  8
0
100
AcDbEllipse
 10
1.882464181135838
 20
6.593750000000007
 30
0.0
 11
0.0
 21
-0.1383375000000022
 31
0.0
210
0.0
220
0.0
230
1.0
 40
0.9035872413481376
 41
0.0
 42
3.141592653589793
  0
ELLIPSE
  5
DD
330
2
100
AcDbEntity
  8
0
100
AcDbEllipse
 10
1.882464181135838
 20
6.593750000000021
 30
0.0
 11
0.0
 21
-0.1875000000000142
 31
0.0
210
0.0
220
0.0
230
1.0
 40
0.9999999999999242
 41
0.0
 42
3.141592653589793
  0
LINE
  5
DE
330
2
100
AcDbEntity
  8
0
100
AcDbLine
 10
1.882464181135838
 20
5.750000000000036
 30
0.0
 11
1.882464181135838
 21
5.781250000000036
 31
0.0
  0
LINE
  5
DF
330
2
100
AcDbEntity
  8
0
100
AcDbLine
 10
1.882464181135838
 20
6.750000000000036
 30
0.0
 11
1.882464181135838
 21
6.781250000000036
 31
0.0
  0
LINE
  5
E0
330
2
100
AcDbEntity
  8
0
100
AcDbLine
 10
1.882464181135838
 20
6.437500000000007
 30
0.0
 11
1.882464181135838
 21
6.406250000000007
 31
0.0
  0
LINE
  5
E1
330
2
100
AcDbEntity
  8
0
100
AcDbLine
 10
1.882464181135838
 20
6.750000000000007
 30
0.0
 11
1.882464181135838
 21
6.437500000000007
 31
0.0
  0
CIRCLE
  5
E2
330
2
100
AcDbEntity
  8
0
100
AcDbCircle
 10
2.514664181135828
 20
6.351673724782668
 30
0.0
 40
0.0855
  0
ARC
  5
E3
330
2
100
AcDbEntity
  8
0
100
AcDbCircle
 10
4.389669104289126
 20
5.674170185445444
 30
0.0
 40
0.125
100
AcDbArc
 50
0.0
 51
45.00000000000033
  0
CIRCLE
  5
E4
330
2
100
AcDbEntity
  8
0
100
AcDbCircle
 10
3.733414181135842
 20
5.71875
 30
0.0
 40
0.0855
  0
CIRCLE
  5
E5
330
2
100
AcDbEntity
  8
0
100
AcDbCircle
 10
3.514664181135842
 20
5.09375
 30
0.0
 40
0.0855
  0
LINE
  5
E6
330
2
100
AcDbEntity
  8
0
100
AcDbLine
 10
4.514669104289126
 20
5.674170185445444
 30
0.0
 11
4.514669104289126
 21
5.027723576038724
 31
0.0
  0
ARC
  5
E7
330
2
100
AcDbEntity
  8
0
100
AcDbCircle
 10
4.327169104289126
 20
4.611670185445451
 30
0.0
 40
0.125
100
AcDbArc
 50
134.9999999999999
 51
180.0
  0
ARC
  5
E8
330
2
100
AcDbEntity
  8
0
100
AcDbCircle
 10
4.389669104289126
 20
5.027723576038724
 30
0.0
 40
0.125
100
AcDbArc
 50
314.9999999999997
 51
0.0
  0
LINE
  5
E9
330
2
100
AcDbEntity
  8
0
100
AcDbLine
 10
4.478057451937438
 20
4.939335228390405
 30
0.0
 11
4.238780756640807
 21
4.70005853309377
 31
0.0
  0
CIRCLE
  5
EA
330
2
100
AcDbEntity
  8
0
100
AcDbCircle
 10
4.264664181135842
 20
5.34375
 30
0.0
 40
0.0855
  0
CIRCLE
  5
EB
330
2
100
AcDbEntity
  8
0
100
AcDbCircle
 10
3.952164181135835
 20
6.343750000000007
 30
0.0
 40
0.0855
  0
CIRCLE
  5
EC
330
2
100
AcDbEntity
  8
0
100
AcDbCircle
 10
3.202164181135835
 20
6.093750000000007
 30
0.0
 40
0.0855
  0
LINE
  5
ED
330
2
100
AcDbEntity
  8
0
100
AcDbLine
 10
4.202169104289126
 20
6.593749999999996
 30
0.0
 11
4.202169104289126
 21
6.090223576038721
 31
0.0
  0
LINE
  5
EE
330
2
100
AcDbEntity
  8
0
100
AcDbLine
 10
4.202169104289119
 20
6.090223677651093
 30
0.0
 11
4.202169104289119
 21
6.593749999999996
 31
0.0
  0
ARC
  5
EF
330
2
100
AcDbEntity
  8
0
100
AcDbCircle
 10
4.327169104289126
 20
6.090223576038721
 30
0.0
 40
0.125
100
AcDbArc
 50
180.0
 51
225.0000000000001
  0
LINE
  5
F0
330
2
100
AcDbEntity
  8
0
100
AcDbLine
 10
4.238780756640807
 20
6.001835228390402
 30
0.0
 11
4.478057451937438
 21
5.762558533093763
 31
0.0
  0
LINE
  5
F1
330
2
100
AcDbEntity
  8
0
100
AcDbLine
 10
4.478057451937438
 20
6.939335228390405
 30
0.0
 11
4.238780756640807
 21
6.70005853309377
 31
0.0
  0
ARC
  5
F2
330
2
100
AcDbEntity
  8
0
100
AcDbCircle
 10
4.327169104289126
 20
6.611670185445451
 30
0.0
 40
0.125
100
AcDbArc
 50
134.9999999999999
 51
180.0
  0
LINE
  5
F3
330
2
100
AcDbEntity
  8
0
100
AcDbLine
 10
-1.788714181135838
 20
12.60167372478266
 30
0.0
 11
-4.202169104289119
 21
12.60167372478266
 31
0.0
  0
LINE
  5
F4
330
2
100
AcDbEntity
  8
0
  6
Continuous
100
AcDbLine
 10
-1.978162949274207
 20
21.17564761974795
 30
0.0
 11
-4.515999999999998
 21
21.17564761974795
 31
0.0
  0
LINE
  5
F5
330
2
100
AcDbEntity
  8
0
  6
Continuous
100
AcDbLine
 10
-1.978162949274207
 20
21.08189761974795
 30
0.0
 11
-4.515999999999998
 21
21.08189761974795
 31
0.0
  0
LINE
  5
F6
330
2
100
AcDbEntity
  8
0
100
AcDbLine
 10
-15.79774527885564
 20
12.34375000000001
 30
0.0
 11
-15.79774527885564
 21
11.84022331999446
 31
0.0
  0
LINE
  5
F7
330
2
100
AcDbEntity
  8
0
100
AcDbLine
 10
-15.79774527885564
 20
11.84022357603873
 30
0.0
 11
-15.79774527885564
 21
12.34375000000001
 31
0.0
  0
LINE
  5
F8
330
2
100
AcDbEntity
  8
0
100
AcDbLine
 10
-16.47804035570236
 20
9.455412500000005
 30
0.0
 11
-16.47804035570236
 21
9.732087500000009
 31
0.0
  0
LWPOLYLINE
  5
F9
330
2
100
AcDbEntity
  8
0
100
AcDbPolyline
 90
        9
 70
     0
 43
0.0
 10
-16.47804035570236
 20
9.455412500000005
 42
-0.0700628980345364
 10
-16.55715915950241
 20
9.466553775768876
 42
-0.0818514225363451
 10
-16.61905547762885
 20
9.49593061565761
 42
-0.1069100077216601
 10
-16.66365362869435
 20
9.543677528412641
 42
-0.135394011665182
 10
-16.67746585363049
 20
9.593750000000004
 42
-0.1353940116651818
 10
-16.66365362869435
 20
9.643822471587374
 42
-0.1069100077216599
 10
-16.61905547762885
 20
9.691569384342397
 42
-0.0818514225363446
 10
-16.55715915950241
 20
9.720946224231138
 42
-0.0700628980345367
 10
-16.47804035570236
 20
9.732087500000009
 42
-0.0700628980345371
  0
ARC
  5
FA
330
2
100
AcDbEntity
  8
0
100
AcDbCircle
 10
-15.98524527885564
 20
9.424170185445455
 30
0.0
 40
0.125
100
AcDbArc
 50
134.9999999999999
 51
180.0
  0
LINE
  5
FB
330
2
100
AcDbEntity
  8
0
100
AcDbLine
 10
-15.79774527885564
 20
7.840223576038731
 30
0.0
 11
-15.79774527885564
 21
8.343750000000007
 31
0.0
  0
LINE
  5
FC
330
2
100
AcDbEntity
  8
0
100
AcDbLine
 10
-15.79774527885564
 20
8.343750000000007
 30
0.0
 11
-15.79774527885564
 21
7.840223319994458
 31
0.0
  0
LINE
  5
FD
330
2
100
AcDbEntity
  8
0
100
AcDbLine
 10
-16.47804035570236
 20
7.455412500000005
 30
0.0
 11
-16.47804035570236
 21
7.732087500000009
 31
0.0
  0
LWPOLYLINE
  5
FE
330
2
100
AcDbEntity
  8
0
100
AcDbPolyline
 90
        9
 70
     0
 43
0.0
 10
-16.47804035570236
 20
7.484737500000005
 42
-0.1432467981947568
 10
-16.50326500655782
 20
7.492115596871255
 42
-0.1071754848060475
 10
-16.5279511725284
 20
7.516666522015907
 42
-0.0783035184710328
 10
-16.54289784015077
 20
7.550287776366705
 42
-0.0656020556757086
 10
-16.54862490976687
 20
7.593750000000011
 42
-0.0656020556757101
 10
-16.54289784015077
 20
7.637212223633309
 42
-0.0783035184710357
 10
-16.5279511725284
 20
7.670833477984107
 42
-0.1071754848060445
 10
-16.50326500655782
 20
7.69538440312876
 42
-0.1432467981947535
 10
-16.47804035570236
 20
7.702762500000009
 42
-0.1432467981947515
  0
LWPOLYLINE
  5
FF
330
2
100
AcDbEntity
  8
0
100
AcDbPolyline
 90
        9
 70
     0
 43
0.0
 10
-16.47804035570236
 20
7.455412500000005
 42
-0.0700628980345364
 10
-16.55715915950241
 20
7.466553775768876
 42
-0.0818514225363451
 10
-16.61905547762885
 20
7.49593061565761
 42
-0.1069100077216601
 10
-16.66365362869435
 20
7.543677528412641
 42
-0.135394011665182
 10
-16.67746585363049
 20
7.593750000000004
 42
-0.1353940116651818
 10
-16.66365362869435
 20
7.643822471587374
 42
-0.1069100077216599
 10
-16.61905547762885
 20
7.691569384342397
 42
-0.0818514225363446
 10
-16.55715915950241
 20
7.720946224231138
 42
-0.0700628980345367
 10
-16.47804035570236
 20
7.732087500000009
 42
-0.0700628980345371
  0
LWPOLYLINE
  5
100
330
2
100
AcDbEntity
  8
0
100
AcDbPolyline
 90
        9
 70
     0
 43
0.0
 10
-16.47804035570236
 20
7.514062500000005
 42
-0.147269582437036
 10
-16.4957367788649
 20
7.519390341687799
 42
-0.1071386913803464
 10
-16.5132886725284
 20
7.537402428374204
 42
-0.0765137470862007
 10
-16.52383058657517
 20
7.561907166408364
 42
-0.063469041210727
 10
-16.52788900340858
 20
7.593750000000011
 42
-0.0634690412107267
 10
-16.52383058657517
 20
7.62559283359165
 42
-0.0765137470862059
 10
-16.5132886725284
 20
7.65009757162581
 42
-0.1071386913803463
 10
-16.4957367788649
 20
7.668109658312215
 42
-0.1472695824370325
 10
-16.47804035570236
 20
7.673437500000009
 42
-0.1472695824370333
  0
LINE
  5
101
330
2
100
AcDbEntity
  8
0
100
AcDbLine
 10
-15.83435693120732
 20
7.751835228390412
 30
0.0
 11
-16.07363362650396
 21
7.512558533093774
 31
0.0
  0
ARC
  5
102
330
2
100
AcDbEntity
  8
0
100
AcDbCircle
 10
-15.98524527885564
 20
7.424170185445455
 30
0.0
 40
0.125
100
AcDbArc
 50
134.9999999999999
 51
180.0
  0
ARC
  5
103
330
2
100
AcDbEntity
  8
0
100
AcDbCircle
 10
-15.92274527885564
 20
7.840223576038731
 30
0.0
 40
0.125
100
AcDbArc
 50
314.9999999999999
 51
0.000000000000007
  0
LINE
  5
104
330
2
100
AcDbEntity
  8
0
100
AcDbLine
 10
-16.47804035570236
 20
8.455412500000005
 30
0.0
 11
-16.47804035570236
 21
8.732087500000009
 31
0.0
  0
LWPOLYLINE
  5
105
330
2
100
AcDbEntity
  8
0
100
AcDbPolyline
 90
        9
 70
     0
 43
0.0
 10
-16.47804035570236
 20
8.484737500000005
 42
-0.1432467981947568
 10
-16.50326500655782
 20
8.492115596871255
 42
-0.1071754848060475
 10
-16.5279511725284
 20
8.516666522015907
 42
-0.0783035184710328
 10
-16.54289784015077
 20
8.550287776366705
 42
-0.0656020556757086
 10
-16.54862490976687
 20
8.593750000000011
 42
-0.0656020556757101
 10
-16.54289784015077
 20
8.637212223633309
 42
-0.0783035184710357
 10
-16.5279511725284
 20
8.670833477984107
 42
-0.1071754848060445
 10
-16.50326500655782
 20
8.69538440312876
 42
-0.1432467981947535
 10
-16.47804035570236
 20
8.702762500000009
 42
-0.1432467981947515
  0
LWPOLYLINE
  5
106
330
2
100
AcDbEntity
  8
0
100
AcDbPolyline
 90
        9
 70
     0
 43
0.0
 10
-16.47804035570236
 20
8.455412500000005
 42
-0.0700628980345364
 10
-16.55715915950241
 20
8.466553775768876
 42
-0.0818514225363451
 10
-16.61905547762885
 20
8.49593061565761
 42
-0.1069100077216601
 10
-16.66365362869435
 20
8.543677528412641
 42
-0.135394011665182
 10
-16.67746585363049
 20
8.593750000000004
 42
-0.1353940116651818
 10
-16.66365362869435
 20
8.643822471587374
 42
-0.1069100077216599
 10
-16.61905547762885
 20
8.691569384342397
 42
-0.0818514225363446
 10
-16.55715915950241
 20
8.720946224231138
 42
-0.0700628980345367
 10
-16.47804035570236
 20
8.732087500000009
 42
-0.0700628980345371
  0
LWPOLYLINE
  5
107
330
2
100
AcDbEntity
  8
0
100
AcDbPolyline
 90
        9
 70
     0
 43
0.0
 10
-16.47804035570236
 20
8.514062500000005
 42
-0.147269582437036
 10
-16.4957367788649
 20
8.519390341687799
 42
-0.1071386913803464
 10
-16.5132886725284
 20
8.537402428374204
 42
-0.0765137470862007
 10
-16.52383058657517
 20
8.561907166408364
 42
-0.063469041210727
 10
-16.52788900340858
 20
8.593750000000011
 42
-0.0634690412107267
 10
-16.52383058657517
 20
8.62559283359165
 42
-0.0765137470862059
 10
-16.5132886725284
 20
8.65009757162581
 42
-0.1071386913803463
 10
-16.4957367788649
 20
8.668109658312215
 42
-0.1472695824370325
 10
-16.47804035570236
 20
8.673437500000009
 42
-0.1472695824370333
  0
LINE
  5
108
330
2
100
AcDbEntity
  8
0
100
AcDbLine
 10
-16.11024527885564
 20
9.424170185445455
 30
0.0
 11
-16.11024527885564
 21
8.777723576038731
 31
0.0
  0
LINE
  5
109
330
2
100
AcDbEntity
  8
0
100
AcDbLine
 10
-16.07363362650396
 20
8.689335228390412
 30
0.0
 11
-15.83435693120732
 21
8.450058533093774
 31
0.0
  0
ARC
  5
10A
330
2
100
AcDbEntity
  8
0
100
AcDbCircle
 10
-15.92274527885564
 20
8.361670185445455
 30
0.0
 40
0.125
100
AcDbArc
 50
0.000000000000007
 51
45.00000000000016
  0
ARC
  5
10B
330
2
100
AcDbEntity
  8
0
100
AcDbCircle
 10
-15.98524527885564
 20
8.777723576038731
 30
0.0
 40
0.125
100
AcDbArc
 50
180.0
 51
225.0000000000002
  0
LINE
  5
10C
330
2
100
AcDbEntity
  8
0
100
AcDbLine
 10
-16.47804035570236
 20
10.45541250000001
 30
0.0
 11
-16.47804035570236
 21
10.73208750000001
 31
0.0
  0
LWPOLYLINE
  5
10D
330
2
100
AcDbEntity
  8
0
100
AcDbPolyline
 90
        9
 70
     0
 43
0.0
 10
-16.47804035570236
 20
10.45541250000001
 42
-0.0700628980345364
 10
-16.55715915950241
 20
10.46655377576888
 42
-0.0818514225363451
 10
-16.61905547762885
 20
10.49593061565761
 42
-0.1069100077216601
 10
-16.66365362869435
 20
10.54367752841264
 42
-0.135394011665182
 10
-16.67746585363049
 20
10.59375
 42
-0.1353940116651818
 10
-16.66365362869435
 20
10.64382247158737
 42
-0.1069100077216599
 10
-16.61905547762885
 20
10.6915693843424
 42
-0.0818514225363446
 10
-16.55715915950241
 20
10.72094622423114
 42
-0.0700628980345367
 10
-16.47804035570236
 20
10.73208750000001
 42
-0.0700628980345371
  0
ARC
  5
10E
330
2
100
AcDbEntity
  8
0
100
AcDbCircle
 10
-15.98524527885564
 20
10.77772357603873
 30
0.0
 40
0.125
100
AcDbArc
 50
180.0
 51
225.0000000000002
  0
LWPOLYLINE
  5
10F
330
2
100
AcDbEntity
  8
0
100
AcDbPolyline
 90
        9
 70
     0
 43
0.0
 10
-16.47804035570236
 20
9.484737500000005
 42
-0.1432467981947568
 10
-16.50326500655782
 20
9.492115596871255
 42
-0.1071754848060475
 10
-16.5279511725284
 20
9.516666522015907
 42
-0.0783035184710328
 10
-16.54289784015077
 20
9.550287776366705
 42
-0.0656020556757086
 10
-16.54862490976687
 20
9.593750000000011
 42
-0.0656020556757101
 10
-16.54289784015077
 20
9.637212223633309
 42
-0.0783035184710357
 10
-16.5279511725284
 20
9.670833477984107
 42
-0.1071754848060445
 10
-16.50326500655782
 20
9.69538440312876
 42
-0.1432467981947535
 10
-16.47804035570236
 20
9.702762500000009
 42
-0.1432467981947515
  0
LWPOLYLINE
  5
110
330
2
100
AcDbEntity
  8
0
100
AcDbPolyline
 90
        9
 70
     0
 43
0.0
 10
-16.47804035570236
 20
9.514062500000005
 42
-0.147269582437036
 10
-16.4957367788649
 20
9.519390341687799
 42
-0.1071386913803464
 10
-16.5132886725284
 20
9.537402428374204
 42
-0.0765137470862007
 10
-16.52383058657517
 20
9.561907166408364
 42
-0.063469041210727
 10
-16.52788900340858
 20
9.593750000000011
 42
-0.0634690412107267
 10
-16.52383058657517
 20
9.62559283359165
 42
-0.0765137470862059
 10
-16.5132886725284
 20
9.65009757162581
 42
-0.1071386913803463
 10
-16.4957367788649
 20
9.668109658312215
 42
-0.1472695824370325
 10
-16.47804035570236
 20
9.673437500000009
 42
-0.1472695824370333
  0
LWPOLYLINE
  5
111
330
2
100
AcDbEntity
  8
0
100
AcDbPolyline
 90
        9
 70
     0
 43
0.0
 10
-16.47804035570236
 20
10.48473750000001
 42
-0.1432467981947568
 10
-16.50326500655782
 20
10.49211559687126
 42
-0.1071754848060475
 10
-16.5279511725284
 20
10.51666652201591
 42
-0.0783035184710328
 10
-16.54289784015077
 20
10.55028777636671
 42
-0.0656020556757086
 10
-16.54862490976687
 20
10.59375000000001
 42
-0.0656020556757101
 10
-16.54289784015077
 20
10.63721222363331
 42
-0.0783035184710357
 10
-16.5279511725284
 20
10.67083347798411
 42
-0.1071754848060445
 10
-16.50326500655782
 20
10.69538440312876
 42
-0.1432467981947535
 10
-16.47804035570236
 20
10.70276250000001
 42
-0.1432467981947515
  0
LWPOLYLINE
  5
112
330
2
100
AcDbEntity
  8
0
100
AcDbPolyline
 90
        9
 70
     0
 43
0.0
 10
-16.47804035570236
 20
10.51406250000001
 42
-0.147269582437036
 10
-16.4957367788649
 20
10.5193903416878
 42
-0.1071386913803464
 10
-16.5132886725284
 20
10.5374024283742
 42
-0.0765137470862007
 10
-16.52383058657517
 20
10.56190716640836
 42
-0.063469041210727
 10
-16.52788900340858
 20
10.59375000000001
 42
-0.0634690412107267
 10
-16.52383058657517
 20
10.62559283359165
 42
-0.0765137470862059
 10
-16.5132886725284
 20
10.65009757162581
 42
-0.1071386913803463
 10
-16.4957367788649
 20
10.66810965831222
 42
-0.1472695824370325
 10
-16.47804035570236
 20
10.67343750000001
 42
-0.1472695824370333
  0
LINE
  5
113
330
2
100
AcDbEntity
  8
0
100
AcDbLine
 10
-15.79774527885564
 20
9.840223576038731
 30
0.0
 11
-15.79774527885564
 21
10.34375000000001
 31
0.0
  0
LINE
  5
114
330
2
100
AcDbEntity
  8
0
100
AcDbLine
 10
-15.79774527885564
 20
10.34375000000001
 30
0.0
 11
-15.79774527885564
 21
9.840223319994458
 31
0.0
  0
LINE
  5
115
330
2
100
AcDbEntity
  8
0
100
AcDbLine
 10
-15.83435693120732
 20
9.751835228390412
 30
0.0
 11
-16.07363362650396
 21
9.512558533093774
 31
0.0
  0
ARC
  5
116
330
2
100
AcDbEntity
  8
0
100
AcDbCircle
 10
-15.92274527885564
 20
9.840223576038731
 30
0.0
 40
0.125
100
AcDbArc
 50
314.9999999999999
 51
0.000000000000007
  0
LINE
  5
117
330
2
100
AcDbEntity
  8
0
100
AcDbLine
 10
-16.07363362650396
 20
10.68933522839041
 30
0.0
 11
-15.83435693120732
 21
10.45005853309377
 31
0.0
  0
ARC
  5
118
330
2
100
AcDbEntity
  8
0
100
AcDbCircle
 10
-15.92274527885564
 20
10.36167018544546
 30
0.0
 40
0.125
100
AcDbArc
 50
0.000000000000007
 51
45.00000000000016
  0
LINE
  5
119
330
2
100
AcDbEntity
  8
0
100
AcDbLine
 10
-16.11024527885564
 20
11.42417018544546
 30
0.0
 11
-16.11024527885564
 21
10.77772357603873
 31
0.0
  0
LINE
  5
11A
330
2
100
AcDbEntity
  8
0
100
AcDbLine
 10
-15.83435693120732
 20
11.75183522839041
 30
0.0
 11
-16.07363362650396
 21
11.51255853309377
 31
0.0
  0
ARC
  5
11B
330
2
100
AcDbEntity
  8
0
100
AcDbCircle
 10
-15.92274527885564
 20
11.84022357603873
 30
0.0
 40
0.125
100
AcDbArc
 50
314.9999999999999
 51
0.000000000000007
  0
ARC
  5
11C
330
2
100
AcDbEntity
  8
0
100
AcDbCircle
 10
-15.98524527885564
 20
11.42417018544546
 30
0.0
 40
0.125
100
AcDbArc
 50
134.9999999999999
 51
180.0
  0
LINE
  5
11D
330
2
100
AcDbEntity
  8
0
100
AcDbLine
 10
-15.79774527885564
 20
12.34375000000001
 30
0.0
 11
-17.57179035570236
 21
12.34375000000001
 31
0.0
  0
LINE
  5
11E
330
2
100
AcDbEntity
  8
0
100
AcDbLine
 10
-4.2387807566408
 20
12.00975895317306
 30
0.0
 11
-4.478057451937438
 21
11.77048225787642
 31
0.0
  0
LINE
  5
11F
330
2
100
AcDbEntity
  8
0
100
AcDbLine
 10
-4.514669104289119
 20
9.682093910228101
 30
0.0
 11
-4.514669104289119
 21
9.035647300821385
 31
0.0
  0
LINE
  5
120
330
2
100
AcDbEntity
  8
0
100
AcDbLine
 10
-4.514669104289119
 20
9.682093910228101
 30
0.0
 11
-4.514669104289119
 21
9.035647300821385
 31
0.0
  0
LINE
  5
121
330
2
100
AcDbEntity
  8
0
100
AcDbLine
 10
-4.202169104289119
 20
8.601673724782657
 30
0.0
 11
-4.202169104289119
 21
8.098147300821378
 31
0.0
  0
LINE
  5
122
330
2
100
AcDbEntity
  8
0
100
AcDbLine
 10
-4.202169104289119
 20
8.098147402433749
 30
0.0
 11
-4.202169104289116
 21
8.601673724782657
 31
0.0
  0
LINE
  5
123
330
2
100
AcDbEntity
  8
0
100
AcDbLine
 10
-4.202169104289119
 20
8.601673724782657
 30
0.0
 11
-4.202169104289119
 21
8.098147300821378
 31
0.0
  0
LINE
  5
124
330
2
100
AcDbEntity
  8
0
100
AcDbLine
 10
-4.202169104289119
 20
8.098147402433749
 30
0.0
 11
-4.202169104289116
 21
8.601673724782657
 31
0.0
  0
LINE
  5
125
330
2
100
AcDbEntity
  8
0
100
AcDbLine
 10
-4.514669104289119
 20
7.682093910228101
 30
0.0
 11
-4.514669104289119
 21
7.035647300821385
 31
0.0
  0
CIRCLE
  5
126
330
2
100
AcDbEntity
  8
0
100
AcDbCircle
 10
-4.264664181135835
 20
7.351673724782661
 30
0.0
 40
0.0855
  0
LINE
  5
127
330
2
100
AcDbEntity
  8
0
100
AcDbLine
 10
-4.2387807566408
 20
8.009758953173058
 30
0.0
 11
-4.478057451937438
 21
7.77048225787642
 31
0.0
  0
ARC
  5
128
330
2
100
AcDbEntity
  8
0
100
AcDbCircle
 10
-4.389669104289119
 20
7.682093910228101
 30
0.0
 40
0.125
100
AcDbArc
 50
134.9999999999996
 51
180.0
  0
ARC
  5
129
330
2
100
AcDbEntity
  8
0
100
AcDbCircle
 10
-4.327169104289119
 20
8.098147300821378
 30
0.0
 40
0.125
100
AcDbArc
 50
315.0
 51
0.0
  0
LINE
  5
12A
330
2
100
AcDbEntity
  8
0
100
AcDbLine
 10
-4.478057451937438
 20
8.947258953173066
 30
0.0
 11
-4.238780756640804
 21
8.707982257876427
 31
0.0
  0
ARC
  5
12B
330
2
100
AcDbEntity
  8
0
100
AcDbCircle
 10
-4.327169104289119
 20
8.619593910228108
 30
0.0
 40
0.125
100
AcDbArc
 50
0.0
 51
45.00000000000014
  0
CIRCLE
  5
12C
330
2
100
AcDbEntity
  8
0
100
AcDbCircle
 10
-3.952164181135835
 20
8.351673724782668
 30
0.0
 40
0.0855
  0
CIRCLE
  5
12D
330
2
100
AcDbEntity
  8
0
100
AcDbCircle
 10
-4.264664181135835
 20
9.351673724782661
 30
0.0
 40
0.0855
  0
ARC
  5
12E
330
2
100
AcDbEntity
  8
0
100
AcDbCircle
 10
-4.389669104289119
 20
9.035647300821385
 30
0.0
 40
0.125
100
AcDbArc
 50
180.0
 51
225.0000000000003
  0
LINE
  5
12F
330
2
100
AcDbEntity
  8
0
100
AcDbLine
 10
-4.478057451937438
 20
10.94725895317307
 30
0.0
 11
-4.238780756640804
 21
10.70798225787643
 31
0.0
  0
ARC
  5
130
330
2
100
AcDbEntity
  8
0
100
AcDbCircle
 10
-4.327169104289119
 20
10.61959391022811
 30
0.0
 40
0.125
100
AcDbArc
 50
0.0
 51
45.00000000000014
  0
ARC
  5
131
330
2
100
AcDbEntity
  8
0
100
AcDbCircle
 10
-4.327169104289119
 20
10.09814730082138
 30
0.0
 40
0.125
100
AcDbArc
 50
315.0
 51
0.0
  0
LINE
  5
132
330
2
100
AcDbEntity
  8
0
100
AcDbLine
 10
-4.2387807566408
 20
10.00975895317306
 30
0.0
 11
-4.478057451937438
 21
9.77048225787642
 31
0.0
  0
ARC
  5
133
330
2
100
AcDbEntity
  8
0
100
AcDbCircle
 10
-4.389669104289119
 20
9.682093910228101
 30
0.0
 40
0.125
100
AcDbArc
 50
134.9999999999996
 51
180.0
  0
LINE
  5
134
330
2
100
AcDbEntity
  8
0
100
AcDbLine
 10
-4.202169104289119
 20
10.60167372478266
 30
0.0
 11
-4.202169104289119
 21
10.09814730082138
 31
0.0
  0
LINE
  5
135
330
2
100
AcDbEntity
  8
0
100
AcDbLine
 10
-4.202169104289119
 20
10.09814740243375
 30
0.0
 11
-4.202169104289116
 21
10.60167372478266
 31
0.0
  0
LINE
  5
136
330
2
100
AcDbEntity
  8
0
100
AcDbLine
 10
-4.202169104289119
 20
10.09814740243375
 30
0.0
 11
-4.202169104289116
 21
10.60167372478266
 31
0.0
  0
LINE
  5
137
330
2
100
AcDbEntity
  8
0
100
AcDbLine
 10
-4.202169104289119
 20
10.60167372478266
 30
0.0
 11
-4.202169104289119
 21
10.09814730082138
 31
0.0
  0
CIRCLE
  5
138
330
2
100
AcDbEntity
  8
0
100
AcDbCircle
 10
-3.952164181135835
 20
10.35167372478267
 30
0.0
 40
0.0855
  0
LINE
  5
139
330
2
100
AcDbEntity
  8
0
100
AcDbLine
 10
-4.514669104289119
 20
11.6820939102281
 30
0.0
 11
-4.514669104289119
 21
11.03564730082139
 31
0.0
  0
LINE
  5
13A
330
2
100
AcDbEntity
  8
0
100
AcDbLine
 10
-4.514669104289119
 20
11.6820939102281
 30
0.0
 11
-4.514669104289119
 21
11.03564730082139
 31
0.0
  0
CIRCLE
  5
13B
330
2
100
AcDbEntity
  8
0
100
AcDbCircle
 10
-4.264664181135835
 20
11.35167372478266
 30
0.0
 40
0.0855
  0
ARC
  5
13C
330
2
100
AcDbEntity
  8
0
100
AcDbCircle
 10
-4.389669104289119
 20
11.03564730082139
 30
0.0
 40
0.125
100
AcDbArc
 50
180.0
 51
225.0000000000003
  0
ARC
  5
13D
330
2
100
AcDbEntity
  8
0
100
AcDbCircle
 10
-4.389669104289119
 20
11.6820939102281
 30
0.0
 40
0.125
100
AcDbArc
 50
134.9999999999996
 51
180.0
  0
LINE
  5
13E
330
2
100
AcDbEntity
  8
0
100
AcDbLine
 10
-4.202169104289119
 20
12.09814740243375
 30
0.0
 11
-4.202169104289116
 21
12.60167372478266
 31
0.0
  0
LINE
  5
13F
330
2
100
AcDbEntity
  8
0
100
AcDbLine
 10
-4.202169104289119
 20
12.60167372478266
 30
0.0
 11
-4.202169104289119
 21
12.09814730082138
 31
0.0
  0
ARC
  5
140
330
2
100
AcDbEntity
  8
0
100
AcDbCircle
 10
-4.327169104289119
 20
12.09814730082138
 30
0.0
 40
0.125
100
AcDbArc
 50
315.0
 51
0.0
  0
CIRCLE
  5
141
330
2
100
AcDbEntity
  8
0
100
AcDbCircle
 10
-3.952164181135835
 20
12.35167372478267
 30
0.0
 40
0.0855
  0
LINE
  5
142
330
2
100
AcDbEntity
  8
0
100
AcDbLine
 10
-4.515999999999998
 20
21.17564761974795
 30
0.0
 11
-4.515999999999998
 21
21.08189761974795
 31
0.0
  0
ARC
  5
143
330
2
100
AcDbEntity
  8
0
100
AcDbCircle
 10
-1.503776557019101
 20
16.95689761974795
 30
0.0
 40
0.09375
100
AcDbArc
 50
90.0
 51
180.0
  0
ARC
  5
144
330
2
100
AcDbEntity
  8
0
100
AcDbCircle
 10
-1.191276557019101
 20
16.95689761974795
 30
0.0
 40
0.09375
100
AcDbArc
 50
0.0
 51
90.0
  0
ARC
  5
145
330
2
100
AcDbEntity
  8
0
100
AcDbCircle
 10
1.4990049631616
 20
16.95689761974795
 30
0.0
 40
0.09375
100
AcDbArc
 50
0.0
 51
90.0
  0
ARC
  5
146
330
2
100
AcDbEntity
  8
0
100
AcDbCircle
 10
1.1865049631616
 20
16.95689761974795
 30
0.0
 40
0.09375
100
AcDbArc
 50
90.0
 51
180.0
  0
LINE
  5
147
330
2
100
AcDbEntity
  8
0
  6
Continuous
100
AcDbLine
 10
-1.884412949274207
 20
20.98814761974795
 30
0.0
 11
-1.884412949274207
 21
16.95689761974796
 31
0.0
  0
LINE
  5
148
330
2
100
AcDbEntity
  8
0
  6
Continuous
100
AcDbLine
 10
1.865586674056871
 20
20.98814761974795
 30
0.0
 11
1.865586674056871
 21
16.95689761974795
 31
0.0
  0
LINE
  5
149
330
2
100
AcDbEntity
  8
0
  6
Continuous
100
AcDbLine
 10
-1.790662949274207
 20
20.98814761974795
 30
0.0
 11
-1.790662949274207
 21
16.95689761974796
 31
0.0
  0
LINE
  5
14A
330
2
100
AcDbEntity
  8
0
  6
Continuous
100
AcDbLine
 10
1.771836674056871
 20
20.98814761974795
 30
0.0
 11
1.771836674056871
 21
16.95689761974795
 31
0.0
  0
LINE
  5
14B
330
2
100
AcDbEntity
  8
0
100
AcDbLine
 10
4.238780756640807
 20
12.0018352283904
 30
0.0
 11
4.478057451937438
 21
11.76255853309376
 31
0.0
  0
CIRCLE
  5
14C
330
2
100
AcDbEntity
  8
0
100
AcDbCircle
 10
-2.639664181135828
 20
9.476673724782661
 30
0.0
 40
0.0855
  0
CIRCLE
  5
14D
330
2
100
AcDbEntity
  8
0
100
AcDbCircle
 10
-2.639664181135828
 20
7.476673724782661
 30
0.0
 40
0.0855
  0
CIRCLE
  5
14E
330
2
100
AcDbEntity
  8
0
100
AcDbCircle
 10
-3.514664181135835
 20
7.101673724782661
 30
0.0
 40
0.0855
  0
LINE
  5
14F
330
2
100
AcDbEntity
  8
0
100
AcDbLine
 10
-1.882464181135838
 20
7.125000000000036
 30
0.0
 11
-1.882464181135838
 21
7.156250000000036
 31
0.0
  0
ELLIPSE
  5
150
330
2
100
AcDbEntity
  8
0
100
AcDbEllipse
 10
-1.882464181135838
 20
7.968750000000021
 30
0.0
 11
0.0
 21
-0.1875000000000142
 31
0.0
210
0.0
220
0.0
230
-1.0
 40
0.9999999999999242
 41
0.0
 42
3.141592653589793
  0
LINE
  5
151
330
2
100
AcDbEntity
  8
0
100
AcDbLine
 10
-1.882464181135838
 20
8.125000000000007
 30
0.0
 11
-1.882464181135838
 21
7.812500000000007
 31
0.0
  0
LINE
  5
152
330
2
100
AcDbEntity
  8
0
100
AcDbLine
 10
-1.882464181135838
 20
7.812500000000007
 30
0.0
 11
-1.882464181135838
 21
7.781250000000007
 31
0.0
  0
LINE
  5
153
330
2
100
AcDbEntity
  8
0
100
AcDbLine
 10
-1.882464181135838
 20
8.125000000000036
 30
0.0
 11
-1.882464181135838
 21
8.156250000000036
 31
0.0
  0
ELLIPSE
  5
154
330
2
100
AcDbEntity
  8
0
100
AcDbEllipse
 10
-1.882464181135838
 20
7.968750000000007
 30
0.0
 11
0.0
 21
-0.1383375000000022
 31
0.0
210
0.0
220
0.0
230
-1.0
 40
0.9035872413481376
 41
0.0
 42
3.141592653589793
  0
CIRCLE
  5
155
330
2
100
AcDbEntity
  8
0
100
AcDbCircle
 10
-3.514664181135835
 20
9.101673724782661
 30
0.0
 40
0.0855
  0
LINE
  5
156
330
2
100
AcDbEntity
  8
0
100
AcDbLine
 10
-1.882464181135838
 20
9.125000000000007
 30
0.0
 11
-1.882464181135838
 21
8.812500000000007
 31
0.0
  0
ELLIPSE
  5
157
330
2
100
AcDbEntity
  8
0
100
AcDbEllipse
 10
-1.882464181135838
 20
8.968750000000021
 30
0.0
 11
0.0
 21
-0.1875000000000142
 31
0.0
210
0.0
220
0.0
230
-1.0
 40
0.9999999999999242
 41
0.0
 42
3.141592653589793
  0
ELLIPSE
  5
158
330
2
100
AcDbEntity
  8
0
100
AcDbEllipse
 10
-1.882464181135838
 20
8.968750000000007
 30
0.0
 11
0.0
 21
-0.1383375000000022
 31
0.0
210
0.0
220
0.0
230
-1.0
 40
0.9035872413481376
 41
0.0
 42
3.141592653589793
  0
CIRCLE
  5
159
330
2
100
AcDbEntity
  8
0
100
AcDbCircle
 10
-2.514664181135828
 20
8.351673724782668
 30
0.0
 40
0.0855
  0
LINE
  5
15A
330
2
100
AcDbEntity
  8
0
100
AcDbLine
 10
-1.882464181135838
 20
8.812500000000007
 30
0.0
 11
-1.882464181135838
 21
8.781250000000007
 31
0.0
  0
LINE
  5
15B
330
2
100
AcDbEntity
  8
0
100
AcDbLine
 10
-1.882464181135838
 20
9.125000000000036
 30
0.0
 11
-1.882464181135838
 21
9.156250000000036
 31
0.0
  0
LINE
  5
15C
330
2
100
AcDbEntity
  8
0
100
AcDbLine
 10
-1.882464181135838
 20
10.12500000000001
 30
0.0
 11
-1.882464181135838
 21
9.812500000000007
 31
0.0
  0
ELLIPSE
  5
15D
330
2
100
AcDbEntity
  8
0
100
AcDbEllipse
 10
-1.882464181135838
 20
9.968750000000021
 30
0.0
 11
0.0
 21
-0.1875000000000142
 31
0.0
210
0.0
220
0.0
230
-1.0
 40
0.9999999999999242
 41
0.0
 42
3.141592653589793
  0
ELLIPSE
  5
15E
330
2
100
AcDbEntity
  8
0
100
AcDbEllipse
 10
-1.882464181135838
 20
9.968750000000007
 30
0.0
 11
0.0
 21
-0.1383375000000022
 31
0.0
210
0.0
220
0.0
230
-1.0
 40
0.9035872413481376
 41
0.0
 42
3.141592653589793
  0
LINE
  5
15F
330
2
100
AcDbEntity
  8
0
100
AcDbLine
 10
-1.882464181135838
 20
9.812500000000007
 30
0.0
 11
-1.882464181135838
 21
9.781250000000007
 31
0.0
  0
CIRCLE
  5
160
330
2
100
AcDbEntity
  8
0
100
AcDbCircle
 10
-2.514664181135828
 20
10.35167372478267
 30
0.0
 40
0.0855
  0
LINE
  5
161
330
2
100
AcDbEntity
  8
0
100
AcDbLine
 10
-1.882464181135838
 20
10.12500000000004
 30
0.0
 11
-1.882464181135838
 21
10.15625000000004
 31
0.0
  0
CIRCLE
  5
162
330
2
100
AcDbEntity
  8
0
100
AcDbCircle
 10
-2.639664181135828
 20
11.47667372478266
 30
0.0
 40
0.0855
  0
CIRCLE
  5
163
330
2
100
AcDbEntity
  8
0
100
AcDbCircle
 10
-3.514664181135835
 20
11.10167372478266
 30
0.0
 40
0.0855
  0
ELLIPSE
  5
164
330
2
100
AcDbEntity
  8
0
100
AcDbEllipse
 10
-1.882464181135838
 20
10.96875000000002
 30
0.0
 11
0.0
 21
-0.1875000000000142
 31
0.0
210
0.0
220
0.0
230
-1.0
 40
0.9999999999999242
 41
0.0
 42
3.141592653589793
  0
LINE
  5
165
330
2
100
AcDbEntity
  8
0
100
AcDbLine
 10
-1.882464181135838
 20
11.12500000000004
 30
0.0
 11
-1.882464181135838
 21
11.15625000000004
 31
0.0
  0
LINE
  5
166
330
2
100
AcDbEntity
  8
0
100
AcDbLine
 10
-1.882464181135838
 20
10.81250000000001
 30
0.0
 11
-1.882464181135838
 21
10.78125000000001
 31
0.0
  0
LINE
  5
167
330
2
100
AcDbEntity
  8
0
100
AcDbLine
 10
-1.882464181135838
 20
11.12500000000001
 30
0.0
 11
-1.882464181135838
 21
10.81250000000001
 31
0.0
  0
ELLIPSE
  5
168
330
2
100
AcDbEntity
  8
0
100
AcDbEllipse
 10
-1.882464181135838
 20
10.96875000000001
 30
0.0
 11
0.0
 21
-0.1383375000000022
 31
0.0
210
0.0
220
0.0
230
-1.0
 40
0.9035872413481376
 41
0.0
 42
3.141592653589793
  0
LINE
  5
169
330
2
100
AcDbEntity
  8
0
100
AcDbLine
 10
4.514669104289126
 20
9.674170185445444
 30
0.0
 11
4.514669104289126
 21
9.027723576038724
 31
0.0
  0
LINE
  5
16A
330
2
100
AcDbEntity
  8
0
100
AcDbLine
 10
1.882464181135838
 20
9.750000000000007
 30
0.0
 11
1.882464181135838
 21
9.437500000000007
 31
0.0
  0
ELLIPSE
  5
16B
330
2
100
AcDbEntity
  8
0
100
AcDbEllipse
 10
1.882464181135838
 20
9.593750000000021
 30
0.0
 11
0.0
 21
-0.1875000000000142
 31
0.0
210
0.0
220
0.0
230
1.0
 40
0.9999999999999242
 41
0.0
 42
3.141592653589793
  0
ELLIPSE
  5
16C
330
2
100
AcDbEntity
  8
0
100
AcDbEllipse
 10
1.882464181135838
 20
9.593750000000007
 30
0.0
 11
0.0
 21
-0.1383375000000022
 31
0.0
210
0.0
220
0.0
230
1.0
 40
0.9035872413481376
 41
0.0
 42
3.141592653589793
  0
ELLIPSE
  5
16D
330
2
100
AcDbEntity
  8
0
100
AcDbEllipse
 10
1.882464181135838
 20
7.593750000000007
 30
0.0
 11
0.0
 21
-0.1383375000000022
 31
0.0
210
0.0
220
0.0
230
1.0
 40
0.9035872413481376
 41
0.0
 42
3.141592653589793
  0
ELLIPSE
  5
16E
330
2
100
AcDbEntity
  8
0
100
AcDbEllipse
 10
1.882464181135838
 20
7.593750000000021
 30
0.0
 11
0.0
 21
-0.1875000000000142
 31
0.0
210
0.0
220
0.0
230
1.0
 40
0.9999999999999242
 41
0.0
 42
3.141592653589793
  0
LINE
  5
16F
330
2
100
AcDbEntity
  8
0
100
AcDbLine
 10
1.882464181135838
 20
7.750000000000007
 30
0.0
 11
1.882464181135838
 21
7.437500000000007
 31
0.0
  0
LINE
  5
170
330
2
100
AcDbEntity
  8
0
100
AcDbLine
 10
1.882464181135838
 20
7.437500000000007
 30
0.0
 11
1.882464181135838
 21
7.406250000000007
 31
0.0
  0
LINE
  5
171
330
2
100
AcDbEntity
  8
0
100
AcDbLine
 10
1.882464181135838
 20
7.750000000000036
 30
0.0
 11
1.882464181135838
 21
7.781250000000036
 31
0.0
  0
CIRCLE
  5
172
330
2
100
AcDbEntity
  8
0
100
AcDbCircle
 10
2.639664181135832
 20
7.71875
 30
0.0
 40
0.0855
  0
ELLIPSE
  5
173
330
2
100
AcDbEntity
  8
0
100
AcDbEllipse
 10
1.882464181135838
 20
8.593750000000021
 30
0.0
 11
0.0
 21
-0.1875000000000142
 31
0.0
210
0.0
220
0.0
230
1.0
 40
0.9999999999999242
 41
0.0
 42
3.141592653589793
  0
ELLIPSE
  5
174
330
2
100
AcDbEntity
  8
0
100
AcDbEllipse
 10
1.882464181135838
 20
8.593750000000007
 30
0.0
 11
0.0
 21
-0.1383375000000022
 31
0.0
210
0.0
220
0.0
230
1.0
 40
0.9035872413481376
 41
0.0
 42
3.141592653589793
  0
LINE
  5
175
330
2
100
AcDbEntity
  8
0
100
AcDbLine
 10
1.882464181135838
 20
8.750000000000007
 30
0.0
 11
1.882464181135838
 21
8.437500000000007
 31
0.0
  0
LINE
  5
176
330
2
100
AcDbEntity
  8
0
100
AcDbLine
 10
1.882464181135838
 20
8.750000000000036
 30
0.0
 11
1.882464181135838
 21
8.781250000000036
 31
0.0
  0
LINE
  5
177
330
2
100
AcDbEntity
  8
0
100
AcDbLine
 10
1.882464181135838
 20
8.437500000000007
 30
0.0
 11
1.882464181135838
 21
8.406250000000007
 31
0.0
  0
LINE
  5
178
330
2
100
AcDbEntity
  8
0
100
AcDbLine
 10
1.882464181135838
 20
9.437500000000007
 30
0.0
 11
1.882464181135838
 21
9.406250000000007
 31
0.0
  0
CIRCLE
  5
179
330
2
100
AcDbEntity
  8
0
100
AcDbCircle
 10
2.514664181135828
 20
8.351673724782668
 30
0.0
 40
0.0855
  0
LINE
  5
17A
330
2
100
AcDbEntity
  8
0
100
AcDbLine
 10
4.202169104289119
 20
8.090223677651093
 30
0.0
 11
4.202169104289119
 21
8.593749999999996
 31
0.0
  0
LINE
  5
17B
330
2
100
AcDbEntity
  8
0
100
AcDbLine
 10
4.202169104289126
 20
8.593749999999996
 30
0.0
 11
4.202169104289126
 21
8.090223576038721
 31
0.0
  0
LINE
  5
17C
330
2
100
AcDbEntity
  8
0
100
AcDbLine
 10
4.202169104289119
 20
8.090223677651093
 30
0.0
 11
4.202169104289119
 21
8.593749999999996
 31
0.0
  0
LINE
  5
17D
330
2
100
AcDbEntity
  8
0
100
AcDbLine
 10
4.202169104289126
 20
8.593749999999996
 30
0.0
 11
4.202169104289126
 21
8.090223576038721
 31
0.0
  0
CIRCLE
  5
17E
330
2
100
AcDbEntity
  8
0
100
AcDbCircle
 10
3.514664181135842
 20
7.09375
 30
0.0
 40
0.0855
  0
LINE
  5
17F
330
2
100
AcDbEntity
  8
0
100
AcDbLine
 10
4.514669104289126
 20
7.674170185445444
 30
0.0
 11
4.514669104289126
 21
7.027723576038724
 31
0.0
  0
CIRCLE
  5
180
330
2
100
AcDbEntity
  8
0
100
AcDbCircle
 10
4.264664181135842
 20
7.34375
 30
0.0
 40
0.0855
  0
LINE
  5
181
330
2
100
AcDbEntity
  8
0
100
AcDbLine
 10
4.238780756640807
 20
8.001835228390402
 30
0.0
 11
4.478057451937438
 21
7.762558533093763
 31
0.0
  0
ARC
  5
182
330
2
100
AcDbEntity
  8
0
100
AcDbCircle
 10
4.327169104289126
 20
8.090223576038721
 30
0.0
 40
0.125
100
AcDbArc
 50
180.0
 51
225.0000000000001
  0
ARC
  5
183
330
2
100
AcDbEntity
  8
0
100
AcDbCircle
 10
4.389669104289126
 20
7.674170185445444
 30
0.0
 40
0.125
100
AcDbArc
 50
0.0
 51
45.00000000000033
  0
CIRCLE
  5
184
330
2
100
AcDbEntity
  8
0
100
AcDbCircle
 10
3.952164181135835
 20
8.343750000000007
 30
0.0
 40
0.0855
  0
CIRCLE
  5
185
330
2
100
AcDbEntity
  8
0
100
AcDbCircle
 10
3.514664181135842
 20
9.09375
 30
0.0
 40
0.0855
  0
LINE
  5
186
330
2
100
AcDbEntity
  8
0
100
AcDbLine
 10
4.478057451937438
 20
8.939335228390405
 30
0.0
 11
4.238780756640807
 21
8.70005853309377
 31
0.0
  0
ARC
  5
187
330
2
100
AcDbEntity
  8
0
100
AcDbCircle
 10
4.327169104289126
 20
8.611670185445451
 30
0.0
 40
0.125
100
AcDbArc
 50
134.9999999999999
 51
180.0
  0
ARC
  5
188
330
2
100
AcDbEntity
  8
0
100
AcDbCircle
 10
4.389669104289126
 20
9.027723576038724
 30
0.0
 40
0.125
100
AcDbArc
 50
314.9999999999997
 51
0.0
  0
CIRCLE
  5
189
330
2
100
AcDbEntity
  8
0
100
AcDbCircle
 10
4.264664181135842
 20
9.34375
 30
0.0
 40
0.0855
  0
LINE
  5
18A
330
2
100
AcDbEntity
  8
0
100
AcDbLine
 10
1.882464181135838
 20
10.75000000000001
 30
0.0
 11
1.882464181135838
 21
10.43750000000001
 31
0.0
  0
ELLIPSE
  5
18B
330
2
100
AcDbEntity
  8
0
100
AcDbEllipse
 10
1.882464181135838
 20
10.59375000000001
 30
0.0
 11
0.0
 21
-0.1383375000000022
 31
0.0
210
0.0
220
0.0
230
1.0
 40
0.9035872413481376
 41
0.0
 42
3.141592653589793
  0
ELLIPSE
  5
18C
330
2
100
AcDbEntity
  8
0
100
AcDbEllipse
 10
1.882464181135838
 20
10.59375000000002
 30
0.0
 11
0.0
 21
-0.1875000000000142
 31
0.0
210
0.0
220
0.0
230
1.0
 40
0.9999999999999242
 41
0.0
 42
3.141592653589793
  0
LINE
  5
18D
330
2
100
AcDbEntity
  8
0
100
AcDbLine
 10
1.882464181135838
 20
9.750000000000036
 30
0.0
 11
1.882464181135838
 21
9.781250000000036
 31
0.0
  0
LINE
  5
18E
330
2
100
AcDbEntity
  8
0
100
AcDbLine
 10
1.882464181135838
 20
10.43750000000001
 30
0.0
 11
1.882464181135838
 21
10.40625000000001
 31
0.0
  0
CIRCLE
  5
18F
330
2
100
AcDbEntity
  8
0
100
AcDbCircle
 10
2.639664181135832
 20
9.71875
 30
0.0
 40
0.0855
  0
CIRCLE
  5
190
330
2
100
AcDbEntity
  8
0
100
AcDbCircle
 10
2.514664181135828
 20
10.35167372478267
 30
0.0
 40
0.0855
  0
LINE
  5
191
330
2
100
AcDbEntity
  8
0
100
AcDbLine
 10
1.882464181135838
 20
10.75000000000004
 30
0.0
 11
1.882464181135838
 21
10.78125000000004
 31
0.0
  0
CIRCLE
  5
192
330
2
100
AcDbEntity
  8
0
100
AcDbCircle
 10
2.639664181135832
 20
11.59375
 30
0.0
 40
0.0855
  0
LINE
  5
193
330
2
100
AcDbEntity
  8
0
100
AcDbLine
 10
4.478057451937438
 20
10.93933522839041
 30
0.0
 11
4.238780756640807
 21
10.70005853309377
 31
0.0
  0
CIRCLE
  5
194
330
2
100
AcDbEntity
  8
0
100
AcDbCircle
 10
3.952164181135835
 20
10.34375000000001
 30
0.0
 40
0.0855
  0
ARC
  5
195
330
2
100
AcDbEntity
  8
0
100
AcDbCircle
 10
4.327169104289126
 20
10.09022357603872
 30
0.0
 40
0.125
100
AcDbArc
 50
180.0
 51
225.0000000000001
  0
ARC
  5
196
330
2
100
AcDbEntity
  8
0
100
AcDbCircle
 10
4.389669104289126
 20
9.674170185445444
 30
0.0
 40
0.125
100
AcDbArc
 50
0.0
 51
45.00000000000033
  0
LINE
  5
197
330
2
100
AcDbEntity
  8
0
100
AcDbLine
 10
4.238780756640807
 20
10.0018352283904
 30
0.0
 11
4.478057451937438
 21
9.762558533093763
 31
0.0
  0
LINE
  5
198
330
2
100
AcDbEntity
  8
0
100
AcDbLine
 10
4.202169104289119
 20
10.09022367765109
 30
0.0
 11
4.202169104289119
 21
10.59375
 31
0.0
  0
LINE
  5
199
330
2
100
AcDbEntity
  8
0
100
AcDbLine
 10
4.202169104289126
 20
10.59375
 30
0.0
 11
4.202169104289126
 21
10.09022357603872
 31
0.0
  0
ARC
  5
19A
330
2
100
AcDbEntity
  8
0
100
AcDbCircle
 10
4.327169104289126
 20
10.61167018544545
 30
0.0
 40
0.125
100
AcDbArc
 50
134.9999999999999
 51
180.0
  0
LINE
  5
19B
330
2
100
AcDbEntity
  8
0
100
AcDbLine
 10
4.202169104289126
 20
10.59375
 30
0.0
 11
4.202169104289126
 21
10.09022357603872
 31
0.0
  0
LINE
  5
19C
330
2
100
AcDbEntity
  8
0
100
AcDbLine
 10
4.202169104289119
 20
10.09022367765109
 30
0.0
 11
4.202169104289119
 21
10.59375
 31
0.0
  0
CIRCLE
  5
19D
330
2
100
AcDbEntity
  8
0
100
AcDbCircle
 10
3.514664181135842
 20
11.09375
 30
0.0
 40
0.0855
  0
LINE
  5
19E
330
2
100
AcDbEntity
  8
0
100
AcDbLine
 10
4.514669104289126
 20
11.67417018544544
 30
0.0
 11
4.514669104289126
 21
11.02772357603872
 31
0.0
  0
CIRCLE
  5
19F
330
2
100
AcDbEntity
  8
0
100
AcDbCircle
 10
4.264664181135842
 20
11.34375
 30
0.0
 40
0.0855
  0
ARC
  5
1A0
330
2
100
AcDbEntity
  8
0
100
AcDbCircle
 10
4.389669104289126
 20
11.02772357603872
 30
0.0
 40
0.125
100
AcDbArc
 50
314.9999999999997
 51
0.0
  0
ARC
  5
1A1
330
2
100
AcDbEntity
  8
0
100
AcDbCircle
 10
4.389669104289126
 20
11.67417018544544
 30
0.0
 40
0.125
100
AcDbArc
 50
0.0
 51
45.00000000000033
  0
LINE
  5
1A2
330
2
100
AcDbEntity
  8
0
100
AcDbLine
 10
-1.097526557018647
 20
16.95689761974796
 30
0.0
 11
1.092754963161443
 21
16.95689761974795
 31
0.0
  0
CIRCLE
  5
1A3
330
2
100
AcDbEntity
  8
0
100
AcDbCircle
 10
-2.514664181135828
 20
12.35167372478267
 30
0.0
 40
0.0855
  0
LINE
  5
1A4
330
2
100
AcDbEntity
  8
0
100
AcDbLine
 10
-1.884412949274207
 20
16.95689761974796
 30
0.0
 11
-1.597526557019094
 21
16.95689761974796
 31
0.0
  0
LINE
  5
1A5
330
2
100
AcDbEntity
  8
0
100
AcDbLine
 10
1.788714181135838
 20
12.59375
 30
0.0
 11
4.202169104289119
 21
12.59375
 31
0.0
  0
CIRCLE
  5
1A6
330
2
100
AcDbEntity
  8
0
100
AcDbCircle
 10
2.514664181135828
 20
12.35167372478267
 30
0.0
 40
0.0855
  0
CIRCLE
  5
1A7
330
2
100
AcDbEntity
  8
0
100
AcDbCircle
 10
3.952164181135835
 20
12.34375000000001
 30
0.0
 40
0.0855
  0
LINE
  5
1A8
330
2
100
AcDbEntity
  8
0
100
AcDbLine
 10
4.202169104289126
 20
12.59375
 30
0.0
 11
4.202169104289126
 21
12.09022357603872
 31
0.0
  0
LINE
  5
1A9
330
2
100
AcDbEntity
  8
0
100
AcDbLine
 10
4.202169104289119
 20
12.09022367765109
 30
0.0
 11
4.202169104289119
 21
12.59375
 31
0.0
  0
ARC
  5
1AA
330
2
100
AcDbEntity
  8
0
100
AcDbCircle
 10
4.327169104289126
 20
12.09022357603872
 30
0.0
 40
0.125
100
AcDbArc
 50
180.0
 51
225.0000000000001
  0
LINE
  5
1AB
330
2
100
AcDbEntity
  8
0
100
AcDbLine
 10
1.592754963161536
 20
16.95689761974795
 30
0.0
 11
1.865586674056871
 21
16.95689761974795
 31
0.0
  0
LINE
  5
1AC
330
2
100
AcDbEntity
  8
0
100
AcDbLine
 10
-1.097529565766806
 20
20.95689761974795
 30
0.0
 11
1.092757971908995
 21
20.95689761974795
 31
0.0
  0
LINE
  5
1AD
330
2
100
AcDbEntity
  8
0
100
AcDbLine
 10
-1.191276557019101
 20
17.05064761974795
 30
0.0
 11
-1.503776557019101
 21
17.05064761974795
 31
0.0
  0
LINE
  5
1AE
330
2
100
AcDbEntity
  8
0
100
AcDbLine
 10
-0.009413137608707
 20
17.95689761974795
 30
0.0
 11
-0.1303283971916045
 21
18.07781287933085
 31
0.0
  0
LINE
  5
1AF
330
2
100
AcDbEntity
  8
0
100
AcDbLine
 10
-0.1303283971916045
 20
18.07781287933085
 30
0.0
 11
-0.009413137608707
 21
18.19872813891375
 31
0.0
  0
LINE
  5
1B0
330
2
100
AcDbEntity
  8
0
100
AcDbLine
 10
0.1115021219741905
 20
18.07781287933085
 30
0.0
 11
-0.009413137608707
 21
18.19872813891375
 31
0.0
  0
LINE
  5
1B1
330
2
100
AcDbEntity
  8
0
100
AcDbLine
 10
-0.009413137608707
 20
17.95689761974795
 30
0.0
 11
0.1115021219741905
 21
18.07781287933085
 31
0.0
  0
LINE
  5
1B2
330
2
100
AcDbEntity
  8
0
100
AcDbLine
 10
-1.191276557019101
 20
20.86239653318978
 30
0.0
 11
-1.503776557019101
 21
20.86239653318978
 31
0.0
  0
LINE
  5
1B3
330
2
100
AcDbEntity
  8
0
100
AcDbLine
 10
-1.922207994775427
 20
20.39791867178746
 30
0.0
 11
-2.104944756678286
 21
20.2151819098846
 31
0.0
  0
LINE
  5
1B4
330
2
100
AcDbEntity
  8
0
100
AcDbLine
 10
-2.104944756678286
 20
20.2151819098846
 30
0.0
 11
-1.891020805103558
 21
20.09405959006735
 31
0.0
  0
LINE
  5
1B5
330
2
100
AcDbEntity
  8
0
100
AcDbLine
 10
-1.841402168599593
 20
20.49815971343907
 30
0.0
 11
-1.841402168599586
 21
20.52404806108741
 31
0.0
  0
ARC
  5
1B6
330
2
100
AcDbEntity
  8
0
100
AcDbCircle
 10
-1.966402168599586
 20
20.44211284561163
 30
0.0
 40
0.0625
100
AcDbArc
 50
314.9999999999999
 51
0.0
  0
ARC
  5
1B7
330
2
100
AcDbEntity
  8
0
100
AcDbCircle
 10
-1.966402168599593
 20
20.44211284561161
 30
0.0
 40
0.125
100
AcDbArc
 50
314.9999999999999
 51
0.0
  0
LINE
  5
1B8
330
2
100
AcDbEntity
  8
0
100
AcDbLine
 10
-1.895391258206125
 20
20.33634076569533
 30
0.0
 11
-2.042612204146252
 21
20.17988963285234
 31
0.0
  0
ARC
  5
1B9
330
2
100
AcDbEntity
  8
0
100
AcDbCircle
 10
-1.503776557019101
 20
20.95614653318978
 30
0.0
 40
0.09375
100
AcDbArc
 50
179.5409647978006
 51
270.0000000000001
  0
ARC
  5
1BA
330
2
100
AcDbEntity
  8
0
  6
Continuous
100
AcDbCircle
 10
-1.978162949274207
 20
20.98814761974795
 30
0.0
 40
0.09375
100
AcDbArc
 50
0.0
 51
90.0
  0
ARC
  5
1BB
330
2
100
AcDbEntity
  8
0
  6
Continuous
100
AcDbCircle
 10
-1.978162949274207
 20
20.98814761974795
 30
0.0
 40
0.1875
100
AcDbArc
 50
0.0
 51
90.0
  0
LINE
  5
1BC
330
2
100
AcDbEntity
  8
0
100
AcDbLine
 10
-1.597523548272903
 20
20.95689761974795
 30
0.0
 11
-1.790662949274207
 21
20.95689761974795
 31
0.0
  0
ARC
  5
1BD
330
2
100
AcDbEntity
  8
0
100
AcDbCircle
 10
-1.191276557019101
 20
20.95614653318978
 30
0.0
 40
0.09375
100
AcDbArc
 50
270.0
 51
0.4590352021994594
  0
LINE
  5
1BE
330
2
100
AcDbEntity
  8
0
100
AcDbLine
 10
1.4990049631616
 20
17.05064761974795
 30
0.0
 11
1.1865049631616
 21
17.05064761974795
 31
0.0
  0
LINE
  5
1BF
330
2
100
AcDbEntity
  8
0
  6
Continuous
100
AcDbLine
 10
1.959336674056871
 20
21.17564761974795
 30
0.0
 11
4.484000000000002
 21
21.17564761974795
 31
0.0
  0
LINE
  5
1C0
330
2
100
AcDbEntity
  8
0
  6
Continuous
100
AcDbLine
 10
1.959336674056871
 20
21.08189761974795
 30
0.0
 11
4.484000000000002
 21
21.08189761974795
 31
0.0
  0
ARC
  5
1C1
330
2
100
AcDbEntity
  8
0
100
AcDbCircle
 10
1.940968037552899
 20
20.44211284561162
 30
0.0
 40
0.0625
100
AcDbArc
 50
180.0
 51
225.0000000000001
  0
LINE
  5
1C2
330
2
100
AcDbEntity
  8
0
100
AcDbLine
 10
2.079510625631599
 20
20.21518190988459
 30
0.0
 11
1.865586674056871
 21
20.09405959006735
 31
0.0
  0
LINE
  5
1C3
330
2
100
AcDbEntity
  8
0
100
AcDbLine
 10
1.869957127159438
 20
20.33634076569533
 30
0.0
 11
2.017178073099572
 21
20.17988963285234
 31
0.0
  0
LINE
  5
1C4
330
2
100
AcDbEntity
  8
0
100
AcDbLine
 10
1.815968037552906
 20
20.49815971343907
 30
0.0
 11
1.815968037552899
 21
20.5240480610874
 31
0.0
  0
ARC
  5
1C5
330
2
100
AcDbEntity
  8
0
100
AcDbCircle
 10
1.940968037552906
 20
20.4421128456116
 30
0.0
 40
0.125
100
AcDbArc
 50
180.0
 51
225.0000000000001
  0
LINE
  5
1C6
330
2
100
AcDbEntity
  8
0
100
AcDbLine
 10
1.89677386372874
 20
20.39791867178745
 30
0.0
 11
2.079510625631599
 21
20.21518190988459
 31
0.0
  0
ARC
  5
1C7
330
2
100
AcDbEntity
  8
0
  6
Continuous
100
AcDbCircle
 10
1.959336674056871
 20
20.98814761974795
 30
0.0
 40
0.1875
100
AcDbArc
 50
90.0
 51
180.0
  0
ARC
  5
1C8
330
2
100
AcDbEntity
  8
0
  6
Continuous
100
AcDbCircle
 10
1.959336674056871
 20
20.98814761974795
 30
0.0
 40
0.09375
100
AcDbArc
 50
90.0
 51
180.0
  0
LINE
  5
1C9
330
2
100
AcDbEntity
  8
0
100
AcDbLine
 10
1.4990049631616
 20
20.86239653318978
 30
0.0
 11
1.1865049631616
 21
20.86239653318978
 31
0.0
  0
ARC
  5
1CA
330
2
100
AcDbEntity
  8
0
100
AcDbCircle
 10
1.1865049631616
 20
20.95614653318978
 30
0.0
 40
0.09375
100
AcDbArc
 50
179.5409647977985
 51
270.0
  0
LINE
  5
1CB
330
2
100
AcDbEntity
  8
0
100
AcDbLine
 10
1.592751954414741
 20
20.95689761974795
 30
0.0
 11
1.771836674056871
 21
20.95689761974795
 31
0.0
  0
ARC
  5
1CC
330
2
100
AcDbEntity
  8
0
100
AcDbCircle
 10
1.4990049631616
 20
20.95614653318978
 30
0.0
 40
0.09375
100
AcDbArc
 50
270.0
 51
0.4590352022018076
  0
LINE
  5
1CD
330
2
100
AcDbEntity
  8
0
100
AcDbLine
 10
4.484000000000002
 20
21.17564761974795
 30
0.0
 11
4.484000000000002
 21
21.08189761974795
 31
0.0
  0
LINE
  5
1CE
330
2
100
AcDbEntity
  8
0
  6
Continuous
100
AcDbLine
 10
19.35546117327966
 20
0.1566565610497541
 30
0.0
 11
19.35546117327966
 21
12.34375000000001
 31
0.0
  0
LINE
  5
1CF
330
2
100
AcDbEntity
  8
0
100
AcDbLine
 10
19.26171117327966
 20
12.34375000000001
 30
0.0
 11
19.26171117327966
 21
6.043750000000003
 31
0.0
  0
LINE
  5
1D0
330
2
100
AcDbEntity
  8
0
100
AcDbLine
 10
17.89391609643295
 20
7.424170185445455
 30
0.0
 11
17.89391609643295
 21
6.777723576038731
 31
0.0
  0
LINE
  5
1D1
330
2
100
AcDbEntity
  8
0
  6
Continuous
100
AcDbLine
 10
19.26171117327966
 20
0.0825529292420022
 30
0.0
 11
19.26171117327966
 21
6.343750000000007
 31
0.0
  0
ARC
  5
1D2
330
2
100
AcDbEntity
  8
0
100
AcDbCircle
 10
14.33141609643295
 20
3.822140958454664
 30
0.0
 40
3.25
100
AcDbArc
 50
314.9999999999994
 51
0.0
  0
LINE
  5
1D3
330
2
100
AcDbEntity
  8
0
  6
Continuous
100
AcDbLine
 10
19.05424262396953
 20
-0.2499999999999893
 30
0.0
 11
15.08621568156355
 21
-0.2499999999999893
 31
0.0
  0
LINE
  5
1D4
330
2
100
AcDbEntity
  8
0
  6
DASHED
100
AcDbLine
 10
19.08955639403002
 20
-0.1562499999999893
 30
0.0
 11
15.10295823646303
 21
-0.1562499999999893
 31
0.0
  0
LINE
  5
1D5
330
2
100
AcDbEntity
  8
0
100
AcDbLine
 10
16.62951313528924
 20
1.524043919598338
 30
0.0
 11
15.30108601054307
 21
0.1956167948521816
 31
0.0
  0
ARC
  5
1D6
330
2
100
AcDbEntity
  8
0
100
AcDbCircle
 10
15.83141609643297
 20
-0.3347132910377084
 30
0.0
 40
0.75
100
AcDbArc
 50
134.9999999999994
 51
173.5145409117434
  0
LINE
  5
1D7
330
2
100
AcDbEntity
  8
0
100
AcDbLine
 10
18.26171117327966
 20
0.4554125000000102
 30
0.0
 11
18.26171117327966
 21
0.7320875000000147
 31
0.0
  0
LWPOLYLINE
  5
1D8
330
2
100
AcDbEntity
  8
0
100
AcDbPolyline
 90
        9
 70
     0
 43
0.0
 10
18.26171117327966
 20
0.4554125000000102
 42
0.0700628980345364
 10
18.34082997707971
 20
0.4665537757688814
 42
0.0818514225363451
 10
18.40272629520615
 20
0.4959306156576151
 42
0.1069100077216601
 10
18.44732444627165
 20
0.5436775284126458
 42
0.135394011665182
 10
18.4611366712078
 20
0.5937500000000089
 42
0.1353940116651818
 10
18.44732444627165
 20
0.643822471587379
 42
0.1069100077216599
 10
18.40272629520615
 20
0.6915693843424027
 42
0.0818514225363446
 10
18.34082997707971
 20
0.7209462242311435
 42
0.0700628980345367
 10
18.26171117327966
 20
0.7320875000000147
 42
0.0700628980345371
  0
LWPOLYLINE
  5
1D9
330
2
100
AcDbEntity
  8
0
100
AcDbPolyline
 90
        9
 70
     0
 43
0.0
 10
18.26171117327966
 20
0.4847375000000103
 42
0.1432467981947568
 10
18.28693582413512
 20
0.4921155968712601
 42
0.1071754848060475
 10
18.31162199010571
 20
0.5166665220159121
 42
0.0783035184710328
 10
18.32656865772807
 20
0.5502877763667105
 42
0.0656020556757086
 10
18.33229572734417
 20
0.593750000000016
 42
0.0656020556757101
 10
18.32656865772807
 20
0.6372122236333144
 42
0.0783035184710357
 10
18.31162199010571
 20
0.6708334779841128
 42
0.1071754848060445
 10
18.28693582413512
 20
0.6953844031287648
 42
0.1432467981947535
 10
18.26171117327966
 20
0.7027625000000146
 42
0.1432467981947515
  0
LWPOLYLINE
  5
1DA
330
2
100
AcDbEntity
  8
0
100
AcDbPolyline
 90
        9
 70
     0
 43
0.0
 10
18.26171117327966
 20
0.5140625000000103
 42
0.147269582437036
 10
18.27940759644221
 20
0.5193903416878047
 42
0.1071386913803464
 10
18.29695949010571
 20
0.5374024283742092
 42
0.0765137470862007
 10
18.30750140415248
 20
0.5619071664083695
 42
0.063469041210727
 10
18.31155982098588
 20
0.593750000000016
 42
0.0634690412107267
 10
18.30750140415248
 20
0.6255928335916554
 42
0.0765137470862059
 10
18.29695949010571
 20
0.6500975716258157
 42
0.1071386913803463
 10
18.27940759644221
 20
0.6681096583122201
 42
0.1472695824370325
 10
18.26171117327966
 20
0.6734375000000146
 42
0.1472695824370333
  0
LWPOLYLINE
  5
1DB
330
2
100
AcDbEntity
  8
0
100
AcDbPolyline
 90
        9
 70
     0
 43
0.0
 10
18.26171117327966
 20
1.48473750000001
 42
0.1432467981947568
 10
18.28693582413512
 20
1.49211559687126
 42
0.1071754848060475
 10
18.31162199010571
 20
1.516666522015912
 42
0.0783035184710328
 10
18.32656865772807
 20
1.55028777636671
 42
0.0656020556757086
 10
18.33229572734417
 20
1.593750000000016
 42
0.0656020556757101
 10
18.32656865772807
 20
1.637212223633314
 42
0.0783035184710357
 10
18.31162199010571
 20
1.670833477984113
 42
0.1071754848060445
 10
18.28693582413512
 20
1.695384403128765
 42
0.1432467981947535
 10
18.26171117327966
 20
1.702762500000015
 42
0.1432467981947515
  0
LWPOLYLINE
  5
1DC
330
2
100
AcDbEntity
  8
0
100
AcDbPolyline
 90
        9
 70
     0
 43
0.0
 10
18.26171117327966
 20
1.45541250000001
 42
0.0700628980345364
 10
18.34082997707971
 20
1.466553775768881
 42
0.0818514225363451
 10
18.40272629520615
 20
1.495930615657615
 42
0.1069100077216601
 10
18.44732444627165
 20
1.543677528412646
 42
0.135394011665182
 10
18.4611366712078
 20
1.593750000000009
 42
0.1353940116651818
 10
18.44732444627165
 20
1.643822471587379
 42
0.1069100077216599
 10
18.40272629520615
 20
1.691569384342403
 42
0.0818514225363446
 10
18.34082997707971
 20
1.720946224231144
 42
0.0700628980345367
 10
18.26171117327966
 20
1.732087500000015
 42
0.0700628980345371
  0
LWPOLYLINE
  5
1DD
330
2
100
AcDbEntity
  8
0
100
AcDbPolyline
 90
        9
 70
     0
 43
0.0
 10
18.26171117327966
 20
1.51406250000001
 42
0.147269582437036
 10
18.27940759644221
 20
1.519390341687805
 42
0.1071386913803464
 10
18.29695949010571
 20
1.537402428374209
 42
0.0765137470862007
 10
18.30750140415248
 20
1.56190716640837
 42
0.063469041210727
 10
18.31155982098588
 20
1.593750000000016
 42
0.0634690412107267
 10
18.30750140415248
 20
1.625592833591655
 42
0.0765137470862059
 10
18.29695949010571
 20
1.650097571625816
 42
0.1071386913803463
 10
18.27940759644221
 20
1.66810965831222
 42
0.1472695824370325
 10
18.26171117327966
 20
1.673437500000015
 42
0.1472695824370333
  0
LINE
  5
1DE
330
2
100
AcDbEntity
  8
0
100
AcDbLine
 10
18.26171117327966
 20
1.45541250000001
 30
0.0
 11
18.26171117327966
 21
1.732087500000015
 31
0.0
  0
ARC
  5
1DF
330
2
100
AcDbEntity
  8
0
100
AcDbCircle
 10
19.77219085599974
 20
-0.4669108944352374
 30
0.0
 40
0.75
100
AcDbArc
 50
123.7547785580847
 51
163.1890633163619
  0
LINE
  5
1E0
330
2
100
AcDbEntity
  8
0
100
AcDbLine
 10
18.26171117327966
 20
4.455412500000008
 30
0.0
 11
18.26171117327966
 21
4.732087500000013
 31
0.0
  0
LWPOLYLINE
  5
1E1
330
2
100
AcDbEntity
  8
0
100
AcDbPolyline
 90
        9
 70
     0
 43
0.0
 10
18.26171117327966
 20
4.455412500000008
 42
0.0700628980345364
 10
18.34082997707971
 20
4.46655377576888
 42
0.0818514225363451
 10
18.40272629520615
 20
4.495930615657613
 42
0.1069100077216601
 10
18.44732444627165
 20
4.543677528412644
 42
0.135394011665182
 10
18.4611366712078
 20
4.593750000000007
 42
0.1353940116651818
 10
18.44732444627165
 20
4.643822471587377
 42
0.1069100077216599
 10
18.40272629520615
 20
4.691569384342401
 42
0.0818514225363446
 10
18.34082997707971
 20
4.720946224231142
 42
0.0700628980345367
 10
18.26171117327966
 20
4.732087500000013
 42
0.0700628980345371
  0
LINE
  5
1E2
330
2
100
AcDbEntity
  8
0
100
AcDbLine
 10
17.85730444408127
 20
4.689335228390412
 30
0.0
 11
17.61802774878463
 21
4.450058533093774
 31
0.0
  0
LINE
  5
1E3
330
2
100
AcDbEntity
  8
0
100
AcDbLine
 10
18.26171117327966
 20
2.455412500000008
 30
0.0
 11
18.26171117327966
 21
2.732087500000013
 31
0.0
  0
LWPOLYLINE
  5
1E4
330
2
100
AcDbEntity
  8
0
100
AcDbPolyline
 90
        9
 70
     0
 43
0.0
 10
18.26171117327966
 20
2.484737500000009
 42
0.1432467981947568
 10
18.28693582413512
 20
2.492115596871258
 42
0.1071754848060475
 10
18.31162199010571
 20
2.51666652201591
 42
0.0783035184710328
 10
18.32656865772807
 20
2.550287776366709
 42
0.0656020556757086
 10
18.33229572734417
 20
2.593750000000014
 42
0.0656020556757101
 10
18.32656865772807
 20
2.637212223633313
 42
0.0783035184710357
 10
18.31162199010571
 20
2.670833477984111
 42
0.1071754848060445
 10
18.28693582413512
 20
2.695384403128763
 42
0.1432467981947535
 10
18.26171117327966
 20
2.702762500000013
 42
0.1432467981947515
  0
LWPOLYLINE
  5
1E5
330
2
100
AcDbEntity
  8
0
100
AcDbPolyline
 90
        9
 70
     0
 43
0.0
 10
18.26171117327966
 20
2.455412500000008
 42
0.0700628980345364
 10
18.34082997707971
 20
2.46655377576888
 42
0.0818514225363451
 10
18.40272629520615
 20
2.495930615657613
 42
0.1069100077216601
 10
18.44732444627165
 20
2.543677528412644
 42
0.135394011665182
 10
18.4611366712078
 20
2.593750000000007
 42
0.1353940116651818
 10
18.44732444627165
 20
2.643822471587377
 42
0.1069100077216599
 10
18.40272629520615
 20
2.691569384342401
 42
0.0818514225363446
 10
18.34082997707971
 20
2.720946224231142
 42
0.0700628980345367
 10
18.26171117327966
 20
2.732087500000013
 42
0.0700628980345371
  0
LWPOLYLINE
  5
1E6
330
2
100
AcDbEntity
  8
0
100
AcDbPolyline
 90
        9
 70
     0
 43
0.0
 10
18.26171117327966
 20
2.514062500000009
 42
0.147269582437036
 10
18.27940759644221
 20
2.519390341687803
 42
0.1071386913803464
 10
18.29695949010571
 20
2.537402428374207
 42
0.0765137470862007
 10
18.30750140415248
 20
2.561907166408368
 42
0.063469041210727
 10
18.31155982098588
 20
2.593750000000014
 42
0.0634690412107267
 10
18.30750140415248
 20
2.625592833591654
 42
0.0765137470862059
 10
18.29695949010571
 20
2.650097571625814
 42
0.1071386913803463
 10
18.27940759644221
 20
2.668109658312218
 42
0.1472695824370325
 10
18.26171117327966
 20
2.673437500000013
 42
0.1472695824370333
  0
LINE
  5
1E7
330
2
100
AcDbEntity
  8
0
100
AcDbLine
 10
17.58141609643295
 20
3.822140958454664
 30
0.0
 11
17.58141609643295
 21
4.361670185445458
 31
0.0
  0
ARC
  5
1E8
330
2
100
AcDbEntity
  8
0
100
AcDbCircle
 10
17.70641609643295
 20
4.361670185445455
 30
0.0
 40
0.125
100
AcDbArc
 50
134.9999999999999
 51
180.0
  0
LWPOLYLINE
  5
1E9
330
2
100
AcDbEntity
  8
0
100
AcDbPolyline
 90
        9
 70
     0
 43
0.0
 10
18.26171117327966
 20
3.484737500000009
 42
0.1432467981947568
 10
18.28693582413512
 20
3.492115596871258
 42
0.1071754848060475
 10
18.31162199010571
 20
3.51666652201591
 42
0.0783035184710328
 10
18.32656865772807
 20
3.550287776366709
 42
0.0656020556757086
 10
18.33229572734417
 20
3.593750000000014
 42
0.0656020556757101
 10
18.32656865772807
 20
3.637212223633313
 42
0.0783035184710357
 10
18.31162199010571
 20
3.670833477984111
 42
0.1071754848060445
 10
18.28693582413512
 20
3.695384403128763
 42
0.1432467981947535
 10
18.26171117327966
 20
3.702762500000013
 42
0.1432467981947515
  0
LWPOLYLINE
  5
1EA
330
2
100
AcDbEntity
  8
0
100
AcDbPolyline
 90
        9
 70
     0
 43
0.0
 10
18.26171117327966
 20
3.455412500000008
 42
0.0700628980345364
 10
18.34082997707971
 20
3.46655377576888
 42
0.0818514225363451
 10
18.40272629520615
 20
3.495930615657613
 42
0.1069100077216601
 10
18.44732444627165
 20
3.543677528412644
 42
0.135394011665182
 10
18.4611366712078
 20
3.593750000000007
 42
0.1353940116651818
 10
18.44732444627165
 20
3.643822471587377
 42
0.1069100077216599
 10
18.40272629520615
 20
3.691569384342401
 42
0.0818514225363446
 10
18.34082997707971
 20
3.720946224231142
 42
0.0700628980345367
 10
18.26171117327966
 20
3.732087500000013
 42
0.0700628980345371
  0
LWPOLYLINE
  5
1EB
330
2
100
AcDbEntity
  8
0
100
AcDbPolyline
 90
        9
 70
     0
 43
0.0
 10
18.26171117327966
 20
3.514062500000009
 42
0.147269582437036
 10
18.27940759644221
 20
3.519390341687803
 42
0.1071386913803464
 10
18.29695949010571
 20
3.537402428374207
 42
0.0765137470862007
 10
18.30750140415248
 20
3.561907166408368
 42
0.063469041210727
 10
18.31155982098588
 20
3.593750000000014
 42
0.0634690412107267
 10
18.30750140415248
 20
3.625592833591654
 42
0.0765137470862059
 10
18.29695949010571
 20
3.650097571625814
 42
0.1071386913803463
 10
18.27940759644221
 20
3.668109658312218
 42
0.1472695824370325
 10
18.26171117327966
 20
3.673437500000013
 42
0.1472695824370333
  0
LINE
  5
1EC
330
2
100
AcDbEntity
  8
0
100
AcDbLine
 10
18.26171117327966
 20
3.455412500000008
 30
0.0
 11
18.26171117327966
 21
3.732087500000013
 31
0.0
  0
LINE
  5
1ED
330
2
100
AcDbEntity
  8
0
100
AcDbLine
 10
18.26171117327966
 20
5.455412500000008
 30
0.0
 11
18.26171117327966
 21
5.732087500000013
 31
0.0
  0
LWPOLYLINE
  5
1EE
330
2
100
AcDbEntity
  8
0
100
AcDbPolyline
 90
        9
 70
     0
 43
0.0
 10
18.26171117327966
 20
5.455412500000008
 42
0.0700628980345364
 10
18.34082997707971
 20
5.46655377576888
 42
0.0818514225363451
 10
18.40272629520615
 20
5.495930615657613
 42
0.1069100077216601
 10
18.44732444627165
 20
5.543677528412644
 42
0.135394011665182
 10
18.4611366712078
 20
5.593750000000007
 42
0.1353940116651818
 10
18.44732444627165
 20
5.643822471587377
 42
0.1069100077216599
 10
18.40272629520615
 20
5.691569384342401
 42
0.0818514225363446
 10
18.34082997707971
 20
5.720946224231142
 42
0.0700628980345367
 10
18.26171117327966
 20
5.732087500000013
 42
0.0700628980345371
  0
LINE
  5
1EF
330
2
100
AcDbEntity
  8
0
100
AcDbLine
 10
17.61802774878463
 20
5.751835228390412
 30
0.0
 11
17.85730444408127
 21
5.512558533093774
 31
0.0
  0
LINE
  5
1F0
330
2
100
AcDbEntity
  8
0
100
AcDbLine
 10
17.89391609643295
 20
5.424170185445455
 30
0.0
 11
17.89391609643295
 21
4.777723576038731
 31
0.0
  0
LWPOLYLINE
  5
1F1
330
2
100
AcDbEntity
  8
0
100
AcDbPolyline
 90
        9
 70
     0
 43
0.0
 10
18.26171117327966
 20
4.484737500000009
 42
0.1432467981947568
 10
18.28693582413512
 20
4.492115596871258
 42
0.1071754848060475
 10
18.31162199010571
 20
4.51666652201591
 42
0.0783035184710328
 10
18.32656865772807
 20
4.550287776366709
 42
0.0656020556757086
 10
18.33229572734417
 20
4.593750000000014
 42
0.0656020556757101
 10
18.32656865772807
 20
4.637212223633313
 42
0.0783035184710357
 10
18.31162199010571
 20
4.670833477984111
 42
0.1071754848060445
 10
18.28693582413512
 20
4.695384403128763
 42
0.1432467981947535
 10
18.26171117327966
 20
4.702762500000013
 42
0.1432467981947515
  0
LWPOLYLINE
  5
1F2
330
2
100
AcDbEntity
  8
0
100
AcDbPolyline
 90
        9
 70
     0
 43
0.0
 10
18.26171117327966
 20
4.514062500000009
 42
0.147269582437036
 10
18.27940759644221
 20
4.519390341687803
 42
0.1071386913803464
 10
18.29695949010571
 20
4.537402428374207
 42
0.0765137470862007
 10
18.30750140415248
 20
4.561907166408368
 42
0.063469041210727
 10
18.31155982098588
 20
4.593750000000014
 42
0.0634690412107267
 10
18.30750140415248
 20
4.625592833591654
 42
0.0765137470862059
 10
18.29695949010571
 20
4.650097571625814
 42
0.1071386913803463
 10
18.27940759644221
 20
4.668109658312218
 42
0.1472695824370325
 10
18.26171117327966
 20
4.673437500000013
 42
0.1472695824370333
  0
ARC
  5
1F3
330
2
100
AcDbEntity
  8
0
100
AcDbCircle
 10
17.76891609643295
 20
4.777723576038731
 30
0.0
 40
0.125
100
AcDbArc
 50
314.9999999999998
 51
0.0
  0
LWPOLYLINE
  5
1F4
330
2
100
AcDbEntity
  8
0
100
AcDbPolyline
 90
        9
 70
     0
 43
0.0
 10
18.26171117327966
 20
5.484737500000009
 42
0.1432467981947568
 10
18.28693582413512
 20
5.492115596871258
 42
0.1071754848060475
 10
18.31162199010571
 20
5.51666652201591
 42
0.0783035184710328
 10
18.32656865772807
 20
5.550287776366709
 42
0.0656020556757086
 10
18.33229572734417
 20
5.593750000000014
 42
0.0656020556757101
 10
18.32656865772807
 20
5.637212223633313
 42
0.0783035184710357
 10
18.31162199010571
 20
5.670833477984111
 42
0.1071754848060445
 10
18.28693582413512
 20
5.695384403128763
 42
0.1432467981947535
 10
18.26171117327966
 20
5.702762500000013
 42
0.1432467981947515
  0
LWPOLYLINE
  5
1F5
330
2
100
AcDbEntity
  8
0
100
AcDbPolyline
 90
        9
 70
     0
 43
0.0
 10
18.26171117327966
 20
5.514062500000009
 42
0.147269582437036
 10
18.27940759644221
 20
5.519390341687803
 42
0.1071386913803464
 10
18.29695949010571
 20
5.537402428374207
 42
0.0765137470862007
 10
18.30750140415248
 20
5.561907166408368
 42
0.063469041210727
 10
18.31155982098588
 20
5.593750000000014
 42
0.0634690412107267
 10
18.30750140415248
 20
5.625592833591654
 42
0.0765137470862059
 10
18.29695949010571
 20
5.650097571625814
 42
0.1071386913803463
 10
18.27940759644221
 20
5.668109658312218
 42
0.1472695824370325
 10
18.26171117327966
 20
5.673437500000013
 42
0.1472695824370333
  0
ARC
  5
1F6
330
2
100
AcDbEntity
  8
0
100
AcDbCircle
 10
17.76891609643295
 20
5.424170185445455
 30
0.0
 40
0.125
100
AcDbArc
 50
0.0
 51
45.00000000000015
  0
LINE
  5
1F7
330
2
100
AcDbEntity
  8
0
100
AcDbLine
 10
17.85730444408127
 20
6.689335228390412
 30
0.0
 11
17.61802774878463
 21
6.450058533093774
 31
0.0
  0
LINE
  5
1F8
330
2
100
AcDbEntity
  8
0
100
AcDbLine
 10
17.58141609643295
 20
6.343750000000007
 30
0.0
 11
17.58141609643295
 21
5.840223319994458
 31
0.0
  0
LINE
  5
1F9
330
2
100
AcDbEntity
  8
0
100
AcDbLine
 10
17.58141609643295
 20
5.840223576038731
 30
0.0
 11
17.58141609643295
 21
6.343750000000007
 31
0.0
  0
ARC
  5
1FA
330
2
100
AcDbEntity
  8
0
100
AcDbCircle
 10
17.70641609643295
 20
5.840223576038731
 30
0.0
 40
0.125
100
AcDbArc
 50
180.0
 51
225.0000000000001
  0
ARC
  5
1FB
330
2
100
AcDbEntity
  8
0
100
AcDbCircle
 10
17.70641609643295
 20
6.361670185445455
 30
0.0
 40
0.125
100
AcDbArc
 50
134.9999999999999
 51
180.0
  0
LWPOLYLINE
  5
1FC
330
2
100
AcDbEntity
  8
0
100
AcDbPolyline
 90
        9
 70
     0
 43
0.0
 10
18.26171117327966
 20
6.484737500000005
 42
0.1432467981947568
 10
18.28693582413512
 20
6.492115596871255
 42
0.1071754848060475
 10
18.31162199010571
 20
6.516666522015907
 42
0.0783035184710328
 10
18.32656865772807
 20
6.550287776366705
 42
0.0656020556757086
 10
18.33229572734417
 20
6.593750000000011
 42
0.0656020556757101
 10
18.32656865772807
 20
6.637212223633309
 42
0.0783035184710357
 10
18.31162199010571
 20
6.670833477984107
 42
0.1071754848060445
 10
18.28693582413512
 20
6.69538440312876
 42
0.1432467981947535
 10
18.26171117327966
 20
6.702762500000009
 42
0.1432467981947515
  0
LWPOLYLINE
  5
1FD
330
2
100
AcDbEntity
  8
0
100
AcDbPolyline
 90
        9
 70
     0
 43
0.0
 10
18.26171117327966
 20
6.455412500000005
 42
0.0700628980345364
 10
18.34082997707971
 20
6.466553775768876
 42
0.0818514225363451
 10
18.40272629520615
 20
6.49593061565761
 42
0.1069100077216601
 10
18.44732444627165
 20
6.543677528412641
 42
0.135394011665182
 10
18.4611366712078
 20
6.593750000000004
 42
0.1353940116651818
 10
18.44732444627165
 20
6.643822471587374
 42
0.1069100077216599
 10
18.40272629520615
 20
6.691569384342397
 42
0.0818514225363446
 10
18.34082997707971
 20
6.720946224231138
 42
0.0700628980345367
 10
18.26171117327966
 20
6.732087500000009
 42
0.0700628980345371
  0
LWPOLYLINE
  5
1FE
330
2
100
AcDbEntity
  8
0
100
AcDbPolyline
 90
        9
 70
     0
 43
0.0
 10
18.26171117327966
 20
6.514062500000005
 42
0.147269582437036
 10
18.27940759644221
 20
6.519390341687799
 42
0.1071386913803464
 10
18.29695949010571
 20
6.537402428374204
 42
0.0765137470862007
 10
18.30750140415248
 20
6.561907166408364
 42
0.063469041210727
 10
18.31155982098588
 20
6.593750000000011
 42
0.0634690412107267
 10
18.30750140415248
 20
6.62559283359165
 42
0.0765137470862059
 10
18.29695949010571
 20
6.65009757162581
 42
0.1071386913803463
 10
18.27940759644221
 20
6.668109658312215
 42
0.1472695824370325
 10
18.26171117327966
 20
6.673437500000009
 42
0.1472695824370333
  0
LINE
  5
1FF
330
2
100
AcDbEntity
  8
0
100
AcDbLine
 10
18.26171117327966
 20
6.455412500000005
 30
0.0
 11
18.26171117327966
 21
6.732087500000009
 31
0.0
  0
ARC
  5
200
330
2
100
AcDbEntity
  8
0
100
AcDbCircle
 10
17.76891609643295
 20
6.777723576038731
 30
0.0
 40
0.125
100
AcDbArc
 50
314.9999999999998
 51
0.0
  0
LINE
  5
201
330
2
100
AcDbEntity
  8
0
100
AcDbLine
 10
17.58141609643295
 20
12.34375000000001
 30
0.0
 11
17.58141609643295
 21
11.84022331999446
 31
0.0
  0
LINE
  5
202
330
2
100
AcDbEntity
  8
0
100
AcDbLine
 10
17.58141609643295
 20
11.84022357603873
 30
0.0
 11
17.58141609643295
 21
12.34375000000001
 31
0.0
  0
LINE
  5
203
330
2
100
AcDbEntity
  8
0
100
AcDbLine
 10
18.26171117327966
 20
9.455412500000005
 30
0.0
 11
18.26171117327966
 21
9.732087500000009
 31
0.0
  0
LWPOLYLINE
  5
204
330
2
100
AcDbEntity
  8
0
100
AcDbPolyline
 90
        9
 70
     0
 43
0.0
 10
18.26171117327966
 20
9.455412500000005
 42
0.0700628980345364
 10
18.34082997707971
 20
9.466553775768876
 42
0.0818514225363451
 10
18.40272629520615
 20
9.49593061565761
 42
0.1069100077216601
 10
18.44732444627165
 20
9.543677528412641
 42
0.135394011665182
 10
18.4611366712078
 20
9.593750000000004
 42
0.1353940116651818
 10
18.44732444627165
 20
9.643822471587374
 42
0.1069100077216599
 10
18.40272629520615
 20
9.691569384342397
 42
0.0818514225363446
 10
18.34082997707971
 20
9.720946224231138
 42
0.0700628980345367
 10
18.26171117327966
 20
9.732087500000009
 42
0.0700628980345371
  0
ARC
  5
205
330
2
100
AcDbEntity
  8
0
100
AcDbCircle
 10
17.76891609643295
 20
9.424170185445455
 30
0.0
 40
0.125
100
AcDbArc
 50
0.0
 51
45.00000000000015
  0
LINE
  5
206
330
2
100
AcDbEntity
  8
0
100
AcDbLine
 10
17.58141609643295
 20
7.840223576038731
 30
0.0
 11
17.58141609643295
 21
8.343750000000007
 31
0.0
  0
LINE
  5
207
330
2
100
AcDbEntity
  8
0
100
AcDbLine
 10
17.58141609643295
 20
8.343750000000007
 30
0.0
 11
17.58141609643295
 21
7.840223319994458
 31
0.0
  0
LINE
  5
208
330
2
100
AcDbEntity
  8
0
100
AcDbLine
 10
17.61802774878463
 20
7.751835228390412
 30
0.0
 11
17.85730444408127
 21
7.512558533093774
 31
0.0
  0
ARC
  5
209
330
2
100
AcDbEntity
  8
0
100
AcDbCircle
 10
17.70641609643295
 20
7.840223576038731
 30
0.0
 40
0.125
100
AcDbArc
 50
180.0
 51
225.0000000000001
  0
LINE
  5
20A
330
2
100
AcDbEntity
  8
0
100
AcDbLine
 10
18.26171117327966
 20
7.455412500000005
 30
0.0
 11
18.26171117327966
 21
7.732087500000009
 31
0.0
  0
LWPOLYLINE
  5
20B
330
2
100
AcDbEntity
  8
0
100
AcDbPolyline
 90
        9
 70
     0
 43
0.0
 10
18.26171117327966
 20
7.484737500000005
 42
0.1432467981947568
 10
18.28693582413512
 20
7.492115596871255
 42
0.1071754848060475
 10
18.31162199010571
 20
7.516666522015907
 42
0.0783035184710328
 10
18.32656865772807
 20
7.550287776366705
 42
0.0656020556757086
 10
18.33229572734417
 20
7.593750000000011
 42
0.0656020556757101
 10
18.32656865772807
 20
7.637212223633309
 42
0.0783035184710357
 10
18.31162199010571
 20
7.670833477984107
 42
0.1071754848060445
 10
18.28693582413512
 20
7.69538440312876
 42
0.1432467981947535
 10
18.26171117327966
 20
7.702762500000009
 42
0.1432467981947515
  0
LWPOLYLINE
  5
20C
330
2
100
AcDbEntity
  8
0
100
AcDbPolyline
 90
        9
 70
     0
 43
0.0
 10
18.26171117327966
 20
7.455412500000005
 42
0.0700628980345364
 10
18.34082997707971
 20
7.466553775768876
 42
0.0818514225363451
 10
18.40272629520615
 20
7.49593061565761
 42
0.1069100077216601
 10
18.44732444627165
 20
7.543677528412641
 42
0.135394011665182
 10
18.4611366712078
 20
7.593750000000004
 42
0.1353940116651818
 10
18.44732444627165
 20
7.643822471587374
 42
0.1069100077216599
 10
18.40272629520615
 20
7.691569384342397
 42
0.0818514225363446
 10
18.34082997707971
 20
7.720946224231138
 42
0.0700628980345367
 10
18.26171117327966
 20
7.732087500000009
 42
0.0700628980345371
  0
LWPOLYLINE
  5
20D
330
2
100
AcDbEntity
  8
0
100
AcDbPolyline
 90
        9
 70
     0
 43
0.0
 10
18.26171117327966
 20
7.514062500000005
 42
0.147269582437036
 10
18.27940759644221
 20
7.519390341687799
 42
0.1071386913803464
 10
18.29695949010571
 20
7.537402428374204
 42
0.0765137470862007
 10
18.30750140415248
 20
7.561907166408364
 42
0.063469041210727
 10
18.31155982098588
 20
7.593750000000011
 42
0.0634690412107267
 10
18.30750140415248
 20
7.62559283359165
 42
0.0765137470862059
 10
18.29695949010571
 20
7.65009757162581
 42
0.1071386913803463
 10
18.27940759644221
 20
7.668109658312215
 42
0.1472695824370325
 10
18.26171117327966
 20
7.673437500000009
 42
0.1472695824370333
  0
ARC
  5
20E
330
2
100
AcDbEntity
  8
0
100
AcDbCircle
 10
17.76891609643295
 20
7.424170185445455
 30
0.0
 40
0.125
100
AcDbArc
 50
0.0
 51
45.00000000000015
  0
LINE
  5
20F
330
2
100
AcDbEntity
  8
0
100
AcDbLine
 10
17.85730444408127
 20
8.689335228390412
 30
0.0
 11
17.61802774878463
 21
8.450058533093774
 31
0.0
  0
ARC
  5
210
330
2
100
AcDbEntity
  8
0
100
AcDbCircle
 10
17.70641609643295
 20
8.361670185445455
 30
0.0
 40
0.125
100
AcDbArc
 50
134.9999999999999
 51
180.0
  0
LINE
  5
211
330
2
100
AcDbEntity
  8
0
100
AcDbLine
 10
17.89391609643295
 20
9.424170185445455
 30
0.0
 11
17.89391609643295
 21
8.777723576038731
 31
0.0
  0
LWPOLYLINE
  5
212
330
2
100
AcDbEntity
  8
0
100
AcDbPolyline
 90
        9
 70
     0
 43
0.0
 10
18.26171117327966
 20
8.484737500000005
 42
0.1432467981947568
 10
18.28693582413512
 20
8.492115596871255
 42
0.1071754848060475
 10
18.31162199010571
 20
8.516666522015907
 42
0.0783035184710328
 10
18.32656865772807
 20
8.550287776366705
 42
0.0656020556757086
 10
18.33229572734417
 20
8.593750000000011
 42
0.0656020556757101
 10
18.32656865772807
 20
8.637212223633309
 42
0.0783035184710357
 10
18.31162199010571
 20
8.670833477984107
 42
0.1071754848060445
 10
18.28693582413512
 20
8.69538440312876
 42
0.1432467981947535
 10
18.26171117327966
 20
8.702762500000009
 42
0.1432467981947515
  0
LWPOLYLINE
  5
213
330
2
100
AcDbEntity
  8
0
100
AcDbPolyline
 90
        9
 70
     0
 43
0.0
 10
18.26171117327966
 20
8.455412500000005
 42
0.0700628980345364
 10
18.34082997707971
 20
8.466553775768876
 42
0.0818514225363451
 10
18.40272629520615
 20
8.49593061565761
 42
0.1069100077216601
 10
18.44732444627165
 20
8.543677528412641
 42
0.135394011665182
 10
18.4611366712078
 20
8.593750000000004
 42
0.1353940116651818
 10
18.44732444627165
 20
8.643822471587374
 42
0.1069100077216599
 10
18.40272629520615
 20
8.691569384342397
 42
0.0818514225363446
 10
18.34082997707971
 20
8.720946224231138
 42
0.0700628980345367
 10
18.26171117327966
 20
8.732087500000009
 42
0.0700628980345371
  0
LWPOLYLINE
  5
214
330
2
100
AcDbEntity
  8
0
100
AcDbPolyline
 90
        9
 70
     0
 43
0.0
 10
18.26171117327966
 20
8.514062500000005
 42
0.147269582437036
 10
18.27940759644221
 20
8.519390341687799
 42
0.1071386913803464
 10
18.29695949010571
 20
8.537402428374204
 42
0.0765137470862007
 10
18.30750140415248
 20
8.561907166408364
 42
0.063469041210727
 10
18.31155982098588
 20
8.593750000000011
 42
0.0634690412107267
 10
18.30750140415248
 20
8.62559283359165
 42
0.0765137470862059
 10
18.29695949010571
 20
8.65009757162581
 42
0.1071386913803463
 10
18.27940759644221
 20
8.668109658312215
 42
0.1472695824370325
 10
18.26171117327966
 20
8.673437500000009
 42
0.1472695824370333
  0
LINE
  5
215
330
2
100
AcDbEntity
  8
0
100
AcDbLine
 10
18.26171117327966
 20
8.455412500000005
 30
0.0
 11
18.26171117327966
 21
8.732087500000009
 31
0.0
  0
ARC
  5
216
330
2
100
AcDbEntity
  8
0
100
AcDbCircle
 10
17.76891609643295
 20
8.777723576038731
 30
0.0
 40
0.125
100
AcDbArc
 50
314.9999999999998
 51
0.0
  0
LINE
  5
217
330
2
100
AcDbEntity
  8
0
100
AcDbLine
 10
18.26171117327966
 20
10.45541250000001
 30
0.0
 11
18.26171117327966
 21
10.73208750000001
 31
0.0
  0
LWPOLYLINE
  5
218
330
2
100
AcDbEntity
  8
0
100
AcDbPolyline
 90
        9
 70
     0
 43
0.0
 10
18.26171117327966
 20
10.45541250000001
 42
0.0700628980345364
 10
18.34082997707971
 20
10.46655377576888
 42
0.0818514225363451
 10
18.40272629520615
 20
10.49593061565761
 42
0.1069100077216601
 10
18.44732444627165
 20
10.54367752841264
 42
0.135394011665182
 10
18.4611366712078
 20
10.59375
 42
0.1353940116651818
 10
18.44732444627165
 20
10.64382247158737
 42
0.1069100077216599
 10
18.40272629520615
 20
10.6915693843424
 42
0.0818514225363446
 10
18.34082997707971
 20
10.72094622423114
 42
0.0700628980345367
 10
18.26171117327966
 20
10.73208750000001
 42
0.0700628980345371
  0
ARC
  5
219
330
2
100
AcDbEntity
  8
0
100
AcDbCircle
 10
17.76891609643295
 20
10.77772357603873
 30
0.0
 40
0.125
100
AcDbArc
 50
314.9999999999998
 51
0.0
  0
LINE
  5
21A
330
2
100
AcDbEntity
  8
0
100
AcDbLine
 10
17.85730444408127
 20
10.68933522839041
 30
0.0
 11
17.61802774878463
 21
10.45005853309377
 31
0.0
  0
LINE
  5
21B
330
2
100
AcDbEntity
  8
0
100
AcDbLine
 10
17.61802774878463
 20
9.751835228390412
 30
0.0
 11
17.85730444408127
 21
9.512558533093774
 31
0.0
  0
LINE
  5
21C
330
2
100
AcDbEntity
  8
0
100
AcDbLine
 10
17.58141609643295
 20
9.840223576038731
 30
0.0
 11
17.58141609643295
 21
10.34375000000001
 31
0.0
  0
LINE
  5
21D
330
2
100
AcDbEntity
  8
0
100
AcDbLine
 10
17.58141609643295
 20
10.34375000000001
 30
0.0
 11
17.58141609643295
 21
9.840223319994458
 31
0.0
  0
ARC
  5
21E
330
2
100
AcDbEntity
  8
0
100
AcDbCircle
 10
17.70641609643295
 20
9.840223576038731
 30
0.0
 40
0.125
100
AcDbArc
 50
180.0
 51
225.0000000000001
  0
ARC
  5
21F
330
2
100
AcDbEntity
  8
0
100
AcDbCircle
 10
17.70641609643295
 20
10.36167018544546
 30
0.0
 40
0.125
100
AcDbArc
 50
134.9999999999999
 51
180.0
  0
LWPOLYLINE
  5
220
330
2
100
AcDbEntity
  8
0
100
AcDbPolyline
 90
        9
 70
     0
 43
0.0
 10
18.26171117327966
 20
9.484737500000005
 42
0.1432467981947568
 10
18.28693582413512
 20
9.492115596871255
 42
0.1071754848060475
 10
18.31162199010571
 20
9.516666522015907
 42
0.0783035184710328
 10
18.32656865772807
 20
9.550287776366705
 42
0.0656020556757086
 10
18.33229572734417
 20
9.593750000000011
 42
0.0656020556757101
 10
18.32656865772807
 20
9.637212223633309
 42
0.0783035184710357
 10
18.31162199010571
 20
9.670833477984107
 42
0.1071754848060445
 10
18.28693582413512
 20
9.69538440312876
 42
0.1432467981947535
 10
18.26171117327966
 20
9.702762500000009
 42
0.1432467981947515
  0
LWPOLYLINE
  5
221
330
2
100
AcDbEntity
  8
0
100
AcDbPolyline
 90
        9
 70
     0
 43
0.0
 10
18.26171117327966
 20
9.514062500000005
 42
0.147269582437036
 10
18.27940759644221
 20
9.519390341687799
 42
0.1071386913803464
 10
18.29695949010571
 20
9.537402428374204
 42
0.0765137470862007
 10
18.30750140415248
 20
9.561907166408364
 42
0.063469041210727
 10
18.31155982098588
 20
9.593750000000011
 42
0.0634690412107267
 10
18.30750140415248
 20
9.62559283359165
 42
0.0765137470862059
 10
18.29695949010571
 20
9.65009757162581
 42
0.1071386913803463
 10
18.27940759644221
 20
9.668109658312215
 42
0.1472695824370325
 10
18.26171117327966
 20
9.673437500000009
 42
0.1472695824370333
  0
LWPOLYLINE
  5
222
330
2
100
AcDbEntity
  8
0
100
AcDbPolyline
 90
        9
 70
     0
 43
0.0
 10
18.26171117327966
 20
10.48473750000001
 42
0.1432467981947568
 10
18.28693582413512
 20
10.49211559687126
 42
0.1071754848060475
 10
18.31162199010571
 20
10.51666652201591
 42
0.0783035184710328
 10
18.32656865772807
 20
10.55028777636671
 42
0.0656020556757086
 10
18.33229572734417
 20
10.59375000000001
 42
0.0656020556757101
 10
18.32656865772807
 20
10.63721222363331
 42
0.0783035184710357
 10
18.31162199010571
 20
10.67083347798411
 42
0.1071754848060445
 10
18.28693582413512
 20
10.69538440312876
 42
0.1432467981947535
 10
18.26171117327966
 20
10.70276250000001
 42
0.1432467981947515
  0
LWPOLYLINE
  5
223
330
2
100
AcDbEntity
  8
0
100
AcDbPolyline
 90
        9
 70
     0
 43
0.0
 10
18.26171117327966
 20
10.51406250000001
 42
0.147269582437036
 10
18.27940759644221
 20
10.5193903416878
 42
0.1071386913803464
 10
18.29695949010571
 20
10.5374024283742
 42
0.0765137470862007
 10
18.30750140415248
 20
10.56190716640836
 42
0.063469041210727
 10
18.31155982098588
 20
10.59375000000001
 42
0.0634690412107267
 10
18.30750140415248
 20
10.62559283359165
 42
0.0765137470862059
 10
18.29695949010571
 20
10.65009757162581
 42
0.1071386913803463
 10
18.27940759644221
 20
10.66810965831222
 42
0.1472695824370325
 10
18.26171117327966
 20
10.67343750000001
 42
0.1472695824370333
  0
LINE
  5
224
330
2
100
AcDbEntity
  8
0
100
AcDbLine
 10
17.61802774878463
 20
11.75183522839041
 30
0.0
 11
17.85730444408127
 21
11.51255853309377
 31
0.0
  0
ARC
  5
225
330
2
100
AcDbEntity
  8
0
100
AcDbCircle
 10
17.70641609643295
 20
11.84022357603873
 30
0.0
 40
0.125
100
AcDbArc
 50
180.0
 51
225.0000000000001
  0
LINE
  5
226
330
2
100
AcDbEntity
  8
0
100
AcDbLine
 10
17.89391609643295
 20
11.42417018544546
 30
0.0
 11
17.89391609643295
 21
10.77772357603873
 31
0.0
  0
ARC
  5
227
330
2
100
AcDbEntity
  8
0
100
AcDbCircle
 10
17.76891609643295
 20
11.42417018544546
 30
0.0
 40
0.125
100
AcDbArc
 50
0.0
 51
45.00000000000015
  0
LINE
  5
228
330
2
100
AcDbEntity
  8
0
100
AcDbLine
 10
17.58141609643295
 20
12.34375000000001
 30
0.0
 11
19.35546117327966
 21
12.34375000000001
 31
0.0
  0
ENDSEC
  0
SECTION
  2
OBJECTS
  0
DICTIONARY
  5
9
330
0
100
AcDbDictionary
281
     1
  3
ACAD_COLOR
350
233
  3
ACAD_GROUP
350
23
  3
ACAD_LAYOUT
350
D
  3
ACAD_MATERIAL
350
235
  3
ACAD_MLINESTYLE
350
24
  3
ACAD_PLOTSETTINGS
350
25
  3
ACAD_PLOTSTYLENAME
350
8
  3
ACDBHEADERROUNDTRIPXREC
350
232
  3
AcDbVariableDictionary
350
229
  0
DICTIONARY
  5
233
102
{ACAD_REACTORS
330
9
102
}
330
9
100
AcDbDictionary
281
     1
  0
DICTIONARY
  5
23
102
{ACAD_REACTORS
330
9
102
}
330
9
100
AcDbDictionary
281
     1
  0
DICTIONARY
  5
D
102
{ACAD_REACTORS
330
9
102
}
330
9
100
AcDbDictionary
281
     1
  3
Layout1
350
13
  3
Model
350
C
  0
DICTIONARY
  5
235
102
{ACAD_REACTORS
330
9
102
}
330
9
100
AcDbDictionary
281
     1
  0
DICTIONARY
  5
24
102
{ACAD_REACTORS
330
9
102
}
330
9
100
AcDbDictionary
281
     1
  3
STANDARD
350
26
  0
DICTIONARY
  5
25
102
{ACAD_REACTORS
330
9
102
}
330
9
100
AcDbDictionary
281
     1
  0
ACDBDICTIONARYWDFLT
  5
8
102
{ACAD_REACTORS
330
9
102
}
330
9
100
AcDbDictionary
281
     1
  3
Normal
350
7
100
AcDbDictionaryWithDefault
340
7
  0
DICTIONARY
  5
232
102
{ACAD_REACTORS
330
9
102
}
330
9
100
AcDbDictionary
281
     1
  3
COLORDICT
350
234
  3
MATERIALDICT
350
236
  0
DICTIONARY
  5
229
102
{ACAD_REACTORS
330
9
102
}
330
9
100
AcDbDictionary
281
     1
  3
HIDETEXT
350
231
  0
LAYOUT
  5
13
102
{ACAD_REACTORS
330
D
102
}
102
{ACAD_XDICTIONARY
360
237
102
}
330
D
100
AcDbPlotSettings
  1

  2
HP LaserJet 2100 Series PS
  4

  6

 40
0.0
 41
0.0
 42
0.0
 43
0.0
 44
0.0
 45
0.0
 46
0.0
 47
0.0
 48
0.0
 49
0.0
140
0.0
141
0.0
142
1.0
143
1.0
 70
   688
 72
     0
 73
     0
 74
     5
  7

 75
    16
147
1.0
148
0.0
149
0.0
100
AcDbLayout
  1
Layout1
 70
     0
 71
     1
 10
0.0
 20
0.0
 11
12.0
 21
9.0
 12
0.0
 22
0.0
 32
0.0
 14
1.000000000000000E+20
 24
1.000000000000000E+20
 34
1.000000000000000E+20
 15
-1.000000000000000E+20
 25
-1.000000000000000E+20
 35
-1.000000000000000E+20
146
0.0
 13
0.0
 23
0.0
 33
0.0
 16
1.0
 26
0.0
 36
0.0
 17
0.0
 27
1.0
 37
0.0
 76
     0
330
E
  0
LAYOUT
  5
C
102
{ACAD_REACTORS
330
D
102
}
102
{ACAD_XDICTIONARY
360
239
102
}
330
D
100
AcDbPlotSettings
  1

  2
HP LaserJet 2100 Series PS
  4
Letter
  6

 40
5.365749835968018
 41
5.408084392547607
 42
5.4080810546875
 43
5.365753173828125
 44
215.8999938964844
 45
279.3999938964844
 46
0.0
 47
0.0
 48
0.0
 49
0.0
140
0.0
141
0.0
142
1.0
143
3.971318409846261
 70
 11952
 72
     0
 73
     1
 74
     2
  7

 75
     0
147
0.2518055458662435
148
0.0
149
0.0
100
AcDbLayout
  1
Model
 70
     1
 71
     0
 10
0.0
 20
0.0
 11
12.0
 21
9.0
 12
0.0
 22
0.0
 32
0.0
 14
0.0
 24
0.0
 34
0.0
 15
0.0
 25
0.0
 35
0.0
146
0.0
 13
0.0
 23
0.0
 33
0.0
 16
1.0
 26
0.0
 36
0.0
 17
0.0
 27
1.0
 37
0.0
 76
     0
330
2
  0
MLINESTYLE
  5
26
102
{ACAD_REACTORS
330
24
102
}
330
24
100
AcDbMlineStyle
  2
STANDARD
 70
     0
  3

 62
   256
 51
90.0
 52
90.0
 71
     2
 49
0.5
 62
   256
  6
BYLAYER
 49
-0.5
 62
   256
  6
BYLAYER
  0
ACDBPLACEHOLDER
  5
7
102
{ACAD_REACTORS
330
8
102
}
330
8
  0
XRECORD
  5
234
102
{ACAD_REACTORS
330
232
102
}
330
232
100
AcDbXrecord
340
233
  0
XRECORD
  5
236
102
{ACAD_REACTORS
330
232
102
}
330
232
100
AcDbXrecord
340
235
  0
DICTIONARYVAR
  5
231
102
{ACAD_REACTORS
330
229
102
}
330
229
100
DictionaryVariables
280
     0
  1
0
  0
DICTIONARY
  5
237
330
13
100
AcDbDictionary
280
     1
281
     1
  3
ACAD_XREC_ROUNDTRIP
360
238
  0
DICTIONARY
  5
239
330
C
100
AcDbDictionary
280
     1
281
     1
  3
ACAD_XREC_ROUNDTRIP
360
23A
  0
XRECORD
  5
238
102
{ACAD_REACTORS
330
237
102
}
330
237
100
AcDbXrecord
102
SHADEPLOT
 70
     0
102
SHADEPLOTRESLEVEL
 70
     2
102
SHADEPLOTCUSTOMDPI
 70
   300
  0
XRECORD
  5
23A
102
{ACAD_REACTORS
330
239
102
}
330
239
100
AcDbXrecord
102
SHADEPLOT
 70
  3096
102
SHADEPLOTRESLEVEL
 70
 12888
102
SHADEPLOTCUSTOMDPI
 70
   808
  0
ENDSEC
  0
EOF
