  0
SECTION
  2
HEADER
  9
$ACADVER
  1
AC1015
  9
$ACADMAINTVER
 70
     6
  9
$DWGCODEPAGE
  3
ANSI_1252
  9
$INSBASE
 10
0.0
 20
0.0
 30
0.0
  9
$EXTMIN
 10
-12.80687804575369
 20
-0.0388325214724794
 30
0.0
  9
$EXTMAX
 10
12.80687804575369
 20
18.35443737516844
 30
0.0
  9
$LIMMIN
 10
0.0
 20
0.0
  9
$LIMMAX
 10
42.0
 20
32.0
  9
$ORTHOMODE
 70
     1
  9
$REGENMODE
 70
     1
  9
$FILLMODE
 70
     1
  9
$QTEXTMODE
 70
     0
  9
$MIRRTEXT
 70
     0
  9
$LTSCALE
 40
1.0
  9
$ATTMODE
 70
     1
  9
$TEXTSIZE
 40
0.36
  9
$TRACEWID
 40
0.05
  9
$TEXTSTYLE
  7
STANDARD
  9
$CLAYER
  8
0
  9
$CELTYPE
  6
HIDDEN
  9
$CECOLOR
 62
   256
  9
$CELTSCALE
 40
1.0
  9
$DISPSILH
 70
     0
  9
$DIMSCALE
 40
4.0
  9
$DIMASZ
 40
0.125
  9
$DIMEXO
 40
0.062
  9
$DIMDLI
 40
0.375
  9
$DIMRND
 40
0.0
  9
$DIMDLE
 40
0.0
  9
$DIMEXE
 40
0.08
  9
$DIMTP
 40
0.0
  9
$DIMTM
 40
0.0
  9
$DIMTXT
 40
0.09
  9
$DIMCEN
 40
-0.03125
  9
$DIMTSZ
 40
0.0
  9
$DIMTOL
 70
     0
  9
$DIMLIM
 70
     0
  9
$DIMTIH
 70
     1
  9
$DIMTOH
 70
     1
  9
$DIMSE1
 70
     0
  9
$DIMSE2
 70
     0
  9
$DIMTAD
 70
     0
  9
$DIMZIN
 70
     0
  9
$DIMBLK
  1

  9
$DIMASO
 70
     0
  9
$DIMSHO
 70
     0
  9
$DIMPOST
  1

  9
$DIMAPOST
  1

  9
$DIMALT
 70
     0
  9
$DIMALTD
 70
     2
  9
$DIMALTF
 40
25.4
  9
$DIMLFAC
 40
1.0
  9
$DIMTOFL
 70
     0
  9
$DIMTVP
 40
0.0
  9
$DIMTIX
 70
     0
  9
$DIMSOXD
 70
     0
  9
$DIMSAH
 70
     0
  9
$DIMBLK1
  1

  9
$DIMBLK2
  1

  9
$DIMSTYLE
  2
STANDARD
  9
$DIMCLRD
 70
     0
  9
$DIMCLRE
 70
     0
  9
$DIMCLRT
 70
     0
  9
$DIMTFAC
 40
1.0
  9
$DIMGAP
 40
0.09
  9
$DIMJUST
 70
     0
  9
$DIMSD1
 70
     0
  9
$DIMSD2
 70
     0
  9
$DIMTOLJ
 70
     1
  9
$DIMTZIN
 70
     0
  9
$DIMALTZ
 70
     0
  9
$DIMALTTZ
 70
     0
  9
$DIMUPT
 70
     0
  9
$DIMDEC
 70
     5
  9
$DIMTDEC
 70
     4
  9
$DIMALTU
 70
     2
  9
$DIMALTTD
 70
     2
  9
$DIMTXSTY
  7
STANDARD
  9
$DIMAUNIT
 70
     0
  9
$DIMADEC
 70
     0
  9
$DIMALTRND
 40
0.0
  9
$DIMAZIN
 70
     0
  9
$DIMDSEP
 70
    46
  9
$DIMATFIT
 70
     3
  9
$DIMFRAC
 70
     2
  9
$DIMLDRBLK
  1

  9
$DIMLUNIT
 70
     5
  9
$DIMLWD
 70
    -2
  9
$DIMLWE
 70
    -2
  9
$DIMTMOVE
 70
     2
  9
$LUNITS
 70
     2
  9
$LUPREC
 70
     4
  9
$SKETCHINC
 40
0.1
  9
$FILLETRAD
 40
0.0
  9
$AUNITS
 70
     0
  9
$AUPREC
 70
     0
  9
$MENU
  1
acad
  9
$ELEVATION
 40
0.0
  9
$PELEVATION
 40
0.0
  9
$THICKNESS
 40
0.0
  9
$LIMCHECK
 70
     0
  9
$CHAMFERA
 40
0.0
  9
$CHAMFERB
 40
0.0
  9
$CHAMFERC
 40
0.0
  9
$CHAMFERD
 40
0.0
  9
$SKPOLY
 70
     0
  9
$TDCREATE
 40
2450514.919589815
  9
$TDUCREATE
 40
2450515.252923148
  9
$TDUPDATE
 40
2454165.952220683
  9
$TDUUPDATE
 40
2454166.285554016
  9
$TDINDWG
 40
0.1755083449
  9
$TDUSRTIMER
 40
0.1755083449
  9
$USRTIMER
 70
     1
  9
$ANGBASE
 50
0.0
  9
$ANGDIR
 70
     0
  9
$PDMODE
 70
     0
  9
$PDSIZE
 40
0.0
  9
$PLINEWID
 40
0.0
  9
$SPLFRAME
 70
     0
  9
$SPLINETYPE
 70
     6
  9
$SPLINESEGS
 70
     8
  9
$HANDSEED
  5
274
  9
$SURFTAB1
 70
     6
  9
$SURFTAB2
 70
     6
  9
$SURFTYPE
 70
     6
  9
$SURFU
 70
     6
  9
$SURFV
 70
     6
  9
$UCSBASE
  2

  9
$UCSNAME
  2

  9
$UCSORG
 10
0.0
 20
0.0
 30
0.0
  9
$UCSXDIR
 10
1.0
 20
0.0
 30
0.0
  9
$UCSYDIR
 10
0.0
 20
1.0
 30
0.0
  9
$UCSORTHOREF
  2

  9
$UCSORTHOVIEW
 70
     0
  9
$UCSORGTOP
 10
0.0
 20
0.0
 30
0.0
  9
$UCSORGBOTTOM
 10
0.0
 20
0.0
 30
0.0
  9
$UCSORGLEFT
 10
0.0
 20
0.0
 30
0.0
  9
$UCSORGRIGHT
 10
0.0
 20
0.0
 30
0.0
  9
$UCSORGFRONT
 10
0.0
 20
0.0
 30
0.0
  9
$UCSORGBACK
 10
0.0
 20
0.0
 30
0.0
  9
$PUCSBASE
  2

  9
$PUCSNAME
  2

  9
$PUCSORG
 10
0.0
 20
0.0
 30
0.0
  9
$PUCSXDIR
 10
1.0
 20
0.0
 30
0.0
  9
$PUCSYDIR
 10
0.0
 20
1.0
 30
0.0
  9
$PUCSORTHOREF
  2

  9
$PUCSORTHOVIEW
 70
     0
  9
$PUCSORGTOP
 10
0.0
 20
0.0
 30
0.0
  9
$PUCSORGBOTTOM
 10
0.0
 20
0.0
 30
0.0
  9
$PUCSORGLEFT
 10
0.0
 20
0.0
 30
0.0
  9
$PUCSORGRIGHT
 10
0.0
 20
0.0
 30
0.0
  9
$PUCSORGFRONT
 10
0.0
 20
0.0
 30
0.0
  9
$PUCSORGBACK
 10
0.0
 20
0.0
 30
0.0
  9
$USERI1
 70
     0
  9
$USERI2
 70
     0
  9
$USERI3
 70
     0
  9
$USERI4
 70
     0
  9
$USERI5
 70
     0
  9
$USERR1
 40
0.0
  9
$USERR2
 40
0.0
  9
$USERR3
 40
0.0
  9
$USERR4
 40
0.0
  9
$USERR5
 40
0.0
  9
$WORLDVIEW
 70
     1
  9
$SHADEDGE
 70
     3
  9
$SHADEDIF
 70
    70
  9
$TILEMODE
 70
     1
  9
$MAXACTVP
 70
    16
  9
$PINSBASE
 10
0.0
 20
0.0
 30
0.0
  9
$PLIMCHECK
 70
     0
  9
$PEXTMIN
 10
1.000000000000000E+20
 20
1.000000000000000E+20
 30
1.000000000000000E+20
  9
$PEXTMAX
 10
-1.000000000000000E+20
 20
-1.000000000000000E+20
 30
-1.000000000000000E+20
  9
$PLIMMIN
 10
0.0
 20
0.0
  9
$PLIMMAX
 10
12.0
 20
9.0
  9
$UNITMODE
 70
     0
  9
$VISRETAIN
 70
     0
  9
$PLINEGEN
 70
     0
  9
$PSLTSCALE
 70
     0
  9
$TREEDEPTH
 70
  3020
  9
$CMLSTYLE
  2
STANDARD
  9
$CMLJUST
 70
     0
  9
$CMLSCALE
 40
1.0
  9
$PROXYGRAPHICS
 70
     1
  9
$MEASUREMENT
 70
     0
  9
$CELWEIGHT
370
    -1
  9
$ENDCAPS
280
     0
  9
$JOINSTYLE
280
     0
  9
$LWDISPLAY
290
     0
  9
$INSUNITS
 70
     0
  9
$HYPERLINKBASE
  1

  9
$STYLESHEET
  1

  9
$XEDIT
290
     1
  9
$CEPSNTYPE
380
     0
  9
$PSTYLEMODE
290
     1
  9
$FINGERPRINTGUID
  2
{4A389431-8CC7-11D5-BE3F-00508B5FCD51}
  9
$VERSIONGUID
  2
{F7F46FCA-12FA-4BBB-B84E-D13891490614}
  9
$EXTNAMES
290
     1
  9
$PSVPSCALE
 40
0.0
  9
$OLESTARTUP
290
     0
  0
ENDSEC
  0
SECTION
  2
CLASSES
  0
CLASS
  1
DICTIONARYVAR
  2
AcDbDictionaryVar
  3
AutoCAD 2000
 90
        0
280
     0
281
     0
  0
CLASS
  1
LWPOLYLINE
  2
AcDbPolyline
  3
AutoCAD 2000
 90
        0
280
     0
281
     1
  0
CLASS
  1
ACDBDICTIONARYWDFLT
  2
AcDbDictionaryWithDefault
  3
AutoCAD 2000
 90
        0
280
     0
281
     0
  0
CLASS
  1
ACDBPLACEHOLDER
  2
AcDbPlaceHolder
  3
ObjectDBX Classes
 90
        0
280
     0
281
     0
  0
CLASS
  1
LAYOUT
  2
AcDbLayout
  3
ObjectDBX Classes
 90
        0
280
     0
281
     0
  0
CLASS
  1
LONG_TRANSACTION
  2
AcDbLongTransaction
  3
ObjectDBX Classes
 90
   -65536
280
     1
281
     0
  0
CLASS
  1
LWPOLYLINE
  2
AcDbPolyline
  3
AutoCAD 2000
 90
        0
280
     0
281
     1
  0
CLASS
  1
HATCH
  2
AcDbHatch
  3
AutoCAD 2000
 90
        0
280
     0
281
     1
  0
CLASS
  1
XRECORD
  2
AcDbXrecord
  3
AutoCAD 2000
 90
        0
280
     0
281
     0
  0
CLASS
  1
LONG_TRANSACTION
  2
AcDbLongTransaction
  3
ObjectDBX Classes
 90
   -65536
280
     1
281
     0
  0
CLASS
  1
LWPOLYLINE
  2
AcDbPolyline
  3
AutoCAD 2000
 90
        0
280
     0
281
     1
  0
CLASS
  1
HATCH
  2
AcDbHatch
  3
AutoCAD 2000
 90
        0
280
     0
281
     1
  0
CLASS
  1
XRECORD
  2
AcDbXrecord
  3
AutoCAD 2000
 90
        0
280
     0
281
     0
  0
CLASS
  1
LONG_TRANSACTION
  2
AcDbLongTransaction
  3
ObjectDBX Classes
 90
   -65536
280
     1
281
     0
  0
CLASS
  1
LWPOLYLINE
  2
AcDbPolyline
  3
AutoCAD 2000
 90
        0
280
     0
281
     1
  0
CLASS
  1
HATCH
  2
AcDbHatch
  3
AutoCAD 2000
 90
        0
280
     0
281
     1
  0
CLASS
  1
XRECORD
  2
AcDbXrecord
  3
AutoCAD 2000
 90
        0
280
     0
281
     0
  0
CLASS
  1
LONG_TRANSACTION
  2
AcDbLongTransaction
  3
ObjectDBX Classes
 90
   -65536
280
     1
281
     0
  0
CLASS
  1
LWPOLYLINE
  2
AcDbPolyline
  3
AutoCAD 2000
 90
        0
280
     0
281
     1
  0
CLASS
  1
HATCH
  2
AcDbHatch
  3
AutoCAD 2000
 90
        0
280
     0
281
     1
  0
CLASS
  1
XRECORD
  2
AcDbXrecord
  3
AutoCAD 2000
 90
        0
280
     0
281
     0
  0
CLASS
  1
LONG_TRANSACTION
  2
AcDbLongTransaction
  3
ObjectDBX Classes
 90
   -65536
280
     1
281
     0
  0
CLASS
  1
LWPOLYLINE
  2
AcDbPolyline
  3
AutoCAD 2000
 90
        0
280
     0
281
     1
  0
CLASS
  1
HATCH
  2
AcDbHatch
  3
AutoCAD 2000
 90
        0
280
     0
281
     1
  0
CLASS
  1
XRECORD
  2
AcDbXrecord
  3
AutoCAD 2000
 90
        0
280
     0
281
     0
  0
CLASS
  1
LONG_TRANSACTION
  2
AcDbLongTransaction
  3
ObjectDBX Classes
 90
   -65536
280
     1
281
     0
  0
CLASS
  1
LWPOLYLINE
  2
AcDbPolyline
  3
AutoCAD 2000
 90
        0
280
     0
281
     1
  0
CLASS
  1
HATCH
  2
AcDbHatch
  3
AutoCAD 2000
 90
        0
280
     0
281
     1
  0
CLASS
  1
XRECORD
  2
AcDbXrecord
  3
AutoCAD 2000
 90
        0
280
     0
281
     0
  0
CLASS
  1
LONG_TRANSACTION
  2
AcDbLongTransaction
  3
ObjectDBX Classes
 90
   -65536
280
     1
281
     0
  0
CLASS
  1
LWPOLYLINE
  2
AcDbPolyline
  3
AutoCAD 2000
 90
        0
280
     0
281
     1
  0
CLASS
  1
HATCH
  2
AcDbHatch
  3
AutoCAD 2000
 90
        0
280
     0
281
     1
  0
CLASS
  1
XRECORD
  2
AcDbXrecord
  3
AutoCAD 2000
 90
        0
280
     0
281
     0
  0
CLASS
  1
LONG_TRANSACTION
  2
AcDbLongTransaction
  3
ObjectDBX Classes
 90
   -65536
280
     1
281
     0
  0
CLASS
  1
LWPOLYLINE
  2
AcDbPolyline
  3
AutoCAD 2000
 90
        0
280
     0
281
     1
  0
CLASS
  1
HATCH
  2
AcDbHatch
  3
AutoCAD 2000
 90
        0
280
     0
281
     1
  0
CLASS
  1
XRECORD
  2
AcDbXrecord
  3
AutoCAD 2000
 90
        0
280
     0
281
     0
  0
CLASS
  1
TABLESTYLE
  2
AcDbTableStyle
  3
ObjectDBX Classes
 90
     2047
280
     1
281
     0
  0
ENDSEC
  0
SECTION
  2
TABLES
  0
TABLE
  2
VPORT
  5
1D
330
0
100
AcDbSymbolTable
 70
     3
  0
VPORT
  5
266
330
1D
100
AcDbSymbolTableRecord
100
AcDbViewportTableRecord
  2
*Active
 70
     0
 10
0.0
 20
0.0
 11
1.0
 21
1.0
 12
8.107532870933714
 22
10.03270092124851
 13
0.0
 23
0.0
 14
0.03125
 24
0.03125
 15
0.25
 25
0.25
 16
0.0
 26
0.0
 36
1.0
 17
0.0
 27
0.0
 37
0.0
 40
32.43970681893967
 41
1.814583333333333
 42
50.0
 43
0.0
 44
0.0
 50
0.0
 51
0.0
 71
     0
 72
   100
 73
     1
 74
     0
 75
     0
 76
     0
 77
     0
 78
     0
281
     0
 65
     1
110
0.0
120
0.0
130
0.0
111
1.0
121
0.0
131
0.0
112
0.0
122
1.0
132
0.0
 79
     0
146
0.0
  0
ENDTAB
  0
TABLE
  2
LTYPE
  5
18
330
0
100
AcDbSymbolTable
 70
     2
  0
LTYPE
  5
19
330
18
100
AcDbSymbolTableRecord
100
AcDbLinetypeTableRecord
  2
BYBLOCK
 70
     0
  3

 72
    65
 73
     0
 40
0.0
  0
LTYPE
  5
1A
330
18
100
AcDbSymbolTableRecord
100
AcDbLinetypeTableRecord
  2
BYLAYER
 70
     0
  3

 72
    65
 73
     0
 40
0.0
  0
LTYPE
  5
A
330
18
100
AcDbSymbolTableRecord
100
AcDbLinetypeTableRecord
  2
CONTINUOUS
 70
     0
  3
Solid line
 72
    65
 73
     0
 40
0.0
  0
LTYPE
  5
249
330
18
100
AcDbSymbolTableRecord
100
AcDbLinetypeTableRecord
  2
HIDDEN
 70
     0
  3
Hidden __ __ __ __ __ __ __ __ __ __ __ __ __ _
 72
    65
 73
     2
 40
0.375
 49
0.25
 74
     0
 49
-0.125
 74
     0
  0
ENDTAB
  0
TABLE
  2
LAYER
  5
14
330
0
100
AcDbSymbolTable
 70
     1
  0
LAYER
  5
6
330
14
100
AcDbSymbolTableRecord
100
AcDbLayerTableRecord
  2
0
 70
     0
 62
     7
  6
CONTINUOUS
370
    -3
390
7
  0
ENDTAB
  0
TABLE
  2
STYLE
  5
15
330
0
100
AcDbSymbolTable
 70
     2
  0
STYLE
  5
16
330
15
100
AcDbSymbolTableRecord
100
AcDbTextStyleTableRecord
  2
STANDARD
 70
     0
 40
0.0
 41
1.0
 50
0.0
 71
     0
 42
0.36
  3
TXT
  4

  0
STYLE
  5
248
330
15
100
AcDbSymbolTableRecord
100
AcDbTextStyleTableRecord
  2

 70
     1
 40
0.0
 41
1.0
 50
0.0
 71
     0
 42
0.36
  3
ltypeshp.shx
  4

  0
ENDTAB
  0
TABLE
  2
VIEW
  5
1B
330
0
100
AcDbSymbolTable
 70
     0
  0
ENDTAB
  0
TABLE
  2
UCS
  5
1C
330
0
100
AcDbSymbolTable
 70
     0
  0
ENDTAB
  0
TABLE
  2
APPID
  5
1F
330
0
100
AcDbSymbolTable
 70
     1
  0
APPID
  5
20
330
1F
100
AcDbSymbolTableRecord
100
AcDbRegAppTableRecord
  2
ACAD
 70
     0
  0
ENDTAB
  0
TABLE
  2
DIMSTYLE
  5
21
330
0
100
AcDbSymbolTable
 70
     1
100
AcDbDimStyleTable
  0
DIMSTYLE
105
27
330
21
100
AcDbSymbolTableRecord
100
AcDbDimStyleTableRecord
  2
STANDARD
 70
     0
  3

  4

340
16
  0
ENDTAB
  0
TABLE
  2
BLOCK_RECORD
  5
1
330
0
100
AcDbSymbolTable
 70
     0
  0
BLOCK_RECORD
  5
2
330
1
100
AcDbSymbolTableRecord
100
AcDbBlockTableRecord
  2
*MODEL_SPACE
340
C
  0
BLOCK_RECORD
  5
E
330
1
100
AcDbSymbolTableRecord
100
AcDbBlockTableRecord
  2
*PAPER_SPACE
340
13
  0
ENDTAB
  0
ENDSEC
  0
SECTION
  2
BLOCKS
  0
BLOCK
  5
5
330
2
100
AcDbEntity
  8
0
100
AcDbBlockBegin
  2
*MODEL_SPACE
 70
     0
 10
0.0
 20
0.0
 30
0.0
  3
*MODEL_SPACE
  1

  4

  0
ENDBLK
  5
B
330
2
100
AcDbEntity
  8
0
100
AcDbBlockEnd
  0
BLOCK
  5
11
330
E
100
AcDbEntity
 67
     1
  8
0
100
AcDbBlockBegin
  2
*PAPER_SPACE
 70
     0
 10
0.0
 20
0.0
 30
0.0
  3
*PAPER_SPACE
  1

  4

  0
ENDBLK
  5
12
330
E
100
AcDbEntity
 67
     1
  8
0
100
AcDbBlockEnd
  0
ENDSEC
  0
SECTION
  2
ENTITIES
  0
ARC
  5
DB
330
2
100
AcDbEntity
  8
0
100
AcDbCircle
 10
4.358419104289126
 20
6.027723576038721
 30
0.0
 40
0.125
100
AcDbArc
 50
180.0
 51
225.0000000000001
  0
CIRCLE
  5
DC
330
2
100
AcDbEntity
  8
0
100
AcDbCircle
 10
3.233414181135835
 20
6.031250000000007
 30
0.0
 40
0.0855
  0
CIRCLE
  5
DD
330
2
100
AcDbEntity
  8
0
100
AcDbCircle
 10
-3.233414181135835
 20
6.039173724782668
 30
0.0
 40
0.0855
  0
ARC
  5
DE
330
2
100
AcDbEntity
  8
0
100
AcDbCircle
 10
-4.358419104289119
 20
6.035647300821378
 30
0.0
 40
0.125
100
AcDbArc
 50
315.0
 51
0.0
  0
LINE
  5
DF
330
2
100
AcDbEntity
  8
0
100
AcDbLine
 10
1.913714181135838
 20
0.1874999999999982
 30
0.0
 11
1.913714181135838
 21
7.125
 31
0.0
  0
LINE
  5
E0
330
2
100
AcDbEntity
  8
0
100
AcDbLine
 10
-1.913714181135838
 20
0.1875
 30
0.0
 11
-1.913714181135838
 21
7.125
 31
0.0
  0
LINE
  5
E1
330
2
100
AcDbEntity
  8
0
100
AcDbLine
 10
1.819964181135838
 20
0.1875
 30
0.0
 11
1.819964181135838
 21
7.125
 31
0.0
  0
LINE
  5
E2
330
2
100
AcDbEntity
  8
0
100
AcDbLine
 10
-1.819964181135838
 20
0.1875
 30
0.0
 11
-1.819964181135838
 21
7.125
 31
0.0
  0
ARC
  5
E3
330
2
100
AcDbEntity
  8
0
100
AcDbCircle
 10
1.726214181135838
 20
0.1875
 30
0.0
 40
0.09375
100
AcDbArc
 50
270.0
 51
0.0
  0
ARC
  5
E4
330
2
100
AcDbEntity
  8
0
100
AcDbCircle
 10
1.726214181135838
 20
0.1874999999999982
 30
0.0
 40
0.1875
100
AcDbArc
 50
270.0
 51
0.0
  0
LINE
  5
E5
330
2
100
AcDbEntity
  8
0
100
AcDbLine
 10
-3.281516143145424
 20
1.704247038856238
 30
0.0
 11
-1.913714181135838
 21
0.3364450768466671
 31
0.0
  0
LINE
  5
E6
330
2
100
AcDbEntity
  8
0
100
AcDbLine
 10
-1.726214181135838
 20
0.09375
 30
0.0
 11
1.726214181135838
 21
0.0937499999999982
 31
0.0
  0
LINE
  5
E7
330
2
100
AcDbEntity
  8
0
100
AcDbLine
 10
-1.726214181135838
 20
0.0
 30
0.0
 11
1.726214181135838
 21
-0.0000000000000018
 31
0.0
  0
ARC
  5
E8
330
2
100
AcDbEntity
  8
0
100
AcDbCircle
 10
-1.726214181135838
 20
0.1875
 30
0.0
 40
0.09375
100
AcDbArc
 50
180.0
 51
269.9999999999998
  0
ARC
  5
E9
330
2
100
AcDbEntity
  8
0
100
AcDbCircle
 10
-1.726214181135838
 20
0.1875
 30
0.0
 40
0.1875
100
AcDbArc
 50
180.0
 51
270.0
  0
CIRCLE
  5
EB
330
2
100
AcDbEntity
  8
0
100
AcDbCircle
 10
-2.670914181135828
 20
5.414173724782661
 30
0.0
 40
0.0855
  0
CIRCLE
  5
EC
330
2
100
AcDbEntity
  8
0
100
AcDbCircle
 10
-2.670914181135828
 20
3.289173724782661
 30
0.0
 40
0.0855
  0
CIRCLE
  5
ED
330
2
100
AcDbEntity
  8
0
100
AcDbCircle
 10
-2.670914181135828
 20
1.601673724782661
 30
0.0
 40
0.0855
  0
CIRCLE
  5
EE
330
2
100
AcDbEntity
  8
0
100
AcDbCircle
 10
-3.062419104289319
 20
3.468699999999956
 30
0.0
 40
0.0855
  0
ARC
  5
EF
330
2
100
AcDbEntity
  8
0
100
AcDbCircle
 10
-0.9834191042891334
 20
4.002344077712564
 30
0.0
 40
3.25
100
AcDbArc
 50
180.0
 51
225.0000000000005
  0
CIRCLE
  5
F0
330
2
100
AcDbEntity
  8
0
100
AcDbCircle
 10
-3.233414181135835
 20
2.289173724782661
 30
0.0
 40
0.0855
  0
CIRCLE
  5
F1
330
2
100
AcDbEntity
  8
0
100
AcDbCircle
 10
-3.545914181135835
 20
3.039173724782661
 30
0.0
 40
0.0855
  0
LINE
  5
F2
330
2
100
AcDbEntity
  8
0
100
AcDbLine
 10
-4.509307451937438
 20
4.884758953173066
 30
0.0
 11
-4.270030756640804
 21
4.645482257876427
 31
0.0
  0
LINE
  5
F3
330
2
100
AcDbEntity
  8
0
100
AcDbLine
 10
-4.233419104289126
 20
4.549170185445451
 30
0.0
 11
-4.233419104289133
 21
4.002344077712564
 31
0.0
  0
ARC
  5
F4
330
2
100
AcDbEntity
  8
0
100
AcDbCircle
 10
-4.358419104289119
 20
4.557093910228108
 30
0.0
 40
0.125
100
AcDbArc
 50
0.0
 51
45.00000000000014
  0
CIRCLE
  5
F5
330
2
100
AcDbEntity
  8
0
100
AcDbCircle
 10
-3.983414181135835
 20
4.289173724782661
 30
0.0
 40
0.0855
  0
CIRCLE
  5
F6
330
2
100
AcDbEntity
  8
0
100
AcDbCircle
 10
-3.233414181135835
 20
4.039173724782661
 30
0.0
 40
0.0855
  0
CIRCLE
  5
F7
330
2
100
AcDbEntity
  8
0
100
AcDbCircle
 10
-3.764664181135842
 20
3.664173724782661
 30
0.0
 40
0.0855
  0
CIRCLE
  5
F8
330
2
100
AcDbEntity
  8
0
100
AcDbCircle
 10
-4.295914181135835
 20
5.289173724782661
 30
0.0
 40
0.0855
  0
LINE
  5
F9
330
2
100
AcDbEntity
  8
0
100
AcDbLine
 10
-4.545919104289119
 20
5.619593910228101
 30
0.0
 11
-4.545919104289119
 21
4.973147300821385
 31
0.0
  0
ARC
  5
FA
330
2
100
AcDbEntity
  8
0
100
AcDbCircle
 10
-4.420919104289119
 20
4.973147300821385
 30
0.0
 40
0.125
100
AcDbArc
 50
180.0
 51
225.0000000000003
  0
LINE
  5
FB
330
2
100
AcDbEntity
  8
0
100
AcDbLine
 10
-4.2700307566408
 20
5.947258953173058
 30
0.0
 11
-4.509307451937438
 21
5.70798225787642
 31
0.0
  0
ARC
  5
FC
330
2
100
AcDbEntity
  8
0
100
AcDbCircle
 10
-4.420919104289119
 20
5.619593910228101
 30
0.0
 40
0.125
100
AcDbArc
 50
134.9999999999996
 51
180.0
  0
CIRCLE
  5
FD
330
2
100
AcDbEntity
  8
0
100
AcDbCircle
 10
-3.545914181135835
 20
5.039173724782661
 30
0.0
 40
0.0855
  0
CIRCLE
  5
FE
330
2
100
AcDbEntity
  8
0
100
AcDbCircle
 10
-3.764664181135842
 20
5.664173724782661
 30
0.0
 40
0.0855
  0
ELLIPSE
  5
FF
330
2
100
AcDbEntity
  8
0
100
AcDbEllipse
 10
-1.913714181135838
 20
1.75350143008685
 30
0.0
 11
0.0
 21
-0.1875000000000142
 31
0.0
210
0.0
220
0.0
230
-1.0
 40
0.9999999999999242
 41
0.0
 42
3.141592653589793
  0
ELLIPSE
  5
100
330
2
100
AcDbEntity
  8
0
100
AcDbEllipse
 10
-1.913714181135838
 20
1.753501430086836
 30
0.0
 11
0.0
 21
-0.1383375000000022
 31
0.0
210
0.0
220
0.0
230
-1.0
 40
0.9035872413481376
 41
0.0
 42
3.141592653589793
  0
LINE
  5
101
330
2
100
AcDbEntity
  8
0
100
AcDbLine
 10
-1.913714181135838
 20
1.909751430086836
 30
0.0
 11
-1.913714181135838
 21
1.597251430086836
 31
0.0
  0
LINE
  5
102
330
2
100
AcDbEntity
  8
0
100
AcDbLine
 10
-1.913714181135838
 20
1.597251430086836
 30
0.0
 11
-1.913714181135838
 21
1.566001430086836
 31
0.0
  0
LINE
  5
103
330
2
100
AcDbEntity
  8
0
100
AcDbLine
 10
-1.913714181135838
 20
1.909751430086864
 30
0.0
 11
-1.913714181135838
 21
1.941001430086864
 31
0.0
  0
LINE
  5
104
330
2
100
AcDbEntity
  8
0
100
AcDbLine
 10
-1.913714181135838
 20
2.909751430086836
 30
0.0
 11
-1.913714181135838
 21
2.597251430086836
 31
0.0
  0
ELLIPSE
  5
105
330
2
100
AcDbEntity
  8
0
100
AcDbEllipse
 10
-1.913714181135838
 20
2.753501430086836
 30
0.0
 11
0.0
 21
-0.1383375000000022
 31
0.0
210
0.0
220
0.0
230
-1.0
 40
0.9035872413481376
 41
0.0
 42
3.141592653589793
  0
ELLIPSE
  5
106
330
2
100
AcDbEntity
  8
0
100
AcDbEllipse
 10
-1.913714181135838
 20
2.75350143008685
 30
0.0
 11
0.0
 21
-0.1875000000000142
 31
0.0
210
0.0
220
0.0
230
-1.0
 40
0.9999999999999242
 41
0.0
 42
3.141592653589793
  0
CIRCLE
  5
107
330
2
100
AcDbEntity
  8
0
100
AcDbCircle
 10
-2.545914181135828
 20
2.772364029430566
 30
0.0
 40
0.0855
  0
LINE
  5
108
330
2
100
AcDbEntity
  8
0
100
AcDbLine
 10
-1.913714181135838
 20
2.597251430086836
 30
0.0
 11
-1.913714181135838
 21
2.566001430086836
 31
0.0
  0
LINE
  5
109
330
2
100
AcDbEntity
  8
0
100
AcDbLine
 10
-1.913714181135838
 20
2.909751430086864
 30
0.0
 11
-1.913714181135838
 21
2.941001430086864
 31
0.0
  0
LINE
  5
10A
330
2
100
AcDbEntity
  8
0
100
AcDbLine
 10
-1.913714181135838
 20
4.909751430086836
 30
0.0
 11
-1.913714181135838
 21
4.597251430086836
 31
0.0
  0
ELLIPSE
  5
10B
330
2
100
AcDbEntity
  8
0
100
AcDbEllipse
 10
-1.913714181135838
 20
4.75350143008685
 30
0.0
 11
0.0
 21
-0.1875000000000142
 31
0.0
210
0.0
220
0.0
230
-1.0
 40
0.9999999999999242
 41
0.0
 42
3.141592653589793
  0
ELLIPSE
  5
10C
330
2
100
AcDbEntity
  8
0
100
AcDbEllipse
 10
-1.913714181135838
 20
4.753501430086836
 30
0.0
 11
0.0
 21
-0.1383375000000022
 31
0.0
210
0.0
220
0.0
230
-1.0
 40
0.9035872413481376
 41
0.0
 42
3.141592653589793
  0
CIRCLE
  5
10D
330
2
100
AcDbEntity
  8
0
100
AcDbCircle
 10
-2.545914181135828
 20
4.781250000000007
 30
0.0
 40
0.0855
  0
LINE
  5
10E
330
2
100
AcDbEntity
  8
0
100
AcDbLine
 10
-1.913714181135838
 20
3.909751430086864
 30
0.0
 11
-1.913714181135838
 21
3.941001430086864
 31
0.0
  0
LINE
  5
10F
330
2
100
AcDbEntity
  8
0
100
AcDbLine
 10
-1.913714181135838
 20
3.597251430086836
 30
0.0
 11
-1.913714181135838
 21
3.566001430086836
 31
0.0
  0
ELLIPSE
  5
110
330
2
100
AcDbEntity
  8
0
100
AcDbEllipse
 10
-1.913714181135838
 20
3.753501430086836
 30
0.0
 11
0.0
 21
-0.1383375000000022
 31
0.0
210
0.0
220
0.0
230
-1.0
 40
0.9035872413481376
 41
0.0
 42
3.141592653589793
  0
ELLIPSE
  5
111
330
2
100
AcDbEntity
  8
0
100
AcDbEllipse
 10
-1.913714181135838
 20
3.75350143008685
 30
0.0
 11
0.0
 21
-0.1875000000000142
 31
0.0
210
0.0
220
0.0
230
-1.0
 40
0.9999999999999242
 41
0.0
 42
3.141592653589793
  0
LINE
  5
112
330
2
100
AcDbEntity
  8
0
100
AcDbLine
 10
-1.913714181135838
 20
3.909751430086836
 30
0.0
 11
-1.913714181135838
 21
3.597251430086836
 31
0.0
  0
CIRCLE
  5
113
330
2
100
AcDbEntity
  8
0
100
AcDbCircle
 10
-2.545914181135828
 20
4.281250000000004
 30
0.0
 40
0.0855
  0
LINE
  5
114
330
2
100
AcDbEntity
  8
0
100
AcDbLine
 10
-1.913714181135838
 20
4.597251430086836
 30
0.0
 11
-1.913714181135838
 21
4.566001430086836
 31
0.0
  0
LINE
  5
115
330
2
100
AcDbEntity
  8
0
100
AcDbLine
 10
-1.913714181135838
 20
4.909751430086864
 30
0.0
 11
-1.913714181135838
 21
4.941001430086864
 31
0.0
  0
LINE
  5
116
330
2
100
AcDbEntity
  8
0
100
AcDbLine
 10
-1.913714181135838
 20
5.909751430086836
 30
0.0
 11
-1.913714181135838
 21
5.597251430086836
 31
0.0
  0
LINE
  5
117
330
2
100
AcDbEntity
  8
0
100
AcDbLine
 10
-1.913714181135838
 20
5.597251430086836
 30
0.0
 11
-1.913714181135838
 21
5.566001430086836
 31
0.0
  0
LINE
  5
118
330
2
100
AcDbEntity
  8
0
100
AcDbLine
 10
-1.913714181135838
 20
5.909751430086864
 30
0.0
 11
-1.913714181135838
 21
5.941001430086864
 31
0.0
  0
ELLIPSE
  5
119
330
2
100
AcDbEntity
  8
0
100
AcDbEllipse
 10
-1.913714181135838
 20
5.75350143008685
 30
0.0
 11
0.0
 21
-0.1875000000000142
 31
0.0
210
0.0
220
0.0
230
-1.0
 40
0.9999999999999242
 41
0.0
 42
3.141592653589793
  0
ELLIPSE
  5
11A
330
2
100
AcDbEntity
  8
0
100
AcDbEllipse
 10
-1.913714181135838
 20
5.753501430086836
 30
0.0
 11
0.0
 21
-0.1383375000000022
 31
0.0
210
0.0
220
0.0
230
-1.0
 40
0.9035872413481376
 41
0.0
 42
3.141592653589793
  0
LINE
  5
11C
330
2
100
AcDbEntity
  8
0
100
AcDbLine
 10
3.281516143145424
 20
1.704247038856238
 30
0.0
 11
1.913714181135838
 21
0.3364450768466671
 31
0.0
  0
CIRCLE
  5
11E
330
2
100
AcDbEntity
  8
0
100
AcDbCircle
 10
3.062419104289319
 20
3.468699999999956
 30
0.0
 40
0.0855
  0
ARC
  5
11F
330
2
100
AcDbEntity
  8
0
100
AcDbCircle
 10
0.9834191042891334
 20
4.002344077712564
 30
0.0
 40
3.25
100
AcDbArc
 50
314.9999999999995
 51
0.0
  0
LINE
  5
120
330
2
100
AcDbEntity
  8
0
100
AcDbLine
 10
1.913714181135838
 20
3.534751430086836
 30
0.0
 11
1.913714181135838
 21
3.222251430086836
 31
0.0
  0
ELLIPSE
  5
121
330
2
100
AcDbEntity
  8
0
100
AcDbEllipse
 10
1.913714181135838
 20
3.37850143008685
 30
0.0
 11
0.0
 21
-0.1875000000000142
 31
0.0
210
0.0
220
0.0
230
1.0
 40
0.9999999999999242
 41
0.0
 42
3.141592653589793
  0
ELLIPSE
  5
122
330
2
100
AcDbEntity
  8
0
100
AcDbEllipse
 10
1.913714181135838
 20
3.378501430086836
 30
0.0
 11
0.0
 21
-0.1383375000000022
 31
0.0
210
0.0
220
0.0
230
1.0
 40
0.9035872413481376
 41
0.0
 42
3.141592653589793
  0
CIRCLE
  5
123
330
2
100
AcDbEntity
  8
0
100
AcDbCircle
 10
3.233414181135842
 20
2.281250000000004
 30
0.0
 40
0.0855
  0
LINE
  5
124
330
2
100
AcDbEntity
  8
0
100
AcDbLine
 10
1.913714181135838
 20
2.534751430086836
 30
0.0
 11
1.913714181135838
 21
2.222251430086836
 31
0.0
  0
ELLIPSE
  5
125
330
2
100
AcDbEntity
  8
0
100
AcDbEllipse
 10
1.913714181135838
 20
2.37850143008685
 30
0.0
 11
0.0
 21
-0.1875000000000142
 31
0.0
210
0.0
220
0.0
230
1.0
 40
0.9999999999999242
 41
0.0
 42
3.141592653589793
  0
ELLIPSE
  5
126
330
2
100
AcDbEntity
  8
0
100
AcDbEllipse
 10
1.913714181135838
 20
2.378501430086836
 30
0.0
 11
0.0
 21
-0.1383375000000022
 31
0.0
210
0.0
220
0.0
230
1.0
 40
0.9035872413481376
 41
0.0
 42
3.141592653589793
  0
CIRCLE
  5
127
330
2
100
AcDbEntity
  8
0
100
AcDbCircle
 10
2.670914181135832
 20
1.59375
 30
0.0
 40
0.0855
  0
LINE
  5
128
330
2
100
AcDbEntity
  8
0
100
AcDbLine
 10
1.913714181135838
 20
1.534751430086864
 30
0.0
 11
1.913714181135838
 21
1.566001430086864
 31
0.0
  0
LINE
  5
129
330
2
100
AcDbEntity
  8
0
100
AcDbLine
 10
1.913714181135838
 20
1.534751430086836
 30
0.0
 11
1.913714181135838
 21
1.222251430086836
 31
0.0
  0
LINE
  5
12A
330
2
100
AcDbEntity
  8
0
100
AcDbLine
 10
1.913714181135838
 20
1.222251430086836
 30
0.0
 11
1.913714181135838
 21
1.191001430086836
 31
0.0
  0
ELLIPSE
  5
12B
330
2
100
AcDbEntity
  8
0
100
AcDbEllipse
 10
1.913714181135838
 20
1.378501430086836
 30
0.0
 11
0.0
 21
-0.1383375000000022
 31
0.0
210
0.0
220
0.0
230
1.0
 40
0.9035872413481376
 41
0.0
 42
3.141592653589793
  0
ELLIPSE
  5
12C
330
2
100
AcDbEntity
  8
0
100
AcDbEllipse
 10
1.913714181135838
 20
1.37850143008685
 30
0.0
 11
0.0
 21
-0.1875000000000142
 31
0.0
210
0.0
220
0.0
230
1.0
 40
0.9999999999999242
 41
0.0
 42
3.141592653589793
  0
LINE
  5
12D
330
2
100
AcDbEntity
  8
0
100
AcDbLine
 10
1.913714181135838
 20
2.222251430086836
 30
0.0
 11
1.913714181135838
 21
2.191001430086836
 31
0.0
  0
LINE
  5
12E
330
2
100
AcDbEntity
  8
0
100
AcDbLine
 10
1.913714181135838
 20
2.534751430086864
 30
0.0
 11
1.913714181135838
 21
2.566001430086864
 31
0.0
  0
CIRCLE
  5
12F
330
2
100
AcDbEntity
  8
0
100
AcDbCircle
 10
2.545914181135828
 20
2.772364029430566
 30
0.0
 40
0.0855
  0
LINE
  5
130
330
2
100
AcDbEntity
  8
0
100
AcDbLine
 10
1.913714181135838
 20
3.222251430086836
 30
0.0
 11
1.913714181135838
 21
3.191001430086836
 31
0.0
  0
CIRCLE
  5
131
330
2
100
AcDbEntity
  8
0
100
AcDbCircle
 10
2.670914181135832
 20
3.281250000000004
 30
0.0
 40
0.0855
  0
CIRCLE
  5
132
330
2
100
AcDbEntity
  8
0
100
AcDbCircle
 10
3.545914181135842
 20
3.031250000000004
 30
0.0
 40
0.0855
  0
CIRCLE
  5
133
330
2
100
AcDbEntity
  8
0
100
AcDbCircle
 10
2.545914181135828
 20
4.781250000000007
 30
0.0
 40
0.0855
  0
LINE
  5
134
330
2
100
AcDbEntity
  8
0
100
AcDbLine
 10
1.913714181135838
 20
3.534751430086864
 30
0.0
 11
1.913714181135838
 21
3.566001430086864
 31
0.0
  0
LINE
  5
135
330
2
100
AcDbEntity
  8
0
100
AcDbLine
 10
1.913714181135838
 20
4.534751430086864
 30
0.0
 11
1.913714181135838
 21
4.566001430086864
 31
0.0
  0
LINE
  5
136
330
2
100
AcDbEntity
  8
0
100
AcDbLine
 10
1.913714181135838
 20
4.222251430086836
 30
0.0
 11
1.913714181135838
 21
4.191001430086836
 31
0.0
  0
ELLIPSE
  5
137
330
2
100
AcDbEntity
  8
0
100
AcDbEllipse
 10
1.913714181135838
 20
4.378501430086836
 30
0.0
 11
0.0
 21
-0.1383375000000022
 31
0.0
210
0.0
220
0.0
230
1.0
 40
0.9035872413481376
 41
0.0
 42
3.141592653589793
  0
ELLIPSE
  5
138
330
2
100
AcDbEntity
  8
0
100
AcDbEllipse
 10
1.913714181135838
 20
4.37850143008685
 30
0.0
 11
0.0
 21
-0.1875000000000142
 31
0.0
210
0.0
220
0.0
230
1.0
 40
0.9999999999999242
 41
0.0
 42
3.141592653589793
  0
LINE
  5
139
330
2
100
AcDbEntity
  8
0
100
AcDbLine
 10
1.913714181135838
 20
4.534751430086836
 30
0.0
 11
1.913714181135838
 21
4.222251430086836
 31
0.0
  0
CIRCLE
  5
13A
330
2
100
AcDbEntity
  8
0
100
AcDbCircle
 10
2.545914181135828
 20
4.281250000000004
 30
0.0
 40
0.0855
  0
CIRCLE
  5
13B
330
2
100
AcDbEntity
  8
0
100
AcDbCircle
 10
3.233414181135842
 20
4.031250000000004
 30
0.0
 40
0.0855
  0
CIRCLE
  5
13C
330
2
100
AcDbEntity
  8
0
100
AcDbCircle
 10
3.764664181135842
 20
3.65625
 30
0.0
 40
0.0855
  0
CIRCLE
  5
13D
330
2
100
AcDbEntity
  8
0
100
AcDbCircle
 10
3.983414181135842
 20
4.281250000000004
 30
0.0
 40
0.0855
  0
CIRCLE
  5
13E
330
2
100
AcDbEntity
  8
0
100
AcDbCircle
 10
2.670914181135832
 20
5.40625
 30
0.0
 40
0.0855
  0
LINE
  5
13F
330
2
100
AcDbEntity
  8
0
100
AcDbLine
 10
1.913714181135838
 20
5.534751430086836
 30
0.0
 11
1.913714181135838
 21
5.222251430086836
 31
0.0
  0
ELLIPSE
  5
140
330
2
100
AcDbEntity
  8
0
100
AcDbEllipse
 10
1.913714181135838
 20
5.378501430086836
 30
0.0
 11
0.0
 21
-0.1383375000000022
 31
0.0
210
0.0
220
0.0
230
1.0
 40
0.9035872413481376
 41
0.0
 42
3.141592653589793
  0
ELLIPSE
  5
141
330
2
100
AcDbEntity
  8
0
100
AcDbEllipse
 10
1.913714181135838
 20
5.37850143008685
 30
0.0
 11
0.0
 21
-0.1875000000000142
 31
0.0
210
0.0
220
0.0
230
1.0
 40
0.9999999999999242
 41
0.0
 42
3.141592653589793
  0
LINE
  5
142
330
2
100
AcDbEntity
  8
0
100
AcDbLine
 10
1.913714181135838
 20
5.222251430086836
 30
0.0
 11
1.913714181135838
 21
5.191001430086836
 31
0.0
  0
LINE
  5
143
330
2
100
AcDbEntity
  8
0
100
AcDbLine
 10
1.913714181135838
 20
5.534751430086864
 30
0.0
 11
1.913714181135838
 21
5.566001430086864
 31
0.0
  0
CIRCLE
  5
144
330
2
100
AcDbEntity
  8
0
100
AcDbCircle
 10
3.545914181135842
 20
5.03125
 30
0.0
 40
0.0855
  0
CIRCLE
  5
145
330
2
100
AcDbEntity
  8
0
100
AcDbCircle
 10
3.764664181135842
 20
5.65625
 30
0.0
 40
0.0855
  0
LINE
  5
146
330
2
100
AcDbEntity
  8
0
100
AcDbLine
 10
4.509307451937438
 20
4.876835228390405
 30
0.0
 11
4.270030756640807
 21
4.63755853309377
 31
0.0
  0
LINE
  5
147
330
2
100
AcDbEntity
  8
0
100
AcDbLine
 10
4.233419104289126
 20
4.549170185445451
 30
0.0
 11
4.233419104289133
 21
4.002344077712564
 31
0.0
  0
ARC
  5
148
330
2
100
AcDbEntity
  8
0
100
AcDbCircle
 10
4.358419104289126
 20
4.549170185445451
 30
0.0
 40
0.125
100
AcDbArc
 50
134.9999999999999
 51
180.0
  0
LINE
  5
149
330
2
100
AcDbEntity
  8
0
100
AcDbLine
 10
4.545919104289126
 20
5.611670185445444
 30
0.0
 11
4.545919104289126
 21
4.965223576038724
 31
0.0
  0
ARC
  5
14A
330
2
100
AcDbEntity
  8
0
100
AcDbCircle
 10
4.420919104289126
 20
4.965223576038724
 30
0.0
 40
0.125
100
AcDbArc
 50
314.9999999999997
 51
0.0
  0
CIRCLE
  5
14B
330
2
100
AcDbEntity
  8
0
100
AcDbCircle
 10
4.295914181135842
 20
5.28125
 30
0.0
 40
0.0855
  0
ARC
  5
14C
330
2
100
AcDbEntity
  8
0
100
AcDbCircle
 10
4.420919104289126
 20
5.611670185445444
 30
0.0
 40
0.125
100
AcDbArc
 50
0.0
 51
45.00000000000033
  0
LINE
  5
14D
330
2
100
AcDbEntity
  8
0
100
AcDbLine
 10
4.270030756640807
 20
5.939335228390402
 30
0.0
 11
4.509307451937438
 21
5.700058533093763
 31
0.0
  0
LINE
  5
14F
330
2
100
AcDbEntity
  8
0
100
AcDbLine
 10
-4.545919104289119
 20
7.125
 30
0.0
 11
-1.819964181135838
 21
7.125
 31
0.0
  0
ARC
  5
150
330
2
100
AcDbEntity
  8
0
100
AcDbCircle
 10
-4.358419104289119
 20
6.557093910228108
 30
0.0
 40
0.125
100
AcDbArc
 50
0.0
 51
45.00000000000014
  0
LINE
  5
151
330
2
100
AcDbEntity
  8
0
100
AcDbLine
 10
-4.233419104289119
 20
6.035647402433749
 30
0.0
 11
-4.233419104289116
 21
6.557093910228108
 31
0.0
  0
LINE
  5
152
330
2
100
AcDbEntity
  8
0
100
AcDbLine
 10
-4.509307451937438
 20
6.884758953173066
 30
0.0
 11
-4.270030756640804
 21
6.645482257876427
 31
0.0
  0
LINE
  5
153
330
2
100
AcDbEntity
  8
0
100
AcDbLine
 10
-4.545919104289119
 20
7.125
 30
0.0
 11
-4.545919104289119
 21
6.973147300821385
 31
0.0
  0
ARC
  5
154
330
2
100
AcDbEntity
  8
0
100
AcDbCircle
 10
-4.420919104289119
 20
6.973147300821385
 30
0.0
 40
0.125
100
AcDbArc
 50
180.0
 51
225.0000000000003
  0
CIRCLE
  5
155
330
2
100
AcDbEntity
  8
0
100
AcDbCircle
 10
-3.983414181135835
 20
6.882923724782668
 30
0.0
 40
0.0855
  0
ELLIPSE
  5
156
330
2
100
AcDbEntity
  8
0
100
AcDbEllipse
 10
-1.913714181135838
 20
6.753501430086836
 30
0.0
 11
0.0
 21
-0.1383375000000022
 31
0.0
210
0.0
220
0.0
230
-1.0
 40
0.9035872413481376
 41
0.0
 42
3.141592653589793
  0
ELLIPSE
  5
157
330
2
100
AcDbEntity
  8
0
100
AcDbEllipse
 10
-1.913714181135838
 20
6.75350143008685
 30
0.0
 11
0.0
 21
-0.1875000000000142
 31
0.0
210
0.0
220
0.0
230
-1.0
 40
0.9999999999999242
 41
0.0
 42
3.141592653589793
  0
LINE
  5
158
330
2
100
AcDbEntity
  8
0
100
AcDbLine
 10
-1.913714181135838
 20
6.909751430086836
 30
0.0
 11
-1.913714181135838
 21
6.597251430086836
 31
0.0
  0
CIRCLE
  5
159
330
2
100
AcDbEntity
  8
0
100
AcDbCircle
 10
-2.545914181135832
 20
6.281250000000007
 30
0.0
 40
0.0855
  0
LINE
  5
15A
330
2
100
AcDbEntity
  8
0
100
AcDbLine
 10
-1.913714181135838
 20
6.597251430086836
 30
0.0
 11
-1.913714181135838
 21
6.566001430086836
 31
0.0
  0
LINE
  5
15B
330
2
100
AcDbEntity
  8
0
100
AcDbLine
 10
-1.913714181135838
 20
6.909751430086864
 30
0.0
 11
-1.913714181135838
 21
6.941001430086864
 31
0.0
  0
LINE
  5
168
330
2
100
AcDbEntity
  8
0
100
AcDbLine
 10
1.819964181135838
 20
7.124999999999996
 30
0.0
 11
4.545919104289126
 21
7.124999999999996
 31
0.0
  0
LINE
  5
169
330
2
100
AcDbEntity
  8
0
100
AcDbLine
 10
1.913714181135838
 20
6.534751430086836
 30
0.0
 11
1.913714181135838
 21
6.222251430086836
 31
0.0
  0
LINE
  5
16A
330
2
100
AcDbEntity
  8
0
100
AcDbLine
 10
1.913714181135838
 20
6.222251430086836
 30
0.0
 11
1.913714181135838
 21
6.191001430086836
 31
0.0
  0
LINE
  5
16B
330
2
100
AcDbEntity
  8
0
100
AcDbLine
 10
1.913714181135838
 20
6.534751430086864
 30
0.0
 11
1.913714181135838
 21
6.566001430086864
 31
0.0
  0
ELLIPSE
  5
16C
330
2
100
AcDbEntity
  8
0
100
AcDbEllipse
 10
1.913714181135838
 20
6.37850143008685
 30
0.0
 11
0.0
 21
-0.1875000000000142
 31
0.0
210
0.0
220
0.0
230
1.0
 40
0.9999999999999242
 41
0.0
 42
3.141592653589793
  0
ELLIPSE
  5
16D
330
2
100
AcDbEntity
  8
0
100
AcDbEllipse
 10
1.913714181135838
 20
6.378501430086836
 30
0.0
 11
0.0
 21
-0.1383375000000022
 31
0.0
210
0.0
220
0.0
230
1.0
 40
0.9035872413481376
 41
0.0
 42
3.141592653589793
  0
CIRCLE
  5
16E
330
2
100
AcDbEntity
  8
0
100
AcDbCircle
 10
2.545914181135832
 20
6.281250000000007
 30
0.0
 40
0.0855
  0
CIRCLE
  5
16F
330
2
100
AcDbEntity
  8
0
100
AcDbCircle
 10
3.983414181135835
 20
6.875000000000007
 30
0.0
 40
0.0855
  0
ARC
  5
170
330
2
100
AcDbEntity
  8
0
100
AcDbCircle
 10
4.358419104289126
 20
6.549170185445451
 30
0.0
 40
0.125
100
AcDbArc
 50
134.9999999999999
 51
180.0
  0
LINE
  5
171
330
2
100
AcDbEntity
  8
0
100
AcDbLine
 10
4.233419104289119
 20
6.027723677651093
 30
0.0
 11
4.233419104289119
 21
6.531249999999996
 31
0.0
  0
LINE
  5
172
330
2
100
AcDbEntity
  8
0
100
AcDbLine
 10
4.233419104289126
 20
6.549170185445451
 30
0.0
 11
4.233419104289126
 21
6.027723576038721
 31
0.0
  0
LINE
  5
173
330
2
100
AcDbEntity
  8
0
100
AcDbLine
 10
4.545919104289126
 20
7.124999999999996
 30
0.0
 11
4.545919104289126
 21
6.965223576038724
 31
0.0
  0
ARC
  5
174
330
2
100
AcDbEntity
  8
0
100
AcDbCircle
 10
4.420919104289126
 20
6.965223576038724
 30
0.0
 40
0.125
100
AcDbArc
 50
314.9999999999997
 51
0.0
  0
LINE
  5
175
330
2
100
AcDbEntity
  8
0
100
AcDbLine
 10
4.509307451937438
 20
6.876835228390405
 30
0.0
 11
4.270030756640807
 21
6.63755853309377
 31
0.0
  0
ENDSEC
  0
SECTION
  2
OBJECTS
  0
DICTIONARY
  5
9
330
0
100
AcDbDictionary
281
     1
  3
ACAD_COLOR
350
242
  3
ACAD_GROUP
350
23
  3
ACAD_LAYOUT
350
D
  3
ACAD_MATERIAL
350
241
  3
ACAD_MLINESTYLE
350
24
  3
ACAD_PLOTSETTINGS
350
25
  3
ACAD_PLOTSTYLENAME
350
8
  3
ACAD_TABLESTYLE
350
243
  3
ACDBHEADERROUNDTRIPXREC
350
26D
  3
AcDbVariableDictionary
350
23D
  0
DICTIONARY
  5
242
102
{ACAD_REACTORS
330
9
102
}
330
9
100
AcDbDictionary
281
     1
  0
DICTIONARY
  5
23
102
{ACAD_REACTORS
330
9
102
}
330
9
100
AcDbDictionary
281
     1
  0
DICTIONARY
  5
D
102
{ACAD_REACTORS
330
9
102
}
330
9
100
AcDbDictionary
281
     1
  3
Layout1
350
13
  3
Model
350
C
  0
DICTIONARY
  5
241
102
{ACAD_REACTORS
330
9
102
}
330
9
100
AcDbDictionary
281
     1
  0
DICTIONARY
  5
24
102
{ACAD_REACTORS
330
9
102
}
330
9
100
AcDbDictionary
281
     1
  3
STANDARD
350
26
  0
DICTIONARY
  5
25
102
{ACAD_REACTORS
330
9
102
}
330
9
100
AcDbDictionary
281
     1
  0
ACDBDICTIONARYWDFLT
  5
8
102
{ACAD_REACTORS
330
9
102
}
330
9
100
AcDbDictionary
281
     1
  3
Normal
350
7
100
AcDbDictionaryWithDefault
340
7
  0
DICTIONARY
  5
243
102
{ACAD_REACTORS
330
9
102
}
330
9
100
AcDbDictionary
281
     1
  3
Standard
350
244
  0
DICTIONARY
  5
26D
102
{ACAD_REACTORS
330
9
102
}
330
9
100
AcDbDictionary
281
     1
  3
COLORDICT
350
26E
  3
MATERIALDICT
350
26F
  0
DICTIONARY
  5
23D
102
{ACAD_REACTORS
330
9
102
}
330
9
100
AcDbDictionary
281
     1
  3
CTABLESTYLE
350
25A
  3
HIDETEXT
350
26C
  0
LAYOUT
  5
13
102
{ACAD_REACTORS
330
D
102
}
102
{ACAD_XDICTIONARY
360
270
102
}
330
D
100
AcDbPlotSettings
  1

  2
HP LaserJet 2100 Series PS
  4

  6

 40
0.0
 41
0.0
 42
0.0
 43
0.0
 44
0.0
 45
0.0
 46
0.0
 47
0.0
 48
0.0
 49
0.0
140
0.0
141
0.0
142
1.0
143
1.0
 70
   688
 72
     0
 73
     0
 74
     5
  7

 75
    16
147
1.0
148
0.0
149
0.0
100
AcDbLayout
  1
Layout1
 70
     0
 71
     1
 10
0.0
 20
0.0
 11
12.0
 21
9.0
 12
0.0
 22
0.0
 32
0.0
 14
1.000000000000000E+20
 24
1.000000000000000E+20
 34
1.000000000000000E+20
 15
-1.000000000000000E+20
 25
-1.000000000000000E+20
 35
-1.000000000000000E+20
146
0.0
 13
0.0
 23
0.0
 33
0.0
 16
1.0
 26
0.0
 36
0.0
 17
0.0
 27
1.0
 37
0.0
 76
     0
330
E
  0
LAYOUT
  5
C
102
{ACAD_REACTORS
330
D
102
}
102
{ACAD_XDICTIONARY
360
272
102
}
330
D
100
AcDbPlotSettings
  1

  2
HP LaserJet 2100 Series PS
  4
Letter
  6

 40
5.365749835968018
 41
5.408084392547607
 42
5.4080810546875
 43
5.365753173828125
 44
215.8999938964844
 45
279.3999938964844
 46
0.0
 47
0.0
 48
0.0
 49
0.0
140
0.0
141
0.0
142
1.0
143
3.971318409846261
 70
 11952
 72
     0
 73
     1
 74
     2
  7

 75
     0
147
0.2518055458662435
148
0.0
149
0.0
100
AcDbLayout
  1
Model
 70
     1
 71
     0
 10
0.0
 20
0.0
 11
12.0
 21
9.0
 12
0.0
 22
0.0
 32
0.0
 14
0.0
 24
0.0
 34
0.0
 15
0.0
 25
0.0
 35
0.0
146
0.0
 13
0.0
 23
0.0
 33
0.0
 16
1.0
 26
0.0
 36
0.0
 17
0.0
 27
1.0
 37
0.0
 76
     0
330
2
  0
MLINESTYLE
  5
26
102
{ACAD_REACTORS
330
24
102
}
330
24
100
AcDbMlineStyle
  2
STANDARD
 70
     0
  3

 62
   256
 51
90.0
 52
90.0
 71
     2
 49
0.5
 62
   256
  6
BYLAYER
 49
-0.5
 62
   256
  6
BYLAYER
  0
ACDBPLACEHOLDER
  5
7
102
{ACAD_REACTORS
330
8
102
}
330
8
  0
ACAD_PROXY_OBJECT
  5
244
102
{ACAD_REACTORS
330
243
102
}
330
243
100
AcDbProxyObject
 90
      499
 91
      537
 95
   983063
 70
     0
 93
     1841
310
4214DD185B99185C9928B81E85EB51B8AE3F2E07A17AD46E2B8FC02B5E8DC0F42B1CFD028000000C1008070000C3001FDFF8000000C1003FBFF000000182007F7FE00000030400FEFFC00000060801FDFF8000000C1003FBFF00000018200000000000000681FA0B0000001820100E000186003FBFF000000182007F7FE000
310
00030400FEFFC00000060801FDFF8000000C1003FBFF000000182007F7FE000000304000AD7A3703D0AC73F4160000003040201C00030C007F7FE00000030400FEFFC00000060801FDFF8000000C1003FBFF000000182007F7FE00000030400FEFFC000000608000
340
16
340
16
340
16
 94
        0
  0
XRECORD
  5
26E
102
{ACAD_REACTORS
330
26D
102
}
330
26D
100
AcDbXrecord
340
242
  0
XRECORD
  5
26F
102
{ACAD_REACTORS
330
26D
102
}
330
26D
100
AcDbXrecord
340
241
  0
DICTIONARYVAR
  5
25A
102
{ACAD_REACTORS
330
23D
102
}
330
23D
100
DictionaryVariables
280
     0
  1
STANDARD
  0
DICTIONARYVAR
  5
26C
102
{ACAD_REACTORS
330
23D
102
}
330
23D
100
DictionaryVariables
280
     0
  1
0
  0
DICTIONARY
  5
270
330
13
100
AcDbDictionary
280
     1
281
     1
  3
ACAD_XREC_ROUNDTRIP
360
271
  0
DICTIONARY
  5
272
330
C
100
AcDbDictionary
280
     1
281
     1
  3
ACAD_XREC_ROUNDTRIP
360
273
  0
XRECORD
  5
271
102
{ACAD_REACTORS
330
270
102
}
330
270
100
AcDbXrecord
102
SHADEPLOT
 70
     0
102
SHADEPLOTRESLEVEL
 70
     2
102
SHADEPLOTCUSTOMDPI
 70
   300
  0
XRECORD
  5
273
102
{ACAD_REACTORS
330
272
102
}
330
272
100
AcDbXrecord
102
SHADEPLOT
 70
     0
102
SHADEPLOTRESLEVEL
 70
     2
102
SHADEPLOTCUSTOMDPI
 70
   300
  0
ENDSEC
  0
EOF
