  0
SECTION
  2
HEADER
  9
$ACADVER
  1
AC1015
  9
$ACADMAINTVER
 70
     6
  9
$DWGCODEPAGE
  3
ANSI_1252
  9
$INSBASE
 10
0.0
 20
0.0
 30
0.0
  9
$EXTMIN
 10
-12.8090514307947
 20
-0.0400389880408056
 30
-0.0015258207003583
  9
$EXTMAX
 10
12.80969244661938
 20
18.35595708987205
 30
0.0000000349246037
  9
$LIMMIN
 10
0.0
 20
0.0
  9
$LIMMAX
 10
42.0
 20
32.0
  9
$ORTHOMODE
 70
     1
  9
$REGENMODE
 70
     1
  9
$FILLMODE
 70
     1
  9
$QTEXTMODE
 70
     0
  9
$MIRRTEXT
 70
     0
  9
$LTSCALE
 40
1.0
  9
$ATTMODE
 70
     1
  9
$TEXTSIZE
 40
0.36
  9
$TRACEWID
 40
0.05
  9
$TEXTSTYLE
  7
STANDARD
  9
$CLAYER
  8
0
  9
$CELTYPE
  6
HIDDEN
  9
$CECOLOR
 62
   256
  9
$CELTSCALE
 40
1.0
  9
$DISPSILH
 70
     0
  9
$DIMSCALE
 40
4.0
  9
$DIMASZ
 40
0.125
  9
$DIMEXO
 40
0.062
  9
$DIMDLI
 40
0.375
  9
$DIMRND
 40
0.0
  9
$DIMDLE
 40
0.0
  9
$DIMEXE
 40
0.08
  9
$DIMTP
 40
0.0
  9
$DIMTM
 40
0.0
  9
$DIMTXT
 40
0.09
  9
$DIMCEN
 40
-0.03125
  9
$DIMTSZ
 40
0.0
  9
$DIMTOL
 70
     0
  9
$DIMLIM
 70
     0
  9
$DIMTIH
 70
     1
  9
$DIMTOH
 70
     1
  9
$DIMSE1
 70
     0
  9
$DIMSE2
 70
     0
  9
$DIMTAD
 70
     0
  9
$DIMZIN
 70
     0
  9
$DIMBLK
  1

  9
$DIMASO
 70
     0
  9
$DIMSHO
 70
     0
  9
$DIMPOST
  1

  9
$DIMAPOST
  1

  9
$DIMALT
 70
     0
  9
$DIMALTD
 70
     2
  9
$DIMALTF
 40
25.4
  9
$DIMLFAC
 40
1.0
  9
$DIMTOFL
 70
     0
  9
$DIMTVP
 40
0.0
  9
$DIMTIX
 70
     0
  9
$DIMSOXD
 70
     0
  9
$DIMSAH
 70
     0
  9
$DIMBLK1
  1

  9
$DIMBLK2
  1

  9
$DIMSTYLE
  2
STANDARD
  9
$DIMCLRD
 70
     0
  9
$DIMCLRE
 70
     0
  9
$DIMCLRT
 70
     0
  9
$DIMTFAC
 40
1.0
  9
$DIMGAP
 40
0.09
  9
$DIMJUST
 70
     0
  9
$DIMSD1
 70
     0
  9
$DIMSD2
 70
     0
  9
$DIMTOLJ
 70
     1
  9
$DIMTZIN
 70
     0
  9
$DIMALTZ
 70
     0
  9
$DIMALTTZ
 70
     0
  9
$DIMUPT
 70
     0
  9
$DIMDEC
 70
     5
  9
$DIMTDEC
 70
     4
  9
$DIMALTU
 70
     2
  9
$DIMALTTD
 70
     2
  9
$DIMTXSTY
  7
STANDARD
  9
$DIMAUNIT
 70
     0
  9
$DIMADEC
 70
     0
  9
$DIMALTRND
 40
0.0
  9
$DIMAZIN
 70
     0
  9
$DIMDSEP
 70
    46
  9
$DIMATFIT
 70
     3
  9
$DIMFRAC
 70
     2
  9
$DIMLDRBLK
  1

  9
$DIMLUNIT
 70
     5
  9
$DIMLWD
 70
    -2
  9
$DIMLWE
 70
    -2
  9
$DIMTMOVE
 70
     2
  9
$LUNITS
 70
     2
  9
$LUPREC
 70
     4
  9
$SKETCHINC
 40
0.1
  9
$FILLETRAD
 40
0.0
  9
$AUNITS
 70
     0
  9
$AUPREC
 70
     0
  9
$MENU
  1
acad
  9
$ELEVATION
 40
0.0
  9
$PELEVATION
 40
0.0
  9
$THICKNESS
 40
0.0
  9
$LIMCHECK
 70
     0
  9
$CHAMFERA
 40
0.0
  9
$CHAMFERB
 40
0.0
  9
$CHAMFERC
 40
0.0
  9
$CHAMFERD
 40
0.0
  9
$SKPOLY
 70
     0
  9
$TDCREATE
 40
2450514.919589815
  9
$TDUCREATE
 40
2450515.252923148
  9
$TDUPDATE
 40
2454165.951770556
  9
$TDUUPDATE
 40
2454166.285103889
  9
$TDINDWG
 40
0.1755206366
  9
$TDUSRTIMER
 40
0.1755206366
  9
$USRTIMER
 70
     1
  9
$ANGBASE
 50
0.0
  9
$ANGDIR
 70
     0
  9
$PDMODE
 70
     0
  9
$PDSIZE
 40
0.0
  9
$PLINEWID
 40
0.0
  9
$SPLFRAME
 70
     0
  9
$SPLINETYPE
 70
     6
  9
$SPLINESEGS
 70
     8
  9
$HANDSEED
  5
274
  9
$SURFTAB1
 70
     6
  9
$SURFTAB2
 70
     6
  9
$SURFTYPE
 70
     6
  9
$SURFU
 70
     6
  9
$SURFV
 70
     6
  9
$UCSBASE
  2

  9
$UCSNAME
  2

  9
$UCSORG
 10
0.0
 20
0.0
 30
0.0
  9
$UCSXDIR
 10
1.0
 20
0.0
 30
0.0
  9
$UCSYDIR
 10
0.0
 20
1.0
 30
0.0
  9
$UCSORTHOREF
  2

  9
$UCSORTHOVIEW
 70
     0
  9
$UCSORGTOP
 10
0.0
 20
0.0
 30
0.0
  9
$UCSORGBOTTOM
 10
0.0
 20
0.0
 30
0.0
  9
$UCSORGLEFT
 10
0.0
 20
0.0
 30
0.0
  9
$UCSORGRIGHT
 10
0.0
 20
0.0
 30
0.0
  9
$UCSORGFRONT
 10
0.0
 20
0.0
 30
0.0
  9
$UCSORGBACK
 10
0.0
 20
0.0
 30
0.0
  9
$PUCSBASE
  2

  9
$PUCSNAME
  2

  9
$PUCSORG
 10
0.0
 20
0.0
 30
0.0
  9
$PUCSXDIR
 10
1.0
 20
0.0
 30
0.0
  9
$PUCSYDIR
 10
0.0
 20
1.0
 30
0.0
  9
$PUCSORTHOREF
  2

  9
$PUCSORTHOVIEW
 70
     0
  9
$PUCSORGTOP
 10
0.0
 20
0.0
 30
0.0
  9
$PUCSORGBOTTOM
 10
0.0
 20
0.0
 30
0.0
  9
$PUCSORGLEFT
 10
0.0
 20
0.0
 30
0.0
  9
$PUCSORGRIGHT
 10
0.0
 20
0.0
 30
0.0
  9
$PUCSORGFRONT
 10
0.0
 20
0.0
 30
0.0
  9
$PUCSORGBACK
 10
0.0
 20
0.0
 30
0.0
  9
$USERI1
 70
     0
  9
$USERI2
 70
     0
  9
$USERI3
 70
     0
  9
$USERI4
 70
     0
  9
$USERI5
 70
     0
  9
$USERR1
 40
0.0
  9
$USERR2
 40
0.0
  9
$USERR3
 40
0.0
  9
$USERR4
 40
0.0
  9
$USERR5
 40
0.0
  9
$WORLDVIEW
 70
     1
  9
$SHADEDGE
 70
     3
  9
$SHADEDIF
 70
    70
  9
$TILEMODE
 70
     1
  9
$MAXACTVP
 70
    16
  9
$PINSBASE
 10
0.0
 20
0.0
 30
0.0
  9
$PLIMCHECK
 70
     0
  9
$PEXTMIN
 10
1.000000000000000E+20
 20
1.000000000000000E+20
 30
1.000000000000000E+20
  9
$PEXTMAX
 10
-1.000000000000000E+20
 20
-1.000000000000000E+20
 30
-1.000000000000000E+20
  9
$PLIMMIN
 10
0.0
 20
0.0
  9
$PLIMMAX
 10
12.0
 20
9.0
  9
$UNITMODE
 70
     0
  9
$VISRETAIN
 70
     0
  9
$PLINEGEN
 70
     0
  9
$PSLTSCALE
 70
     0
  9
$TREEDEPTH
 70
  3020
  9
$CMLSTYLE
  2
STANDARD
  9
$CMLJUST
 70
     0
  9
$CMLSCALE
 40
1.0
  9
$PROXYGRAPHICS
 70
     1
  9
$MEASUREMENT
 70
     0
  9
$CELWEIGHT
370
    -1
  9
$ENDCAPS
280
     0
  9
$JOINSTYLE
280
     0
  9
$LWDISPLAY
290
     0
  9
$INSUNITS
 70
     0
  9
$HYPERLINKBASE
  1

  9
$STYLESHEET
  1

  9
$XEDIT
290
     1
  9
$CEPSNTYPE
380
     0
  9
$PSTYLEMODE
290
     1
  9
$FINGERPRINTGUID
  2
{4A389431-8CC7-11D5-BE3F-00508B5FCD51}
  9
$VERSIONGUID
  2
{9BE39607-C9B0-444B-9608-E3344A199566}
  9
$EXTNAMES
290
     1
  9
$PSVPSCALE
 40
0.0
  9
$OLESTARTUP
290
     0
  0
ENDSEC
  0
SECTION
  2
CLASSES
  0
CLASS
  1
DICTIONARYVAR
  2
AcDbDictionaryVar
  3
AutoCAD 2000
 90
        0
280
     0
281
     0
  0
CLASS
  1
LWPOLYLINE
  2
AcDbPolyline
  3
AutoCAD 2000
 90
        0
280
     0
281
     1
  0
CLASS
  1
ACDBDICTIONARYWDFLT
  2
AcDbDictionaryWithDefault
  3
AutoCAD 2000
 90
        0
280
     0
281
     0
  0
CLASS
  1
ACDBPLACEHOLDER
  2
AcDbPlaceHolder
  3
ObjectDBX Classes
 90
        0
280
     0
281
     0
  0
CLASS
  1
LAYOUT
  2
AcDbLayout
  3
ObjectDBX Classes
 90
        0
280
     0
281
     0
  0
CLASS
  1
LONG_TRANSACTION
  2
AcDbLongTransaction
  3
ObjectDBX Classes
 90
   -65536
280
     1
281
     0
  0
CLASS
  1
LWPOLYLINE
  2
AcDbPolyline
  3
AutoCAD 2000
 90
        0
280
     0
281
     1
  0
CLASS
  1
HATCH
  2
AcDbHatch
  3
AutoCAD 2000
 90
        0
280
     0
281
     1
  0
CLASS
  1
XRECORD
  2
AcDbXrecord
  3
AutoCAD 2000
 90
        0
280
     0
281
     0
  0
CLASS
  1
LONG_TRANSACTION
  2
AcDbLongTransaction
  3
ObjectDBX Classes
 90
   -65536
280
     1
281
     0
  0
CLASS
  1
LWPOLYLINE
  2
AcDbPolyline
  3
AutoCAD 2000
 90
        0
280
     0
281
     1
  0
CLASS
  1
HATCH
  2
AcDbHatch
  3
AutoCAD 2000
 90
        0
280
     0
281
     1
  0
CLASS
  1
XRECORD
  2
AcDbXrecord
  3
AutoCAD 2000
 90
        0
280
     0
281
     0
  0
CLASS
  1
LONG_TRANSACTION
  2
AcDbLongTransaction
  3
ObjectDBX Classes
 90
   -65536
280
     1
281
     0
  0
CLASS
  1
LWPOLYLINE
  2
AcDbPolyline
  3
AutoCAD 2000
 90
        0
280
     0
281
     1
  0
CLASS
  1
HATCH
  2
AcDbHatch
  3
AutoCAD 2000
 90
        0
280
     0
281
     1
  0
CLASS
  1
XRECORD
  2
AcDbXrecord
  3
AutoCAD 2000
 90
        0
280
     0
281
     0
  0
CLASS
  1
LONG_TRANSACTION
  2
AcDbLongTransaction
  3
ObjectDBX Classes
 90
   -65536
280
     1
281
     0
  0
CLASS
  1
LWPOLYLINE
  2
AcDbPolyline
  3
AutoCAD 2000
 90
        0
280
     0
281
     1
  0
CLASS
  1
HATCH
  2
AcDbHatch
  3
AutoCAD 2000
 90
        0
280
     0
281
     1
  0
CLASS
  1
XRECORD
  2
AcDbXrecord
  3
AutoCAD 2000
 90
        0
280
     0
281
     0
  0
CLASS
  1
LONG_TRANSACTION
  2
AcDbLongTransaction
  3
ObjectDBX Classes
 90
   -65536
280
     1
281
     0
  0
CLASS
  1
LWPOLYLINE
  2
AcDbPolyline
  3
AutoCAD 2000
 90
        0
280
     0
281
     1
  0
CLASS
  1
HATCH
  2
AcDbHatch
  3
AutoCAD 2000
 90
        0
280
     0
281
     1
  0
CLASS
  1
XRECORD
  2
AcDbXrecord
  3
AutoCAD 2000
 90
        0
280
     0
281
     0
  0
CLASS
  1
LONG_TRANSACTION
  2
AcDbLongTransaction
  3
ObjectDBX Classes
 90
   -65536
280
     1
281
     0
  0
CLASS
  1
LWPOLYLINE
  2
AcDbPolyline
  3
AutoCAD 2000
 90
        0
280
     0
281
     1
  0
CLASS
  1
HATCH
  2
AcDbHatch
  3
AutoCAD 2000
 90
        0
280
     0
281
     1
  0
CLASS
  1
XRECORD
  2
AcDbXrecord
  3
AutoCAD 2000
 90
        0
280
     0
281
     0
  0
CLASS
  1
LONG_TRANSACTION
  2
AcDbLongTransaction
  3
ObjectDBX Classes
 90
   -65536
280
     1
281
     0
  0
CLASS
  1
LWPOLYLINE
  2
AcDbPolyline
  3
AutoCAD 2000
 90
        0
280
     0
281
     1
  0
CLASS
  1
HATCH
  2
AcDbHatch
  3
AutoCAD 2000
 90
        0
280
     0
281
     1
  0
CLASS
  1
XRECORD
  2
AcDbXrecord
  3
AutoCAD 2000
 90
        0
280
     0
281
     0
  0
CLASS
  1
LONG_TRANSACTION
  2
AcDbLongTransaction
  3
ObjectDBX Classes
 90
   -65536
280
     1
281
     0
  0
CLASS
  1
LWPOLYLINE
  2
AcDbPolyline
  3
AutoCAD 2000
 90
        0
280
     0
281
     1
  0
CLASS
  1
HATCH
  2
AcDbHatch
  3
AutoCAD 2000
 90
        0
280
     0
281
     1
  0
CLASS
  1
XRECORD
  2
AcDbXrecord
  3
AutoCAD 2000
 90
        0
280
     0
281
     0
  0
CLASS
  1
TABLESTYLE
  2
AcDbTableStyle
  3
ObjectDBX Classes
 90
     2047
280
     1
281
     0
  0
ENDSEC
  0
SECTION
  2
TABLES
  0
TABLE
  2
VPORT
  5
1D
330
0
100
AcDbSymbolTable
 70
     5
  0
VPORT
  5
264
330
1D
100
AcDbSymbolTableRecord
100
AcDbViewportTableRecord
  2
*Active
 70
     0
 10
0.0
 20
0.0
 11
1.0
 21
1.0
 12
10.40534558823883
 22
11.18160718104159
 13
0.0
 23
0.0
 14
0.03125
 24
0.03125
 15
0.25
 25
0.25
 16
0.0
 26
0.0
 36
1.0
 17
0.0
 27
0.0
 37
0.0
 40
32.43970679953256
 41
1.814583333333333
 42
50.0
 43
0.0
 44
0.0
 50
0.0
 51
0.0
 71
     0
 72
   100
 73
     1
 74
     0
 75
     0
 76
     0
 77
     0
 78
     0
281
     0
 65
     1
110
0.0
120
0.0
130
0.0
111
1.0
121
0.0
131
0.0
112
0.0
122
1.0
132
0.0
 79
     0
146
0.0
  0
ENDTAB
  0
TABLE
  2
LTYPE
  5
18
330
0
100
AcDbSymbolTable
 70
     2
  0
LTYPE
  5
19
330
18
100
AcDbSymbolTableRecord
100
AcDbLinetypeTableRecord
  2
BYBLOCK
 70
     0
  3

 72
    65
 73
     0
 40
0.0
  0
LTYPE
  5
1A
330
18
100
AcDbSymbolTableRecord
100
AcDbLinetypeTableRecord
  2
BYLAYER
 70
     0
  3

 72
    65
 73
     0
 40
0.0
  0
LTYPE
  5
A
330
18
100
AcDbSymbolTableRecord
100
AcDbLinetypeTableRecord
  2
CONTINUOUS
 70
     0
  3
Solid line
 72
    65
 73
     0
 40
0.0
  0
LTYPE
  5
249
330
18
100
AcDbSymbolTableRecord
100
AcDbLinetypeTableRecord
  2
HIDDEN
 70
     0
  3
Hidden __ __ __ __ __ __ __ __ __ __ __ __ __ _
 72
    65
 73
     2
 40
0.375
 49
0.25
 74
     0
 49
-0.125
 74
     0
  0
ENDTAB
  0
TABLE
  2
LAYER
  5
14
330
0
100
AcDbSymbolTable
 70
     1
  0
LAYER
  5
6
330
14
100
AcDbSymbolTableRecord
100
AcDbLayerTableRecord
  2
0
 70
     0
 62
     7
  6
CONTINUOUS
370
    -3
390
7
  0
ENDTAB
  0
TABLE
  2
STYLE
  5
15
330
0
100
AcDbSymbolTable
 70
     2
  0
STYLE
  5
16
330
15
100
AcDbSymbolTableRecord
100
AcDbTextStyleTableRecord
  2
STANDARD
 70
     0
 40
0.0
 41
1.0
 50
0.0
 71
     0
 42
0.36
  3
TXT
  4

  0
STYLE
  5
248
330
15
100
AcDbSymbolTableRecord
100
AcDbTextStyleTableRecord
  2

 70
     1
 40
0.0
 41
1.0
 50
0.0
 71
     0
 42
0.36
  3
ltypeshp.shx
  4

  0
ENDTAB
  0
TABLE
  2
VIEW
  5
1B
330
0
100
AcDbSymbolTable
 70
     0
  0
ENDTAB
  0
TABLE
  2
UCS
  5
1C
330
0
100
AcDbSymbolTable
 70
     0
  0
ENDTAB
  0
TABLE
  2
APPID
  5
1F
330
0
100
AcDbSymbolTable
 70
     1
  0
APPID
  5
20
330
1F
100
AcDbSymbolTableRecord
100
AcDbRegAppTableRecord
  2
ACAD
 70
     0
  0
ENDTAB
  0
TABLE
  2
DIMSTYLE
  5
21
330
0
100
AcDbSymbolTable
 70
     1
100
AcDbDimStyleTable
  0
DIMSTYLE
105
27
330
21
100
AcDbSymbolTableRecord
100
AcDbDimStyleTableRecord
  2
STANDARD
 70
     0
  3

  4

340
16
  0
ENDTAB
  0
TABLE
  2
BLOCK_RECORD
  5
1
330
0
100
AcDbSymbolTable
 70
     0
  0
BLOCK_RECORD
  5
2
330
1
100
AcDbSymbolTableRecord
100
AcDbBlockTableRecord
  2
*MODEL_SPACE
340
C
  0
BLOCK_RECORD
  5
E
330
1
100
AcDbSymbolTableRecord
100
AcDbBlockTableRecord
  2
*PAPER_SPACE
340
13
  0
ENDTAB
  0
ENDSEC
  0
SECTION
  2
BLOCKS
  0
BLOCK
  5
5
330
2
100
AcDbEntity
  8
0
100
AcDbBlockBegin
  2
*MODEL_SPACE
 70
     0
 10
0.0
 20
0.0
 30
0.0
  3
*MODEL_SPACE
  1

  4

  0
ENDBLK
  5
B
330
2
100
AcDbEntity
  8
0
100
AcDbBlockEnd
  0
BLOCK
  5
11
330
E
100
AcDbEntity
 67
     1
  8
0
100
AcDbBlockBegin
  2
*PAPER_SPACE
 70
     0
 10
0.0
 20
0.0
 30
0.0
  3
*PAPER_SPACE
  1

  4

  0
ENDBLK
  5
12
330
E
100
AcDbEntity
 67
     1
  8
0
100
AcDbBlockEnd
  0
ENDSEC
  0
SECTION
  2
ENTITIES
  0
ARC
  5
2C
330
2
100
AcDbEntity
  8
0
100
AcDbCircle
 10
1.330632577138012
 20
6.027723576038721
 30
0.0
 40
0.125
100
AcDbArc
 50
314.9999999999999
 51
0.000000000000007
  0
LINE
  5
2D
330
2
100
AcDbEntity
  8
0
100
AcDbLine
 10
-0.2246624997087068
 20
0.1729746157956456
 30
0.0
 11
-0.2246624997087068
 21
7.125
 31
0.0
  0
LINE
  5
2E
330
2
100
AcDbEntity
  8
0
100
AcDbLine
 10
-0.3184124997087068
 20
0.2499976788802716
 30
0.0
 11
-0.3184124997087068
 21
7.125
 31
0.0
  0
LINE
  5
2F
330
2
100
AcDbEntity
  8
0
100
AcDbLine
 10
2.407535538281721
 20
1.71154391959832
 30
0.0
 11
3.735962663027891
 21
0.3831167948521639
 31
0.0
  0
LINE
  5
30
330
2
100
AcDbEntity
  8
0
100
AcDbLine
 10
-0.0768103434324061
 20
0.0
 30
0.0
 11
3.941042834709798
 21
-0.0000000000000018
 31
0.0
  0
ARC
  5
31
330
2
100
AcDbEntity
  8
0
100
AcDbCircle
 10
-0.9013703211029522
 20
-0.555126145668563
 30
0.0
 40
0.9940141821829845
100
AcDbArc
 50
33.94998761713367
 51
54.09321247863786
  0
ARC
  5
32
330
2
100
AcDbEntity
  8
0
100
AcDbCircle
 10
0.6977624817273878
 20
0.7584834763852317
 30
0.0
 40
0.0320532506230773
100
AcDbArc
 50
236.4891770443175
 51
269.9999999999873
  0
ARC
  5
33
330
2
100
AcDbEntity
  8
0
100
AcDbCircle
 10
0.7128375002911724
 20
0.7812499999998899
 30
0.0
 40
0.0593583926698646
100
AcDbArc
 50
212.028106666621
 51
236.4891770443426
  0
ARC
  5
34
330
2
100
AcDbEntity
  8
0
100
AcDbCircle
 10
0.7368409258148532
 20
0.796265382621673
 30
0.0
 40
0.0876713959042334
100
AcDbArc
 50
194.5265478168138
 51
212.0281066666247
  0
ARC
  5
35
330
2
100
AcDbEntity
  8
0
100
AcDbCircle
 10
0.774864420990987
 20
0.8061177257621317
 30
0.0
 40
0.126950586969819
100
AcDbArc
 50
179.9999999999872
 51
194.5265478167845
  0
ARC
  5
36
330
2
100
AcDbEntity
  8
0
100
AcDbCircle
 10
0.7748644209909585
 20
0.806117725762185
 30
0.0
 40
0.1269505869697909
100
AcDbArc
 50
165.4734521832139
 51
180.0000000000113
  0
ARC
  5
37
330
2
100
AcDbEntity
  8
0
100
AcDbCircle
 10
0.7368409258148461
 20
0.8159700689026437
 30
0.0
 40
0.0876713959042252
100
AcDbArc
 50
147.9718933333749
 51
165.4734521831872
  0
ARC
  5
38
330
2
100
AcDbEntity
  8
0
100
AcDbCircle
 10
0.7128375002911724
 20
0.8309854515244233
 30
0.0
 40
0.0593583926698636
100
AcDbArc
 50
123.5108229556574
 51
147.971893333379
  0
ARC
  5
39
330
2
100
AcDbEntity
  8
0
100
AcDbCircle
 10
0.6977624817273878
 20
0.8537519751390814
 30
0.0
 40
0.0320532506230772
100
AcDbArc
 50
90.00000000001269
 51
123.5108229556825
  0
ARC
  5
3A
330
2
100
AcDbEntity
  8
0
100
AcDbCircle
 10
0.6977624817273949
 20
0.954278525999321
 30
0.0
 40
0.2864983002371666
100
AcDbArc
 50
253.9689634222553
 51
269.9999999999972
  0
ARC
  5
3B
330
2
100
AcDbEntity
  8
0
100
AcDbCircle
 10
0.6768204976408327
 20
0.881394178062223
 30
0.0
 40
0.2106649640867779
100
AcDbArc
 50
235.2517244545713
 51
253.9689634222627
  0
ARC
  5
3C
330
2
100
AcDbEntity
  8
0
100
AcDbCircle
 10
0.6448242408711593
 20
0.8352688003581719
 30
0.0
 40
0.1545284259354786
100
AcDbArc
 50
210.84247098871
 51
235.2517244545641
  0
ARC
  5
3D
330
2
100
AcDbEntity
  8
0
100
AcDbCircle
 10
0.5960051719813748
 20
0.8061177257621601
 30
0.0
 40
0.0976681881821263
100
AcDbArc
 50
180.0000000000042
 51
210.8424709887161
  0
ARC
  5
3E
330
2
100
AcDbEntity
  8
0
100
AcDbCircle
 10
0.5960051719813819
 20
0.8061177257621495
 30
0.0
 40
0.0976681881821335
100
AcDbArc
 50
149.1575290112843
 51
179.9999999999979
  0
ARC
  5
3F
330
2
100
AcDbEntity
  8
0
100
AcDbCircle
 10
0.6448242408711451
 20
0.7769666511661377
 30
0.0
 40
0.1545284259354683
100
AcDbArc
 50
124.7482755454323
 51
149.1575290112862
  0
ARC
  5
40
330
2
100
AcDbEntity
  8
0
100
AcDbCircle
 10
0.6768204976408541
 20
0.7308412734620848
 30
0.0
 40
0.2106649640867883
100
AcDbArc
 50
106.0310365777425
 51
124.7482755454338
  0
ARC
  5
41
330
2
100
AcDbEntity
  8
0
100
AcDbCircle
 10
0.6977624817273949
 20
0.657956925524994
 30
0.0
 40
0.2864983002371644
100
AcDbArc
 50
90.00000000000284
 51
106.0310365777448
  0
ARC
  5
42
330
2
100
AcDbEntity
  8
0
100
AcDbCircle
 10
0.6977624817273878
 20
0.7439139988288765
 30
0.0
 40
0.0468087730667222
100
AcDbArc
 50
237.3920789847963
 51
269.9999999999913
  0
ARC
  5
43
330
2
100
AcDbEntity
  8
0
100
AcDbCircle
 10
0.716804986019163
 20
0.7736808655729881
 30
0.0
 40
0.0821454866301529
100
AcDbArc
 50
212.9226719024582
 51
237.3920789848146
  0
ARC
  5
44
330
2
100
AcDbEntity
  8
0
100
AcDbCircle
 10
0.7470628973322135
 20
0.7932725745692224
 30
0.0
 40
0.1181923486076055
100
AcDbArc
 50
195.0133710019919
 51
212.9226719024441
  0
ARC
  5
45
330
2
100
AcDbEntity
  8
0
100
AcDbCircle
 10
0.7949569436655466
 20
0.8061177257621779
 30
0.0
 40
0.1677790160026758
100
AcDbArc
 50
180.0000000000061
 51
195.0133710020035
  0
ARC
  5
46
330
2
100
AcDbEntity
  8
0
100
AcDbCircle
 10
0.7949569436655182
 20
0.8061177257621388
 30
0.0
 40
0.1677790160026476
100
AcDbArc
 50
164.9866289979952
 51
179.9999999999927
  0
ARC
  5
47
330
2
100
AcDbEntity
  8
0
100
AcDbCircle
 10
0.7470628973322064
 20
0.8189628769550943
 30
0.0
 40
0.1181923486075977
100
AcDbArc
 50
147.0773280975555
 51
164.986628998009
  0
ARC
  5
48
330
2
100
AcDbEntity
  8
0
100
AcDbCircle
 10
0.7168049860191701
 20
0.8385545859513215
 30
0.0
 40
0.0821454866301602
100
AcDbArc
 50
122.6079210151883
 51
147.0773280975424
  0
ARC
  5
49
330
2
100
AcDbEntity
  8
0
100
AcDbCircle
 10
0.6977624817273878
 20
0.8683214526954366
 30
0.0
 40
0.0468087730667218
100
AcDbArc
 50
90.00000000000868
 51
122.6079210152037
  0
LINE
  5
4A
330
2
100
AcDbEntity
  8
0
100
AcDbLine
 10
0.6977624817273807
 20
0.6677802257621543
 30
0.0
 11
0.6977624817273807
 21
0.9444552257621588
 31
0.0
  0
ARC
  5
4B
330
2
100
AcDbEntity
  8
0
100
AcDbCircle
 10
3.205632577137983
 20
-0.1472132910377244
 30
0.0
 40
0.75
100
AcDbArc
 50
11.31976373773759
 51
45.00000000000052
  0
ARC
  5
4C
330
2
100
AcDbEntity
  8
0
100
AcDbCircle
 10
0.7128375002911724
 20
1.830985451524423
 30
0.0
 40
0.0593583926698636
100
AcDbArc
 50
123.5108229556574
 51
147.971893333379
  0
ARC
  5
4D
330
2
100
AcDbEntity
  8
0
100
AcDbCircle
 10
0.6977624817273878
 20
1.853751975139081
 30
0.0
 40
0.0320532506230772
100
AcDbArc
 50
90.00000000001269
 51
123.5108229556825
  0
ARC
  5
4E
330
2
100
AcDbEntity
  8
0
100
AcDbCircle
 10
0.5960051719813819
 20
1.80611772576215
 30
0.0
 40
0.0976681881821335
100
AcDbArc
 50
149.1575290112843
 51
179.9999999999979
  0
ARC
  5
4F
330
2
100
AcDbEntity
  8
0
100
AcDbCircle
 10
0.6448242408711451
 20
1.776966651166138
 30
0.0
 40
0.1545284259354683
100
AcDbArc
 50
124.7482755454323
 51
149.1575290112862
  0
ARC
  5
50
330
2
100
AcDbEntity
  8
0
100
AcDbCircle
 10
0.6768204976408541
 20
1.730841273462085
 30
0.0
 40
0.2106649640867883
100
AcDbArc
 50
106.0310365777425
 51
124.7482755454338
  0
ARC
  5
51
330
2
100
AcDbEntity
  8
0
100
AcDbCircle
 10
0.6977624817273949
 20
1.657956925524994
 30
0.0
 40
0.2864983002371644
100
AcDbArc
 50
90.00000000000284
 51
106.0310365777448
  0
ARC
  5
52
330
2
100
AcDbEntity
  8
0
100
AcDbCircle
 10
0.7949569436655466
 20
1.806117725762178
 30
0.0
 40
0.1677790160026758
100
AcDbArc
 50
180.0000000000061
 51
195.0133710020035
  0
ARC
  5
53
330
2
100
AcDbEntity
  8
0
100
AcDbCircle
 10
0.7949569436655182
 20
1.806117725762139
 30
0.0
 40
0.1677790160026476
100
AcDbArc
 50
164.9866289979952
 51
179.9999999999927
  0
ARC
  5
54
330
2
100
AcDbEntity
  8
0
100
AcDbCircle
 10
0.7470628973322064
 20
1.818962876955094
 30
0.0
 40
0.1181923486075977
100
AcDbArc
 50
147.0773280975555
 51
164.986628998009
  0
ARC
  5
55
330
2
100
AcDbEntity
  8
0
100
AcDbCircle
 10
0.7168049860191701
 20
1.838554585951322
 30
0.0
 40
0.0821454866301602
100
AcDbArc
 50
122.6079210151883
 51
147.0773280975424
  0
ARC
  5
56
330
2
100
AcDbEntity
  8
0
100
AcDbCircle
 10
0.6977624817273878
 20
1.868321452695437
 30
0.0
 40
0.0468087730667218
100
AcDbArc
 50
90.00000000000868
 51
122.6079210152037
  0
ARC
  5
57
330
2
100
AcDbEntity
  8
0
100
AcDbCircle
 10
0.774864420990987
 20
1.806117725762132
 30
0.0
 40
0.126950586969819
100
AcDbArc
 50
179.9999999999872
 51
194.5265478167845
  0
ARC
  5
58
330
2
100
AcDbEntity
  8
0
100
AcDbCircle
 10
0.7748644209909585
 20
1.806117725762185
 30
0.0
 40
0.1269505869697909
100
AcDbArc
 50
165.4734521832139
 51
180.0000000000113
  0
ARC
  5
59
330
2
100
AcDbEntity
  8
0
100
AcDbCircle
 10
0.7368409258148461
 20
1.815970068902644
 30
0.0
 40
0.0876713959042252
100
AcDbArc
 50
147.9718933333749
 51
165.4734521831872
  0
ARC
  5
5A
330
2
100
AcDbEntity
  8
0
100
AcDbCircle
 10
0.6977624817273949
 20
1.954278525999321
 30
0.0
 40
0.2864983002371666
100
AcDbArc
 50
253.9689634222553
 51
269.9999999999972
  0
ARC
  5
5B
330
2
100
AcDbEntity
  8
0
100
AcDbCircle
 10
0.6768204976408327
 20
1.881394178062223
 30
0.0
 40
0.2106649640867779
100
AcDbArc
 50
235.2517244545713
 51
253.9689634222627
  0
ARC
  5
5C
330
2
100
AcDbEntity
  8
0
100
AcDbCircle
 10
0.6977624817273878
 20
1.743913998828877
 30
0.0
 40
0.0468087730667222
100
AcDbArc
 50
237.3920789847963
 51
269.9999999999913
  0
ARC
  5
5D
330
2
100
AcDbEntity
  8
0
100
AcDbCircle
 10
0.716804986019163
 20
1.773680865572988
 30
0.0
 40
0.0821454866301529
100
AcDbArc
 50
212.9226719024582
 51
237.3920789848146
  0
ARC
  5
5E
330
2
100
AcDbEntity
  8
0
100
AcDbCircle
 10
0.6977624817273878
 20
1.758483476385232
 30
0.0
 40
0.0320532506230773
100
AcDbArc
 50
236.4891770443175
 51
269.9999999999873
  0
ARC
  5
5F
330
2
100
AcDbEntity
  8
0
100
AcDbCircle
 10
0.7128375002911724
 20
1.78124999999989
 30
0.0
 40
0.0593583926698646
100
AcDbArc
 50
212.028106666621
 51
236.4891770443426
  0
ARC
  5
60
330
2
100
AcDbEntity
  8
0
100
AcDbCircle
 10
0.6448242408711593
 20
1.835268800358172
 30
0.0
 40
0.1545284259354786
100
AcDbArc
 50
210.84247098871
 51
235.2517244545641
  0
ARC
  5
61
330
2
100
AcDbEntity
  8
0
100
AcDbCircle
 10
0.5960051719813748
 20
1.80611772576216
 30
0.0
 40
0.0976681881821263
100
AcDbArc
 50
180.0000000000042
 51
210.8424709887161
  0
ARC
  5
62
330
2
100
AcDbEntity
  8
0
100
AcDbCircle
 10
0.7470628973322135
 20
1.793272574569222
 30
0.0
 40
0.1181923486076055
100
AcDbArc
 50
195.0133710019919
 51
212.9226719024441
  0
ARC
  5
63
330
2
100
AcDbEntity
  8
0
100
AcDbCircle
 10
0.7368409258148532
 20
1.796265382621673
 30
0.0
 40
0.0876713959042334
100
AcDbArc
 50
194.5265478168138
 51
212.0281066666247
  0
LINE
  5
64
330
2
100
AcDbEntity
  8
0
100
AcDbLine
 10
0.6977624817273807
 20
1.667780225762154
 30
0.0
 11
0.6977624817273807
 21
1.944455225762159
 31
0.0
  0
ARC
  5
65
330
2
100
AcDbEntity
  8
0
100
AcDbCircle
 10
0.7470628973322064
 20
2.818962876955094
 30
0.0
 40
0.1181923486075977
100
AcDbArc
 50
147.0773280975555
 51
164.986628998009
  0
ARC
  5
66
330
2
100
AcDbEntity
  8
0
100
AcDbCircle
 10
0.6448242408711451
 20
2.776966651166138
 30
0.0
 40
0.1545284259354683
100
AcDbArc
 50
124.7482755454323
 51
149.1575290112862
  0
ARC
  5
67
330
2
100
AcDbEntity
  8
0
100
AcDbCircle
 10
0.7128375002911724
 20
2.830985451524423
 30
0.0
 40
0.0593583926698636
100
AcDbArc
 50
123.5108229556574
 51
147.971893333379
  0
LINE
  5
68
330
2
100
AcDbEntity
  8
0
100
AcDbLine
 10
0.6977624817273807
 20
2.667780225762154
 30
0.0
 11
0.6977624817273807
 21
2.944455225762159
 31
0.0
  0
ARC
  5
69
330
2
100
AcDbEntity
  8
0
100
AcDbCircle
 10
0.6977624817273878
 20
2.743913998828877
 30
0.0
 40
0.0468087730667222
100
AcDbArc
 50
237.3920789847963
 51
269.9999999999913
  0
ARC
  5
6A
330
2
100
AcDbEntity
  8
0
100
AcDbCircle
 10
0.716804986019163
 20
2.773680865572988
 30
0.0
 40
0.0821454866301529
100
AcDbArc
 50
212.9226719024582
 51
237.3920789848146
  0
ARC
  5
6B
330
2
100
AcDbEntity
  8
0
100
AcDbCircle
 10
0.7470628973322135
 20
2.793272574569222
 30
0.0
 40
0.1181923486076055
100
AcDbArc
 50
195.0133710019919
 51
212.9226719024441
  0
ARC
  5
6C
330
2
100
AcDbEntity
  8
0
100
AcDbCircle
 10
0.7949569436655466
 20
2.806117725762178
 30
0.0
 40
0.1677790160026758
100
AcDbArc
 50
180.0000000000061
 51
195.0133710020035
  0
ARC
  5
6D
330
2
100
AcDbEntity
  8
0
100
AcDbCircle
 10
0.7949569436655182
 20
2.806117725762139
 30
0.0
 40
0.1677790160026476
100
AcDbArc
 50
164.9866289979952
 51
179.9999999999927
  0
ARC
  5
6E
330
2
100
AcDbEntity
  8
0
100
AcDbCircle
 10
0.6977624817273949
 20
2.954278525999321
 30
0.0
 40
0.2864983002371666
100
AcDbArc
 50
253.9689634222553
 51
269.9999999999972
  0
ARC
  5
6F
330
2
100
AcDbEntity
  8
0
100
AcDbCircle
 10
0.6768204976408327
 20
2.881394178062223
 30
0.0
 40
0.2106649640867779
100
AcDbArc
 50
235.2517244545713
 51
253.9689634222627
  0
ARC
  5
70
330
2
100
AcDbEntity
  8
0
100
AcDbCircle
 10
0.6448242408711593
 20
2.835268800358172
 30
0.0
 40
0.1545284259354786
100
AcDbArc
 50
210.84247098871
 51
235.2517244545641
  0
ARC
  5
71
330
2
100
AcDbEntity
  8
0
100
AcDbCircle
 10
0.5960051719813748
 20
2.80611772576216
 30
0.0
 40
0.0976681881821263
100
AcDbArc
 50
180.0000000000042
 51
210.8424709887161
  0
ARC
  5
72
330
2
100
AcDbEntity
  8
0
100
AcDbCircle
 10
0.5960051719813819
 20
2.80611772576215
 30
0.0
 40
0.0976681881821335
100
AcDbArc
 50
149.1575290112843
 51
179.9999999999979
  0
ARC
  5
73
330
2
100
AcDbEntity
  8
0
100
AcDbCircle
 10
0.6977624817273878
 20
2.758483476385232
 30
0.0
 40
0.0320532506230773
100
AcDbArc
 50
236.4891770443175
 51
269.9999999999873
  0
ARC
  5
74
330
2
100
AcDbEntity
  8
0
100
AcDbCircle
 10
0.7128375002911724
 20
2.78124999999989
 30
0.0
 40
0.0593583926698646
100
AcDbArc
 50
212.028106666621
 51
236.4891770443426
  0
ARC
  5
75
330
2
100
AcDbEntity
  8
0
100
AcDbCircle
 10
0.7368409258148532
 20
2.796265382621673
 30
0.0
 40
0.0876713959042334
100
AcDbArc
 50
194.5265478168138
 51
212.0281066666247
  0
ARC
  5
76
330
2
100
AcDbEntity
  8
0
100
AcDbCircle
 10
0.774864420990987
 20
2.806117725762132
 30
0.0
 40
0.126950586969819
100
AcDbArc
 50
179.9999999999872
 51
194.5265478167845
  0
ARC
  5
77
330
2
100
AcDbEntity
  8
0
100
AcDbCircle
 10
0.7748644209909585
 20
2.806117725762185
 30
0.0
 40
0.1269505869697909
100
AcDbArc
 50
165.4734521832139
 51
180.0000000000113
  0
ARC
  5
78
330
2
100
AcDbEntity
  8
0
100
AcDbCircle
 10
0.7368409258148461
 20
2.815970068902644
 30
0.0
 40
0.0876713959042252
100
AcDbArc
 50
147.9718933333749
 51
165.4734521831872
  0
ARC
  5
79
330
2
100
AcDbEntity
  8
0
100
AcDbCircle
 10
0.7168049860191701
 20
2.838554585951322
 30
0.0
 40
0.0821454866301602
100
AcDbArc
 50
122.6079210151883
 51
147.0773280975424
  0
ARC
  5
7A
330
2
100
AcDbEntity
  8
0
100
AcDbCircle
 10
0.6977624817273878
 20
2.868321452695437
 30
0.0
 40
0.0468087730667218
100
AcDbArc
 50
90.00000000000868
 51
122.6079210152037
  0
ARC
  5
7B
330
2
100
AcDbEntity
  8
0
100
AcDbCircle
 10
0.6768204976408541
 20
2.730841273462085
 30
0.0
 40
0.2106649640867883
100
AcDbArc
 50
106.0310365777425
 51
124.7482755454338
  0
ARC
  5
7C
330
2
100
AcDbEntity
  8
0
100
AcDbCircle
 10
0.6977624817273949
 20
2.657956925524994
 30
0.0
 40
0.2864983002371644
100
AcDbArc
 50
90.00000000000284
 51
106.0310365777448
  0
ARC
  5
7D
330
2
100
AcDbEntity
  8
0
100
AcDbCircle
 10
0.6977624817273878
 20
2.853751975139081
 30
0.0
 40
0.0320532506230772
100
AcDbArc
 50
90.00000000001269
 51
123.5108229556825
  0
ARC
  5
7E
330
2
100
AcDbEntity
  8
0
100
AcDbCircle
 10
0.7470628973322135
 20
4.793272574569222
 30
0.0
 40
0.1181923486076055
100
AcDbArc
 50
195.0133710019919
 51
212.9226719024441
  0
ARC
  5
7F
330
2
100
AcDbEntity
  8
0
100
AcDbCircle
 10
0.6448242408711593
 20
4.835268800358172
 30
0.0
 40
0.1545284259354786
100
AcDbArc
 50
210.84247098871
 51
235.2517244545641
  0
ARC
  5
80
330
2
100
AcDbEntity
  8
0
100
AcDbCircle
 10
0.7128375002911724
 20
4.78124999999989
 30
0.0
 40
0.0593583926698646
100
AcDbArc
 50
212.028106666621
 51
236.4891770443426
  0
ARC
  5
81
330
2
100
AcDbEntity
  8
0
100
AcDbCircle
 10
0.7368409258148532
 20
4.796265382621673
 30
0.0
 40
0.0876713959042334
100
AcDbArc
 50
194.5265478168138
 51
212.0281066666247
  0
LINE
  5
82
330
2
100
AcDbEntity
  8
0
100
AcDbLine
 10
0.6977624817273807
 20
4.667780225762154
 30
0.0
 11
0.6977624817273807
 21
4.944455225762159
 31
0.0
  0
ARC
  5
83
330
2
100
AcDbEntity
  8
0
100
AcDbCircle
 10
0.6977624817273878
 20
3.743913998828877
 30
0.0
 40
0.0468087730667222
100
AcDbArc
 50
237.3920789847963
 51
269.9999999999913
  0
ARC
  5
84
330
2
100
AcDbEntity
  8
0
100
AcDbCircle
 10
0.716804986019163
 20
3.773680865572988
 30
0.0
 40
0.0821454866301529
100
AcDbArc
 50
212.9226719024582
 51
237.3920789848146
  0
ARC
  5
85
330
2
100
AcDbEntity
  8
0
100
AcDbCircle
 10
0.7470628973322135
 20
3.793272574569222
 30
0.0
 40
0.1181923486076055
100
AcDbArc
 50
195.0133710019919
 51
212.9226719024441
  0
ARC
  5
86
330
2
100
AcDbEntity
  8
0
100
AcDbCircle
 10
0.7949569436655466
 20
3.806117725762178
 30
0.0
 40
0.1677790160026758
100
AcDbArc
 50
180.0000000000061
 51
195.0133710020035
  0
ARC
  5
87
330
2
100
AcDbEntity
  8
0
100
AcDbCircle
 10
0.7949569436655182
 20
3.806117725762139
 30
0.0
 40
0.1677790160026476
100
AcDbArc
 50
164.9866289979952
 51
179.9999999999927
  0
ARC
  5
88
330
2
100
AcDbEntity
  8
0
100
AcDbCircle
 10
0.7470628973322064
 20
3.818962876955094
 30
0.0
 40
0.1181923486075977
100
AcDbArc
 50
147.0773280975555
 51
164.986628998009
  0
ARC
  5
89
330
2
100
AcDbEntity
  8
0
100
AcDbCircle
 10
0.7168049860191701
 20
3.838554585951322
 30
0.0
 40
0.0821454866301602
100
AcDbArc
 50
122.6079210151883
 51
147.0773280975424
  0
ARC
  5
8A
330
2
100
AcDbEntity
  8
0
100
AcDbCircle
 10
0.6977624817273878
 20
3.868321452695437
 30
0.0
 40
0.0468087730667218
100
AcDbArc
 50
90.00000000000868
 51
122.6079210152037
  0
ARC
  5
8B
330
2
100
AcDbEntity
  8
0
100
AcDbCircle
 10
0.6977624817273949
 20
3.954278525999321
 30
0.0
 40
0.2864983002371666
100
AcDbArc
 50
253.9689634222553
 51
269.9999999999972
  0
ARC
  5
8C
330
2
100
AcDbEntity
  8
0
100
AcDbCircle
 10
0.6768204976408327
 20
3.881394178062223
 30
0.0
 40
0.2106649640867779
100
AcDbArc
 50
235.2517244545713
 51
253.9689634222627
  0
ARC
  5
8D
330
2
100
AcDbEntity
  8
0
100
AcDbCircle
 10
0.6448242408711593
 20
3.835268800358172
 30
0.0
 40
0.1545284259354786
100
AcDbArc
 50
210.84247098871
 51
235.2517244545641
  0
ARC
  5
8E
330
2
100
AcDbEntity
  8
0
100
AcDbCircle
 10
0.5960051719813748
 20
3.80611772576216
 30
0.0
 40
0.0976681881821263
100
AcDbArc
 50
180.0000000000042
 51
210.8424709887161
  0
ARC
  5
8F
330
2
100
AcDbEntity
  8
0
100
AcDbCircle
 10
0.5960051719813819
 20
3.80611772576215
 30
0.0
 40
0.0976681881821335
100
AcDbArc
 50
149.1575290112843
 51
179.9999999999979
  0
ARC
  5
90
330
2
100
AcDbEntity
  8
0
100
AcDbCircle
 10
0.6448242408711451
 20
3.776966651166138
 30
0.0
 40
0.1545284259354683
100
AcDbArc
 50
124.7482755454323
 51
149.1575290112862
  0
ARC
  5
91
330
2
100
AcDbEntity
  8
0
100
AcDbCircle
 10
0.6768204976408541
 20
3.730841273462085
 30
0.0
 40
0.2106649640867883
100
AcDbArc
 50
106.0310365777425
 51
124.7482755454338
  0
ARC
  5
92
330
2
100
AcDbEntity
  8
0
100
AcDbCircle
 10
0.6977624817273949
 20
3.657956925524994
 30
0.0
 40
0.2864983002371644
100
AcDbArc
 50
90.00000000000284
 51
106.0310365777448
  0
ARC
  5
93
330
2
100
AcDbEntity
  8
0
100
AcDbCircle
 10
0.6977624817273878
 20
3.758483476385232
 30
0.0
 40
0.0320532506230773
100
AcDbArc
 50
236.4891770443175
 51
269.9999999999873
  0
ARC
  5
94
330
2
100
AcDbEntity
  8
0
100
AcDbCircle
 10
0.7128375002911724
 20
3.78124999999989
 30
0.0
 40
0.0593583926698646
100
AcDbArc
 50
212.028106666621
 51
236.4891770443426
  0
ARC
  5
95
330
2
100
AcDbEntity
  8
0
100
AcDbCircle
 10
0.7368409258148532
 20
3.796265382621673
 30
0.0
 40
0.0876713959042334
100
AcDbArc
 50
194.5265478168138
 51
212.0281066666247
  0
ARC
  5
96
330
2
100
AcDbEntity
  8
0
100
AcDbCircle
 10
0.774864420990987
 20
3.806117725762132
 30
0.0
 40
0.126950586969819
100
AcDbArc
 50
179.9999999999872
 51
194.5265478167845
  0
ARC
  5
97
330
2
100
AcDbEntity
  8
0
100
AcDbCircle
 10
0.7748644209909585
 20
3.806117725762185
 30
0.0
 40
0.1269505869697909
100
AcDbArc
 50
165.4734521832139
 51
180.0000000000113
  0
ARC
  5
98
330
2
100
AcDbEntity
  8
0
100
AcDbCircle
 10
0.7368409258148461
 20
3.815970068902644
 30
0.0
 40
0.0876713959042252
100
AcDbArc
 50
147.9718933333749
 51
165.4734521831872
  0
ARC
  5
99
330
2
100
AcDbEntity
  8
0
100
AcDbCircle
 10
0.7128375002911724
 20
3.830985451524423
 30
0.0
 40
0.0593583926698636
100
AcDbArc
 50
123.5108229556574
 51
147.971893333379
  0
ARC
  5
9A
330
2
100
AcDbEntity
  8
0
100
AcDbCircle
 10
0.6977624817273878
 20
3.853751975139081
 30
0.0
 40
0.0320532506230772
100
AcDbArc
 50
90.00000000001269
 51
123.5108229556825
  0
LINE
  5
9B
330
2
100
AcDbEntity
  8
0
100
AcDbLine
 10
0.6977624817273807
 20
3.667780225762154
 30
0.0
 11
0.6977624817273807
 21
3.944455225762159
 31
0.0
  0
ARC
  5
9C
330
2
100
AcDbEntity
  8
0
100
AcDbCircle
 10
0.6977624817273878
 20
4.743913998828877
 30
0.0
 40
0.0468087730667222
100
AcDbArc
 50
237.3920789847963
 51
269.9999999999913
  0
ARC
  5
9D
330
2
100
AcDbEntity
  8
0
100
AcDbCircle
 10
0.716804986019163
 20
4.773680865572988
 30
0.0
 40
0.0821454866301529
100
AcDbArc
 50
212.9226719024582
 51
237.3920789848146
  0
ARC
  5
9E
330
2
100
AcDbEntity
  8
0
100
AcDbCircle
 10
0.6977624817273949
 20
4.954278525999321
 30
0.0
 40
0.2864983002371666
100
AcDbArc
 50
253.9689634222553
 51
269.9999999999972
  0
ARC
  5
9F
330
2
100
AcDbEntity
  8
0
100
AcDbCircle
 10
0.6768204976408327
 20
4.881394178062223
 30
0.0
 40
0.2106649640867779
100
AcDbArc
 50
235.2517244545713
 51
253.9689634222627
  0
ARC
  5
A0
330
2
100
AcDbEntity
  8
0
100
AcDbCircle
 10
0.6977624817273878
 20
4.758483476385234
 30
0.0
 40
0.0320532506230791
100
AcDbArc
 50
236.4891770443192
 51
269.9999999999873
  0
ARC
  5
A1
330
2
100
AcDbEntity
  8
0
100
AcDbCircle
 10
0.7168049860191701
 20
4.838554585951325
 30
0.0
 40
0.0821454866301583
100
AcDbArc
 50
122.6079210151897
 51
147.0773280975445
  0
ARC
  5
A2
330
2
100
AcDbEntity
  8
0
100
AcDbCircle
 10
0.6977624817273878
 20
4.868321452695437
 30
0.0
 40
0.0468087730667218
100
AcDbArc
 50
90.00000000000868
 51
122.6079210152037
  0
ARC
  5
A3
330
2
100
AcDbEntity
  8
0
100
AcDbCircle
 10
0.6768204976408541
 20
4.730841273462087
 30
0.0
 40
0.2106649640867868
100
AcDbArc
 50
106.0310365777426
 51
124.7482755454341
  0
ARC
  5
A4
330
2
100
AcDbEntity
  8
0
100
AcDbCircle
 10
0.6977624817273949
 20
4.657956925524996
 30
0.0
 40
0.2864983002371627
100
AcDbArc
 50
90.00000000000284
 51
106.0310365777449
  0
ARC
  5
A5
330
2
100
AcDbEntity
  8
0
100
AcDbCircle
 10
0.7949569436655466
 20
4.806117725762178
 30
0.0
 40
0.1677790160026758
100
AcDbArc
 50
180.0000000000061
 51
195.0133710020035
  0
ARC
  5
A6
330
2
100
AcDbEntity
  8
0
100
AcDbCircle
 10
0.7949569436655182
 20
4.806117725762139
 30
0.0
 40
0.1677790160026476
100
AcDbArc
 50
164.9866289979952
 51
179.9999999999927
  0
ARC
  5
A7
330
2
100
AcDbEntity
  8
0
100
AcDbCircle
 10
0.5960051719813748
 20
4.80611772576216
 30
0.0
 40
0.0976681881821263
100
AcDbArc
 50
180.0000000000042
 51
210.8424709887161
  0
ARC
  5
A8
330
2
100
AcDbEntity
  8
0
100
AcDbCircle
 10
0.5960051719813819
 20
4.80611772576215
 30
0.0
 40
0.0976681881821335
100
AcDbArc
 50
149.1575290112843
 51
179.9999999999979
  0
ARC
  5
A9
330
2
100
AcDbEntity
  8
0
100
AcDbCircle
 10
0.774864420990987
 20
4.806117725762132
 30
0.0
 40
0.126950586969819
100
AcDbArc
 50
179.9999999999872
 51
194.5265478167845
  0
ARC
  5
AA
330
2
100
AcDbEntity
  8
0
100
AcDbCircle
 10
0.7748644209909585
 20
4.806117725762181
 30
0.0
 40
0.1269505869697909
100
AcDbArc
 50
165.4734521832123
 51
180.0000000000096
  0
ARC
  5
AB
330
2
100
AcDbEntity
  8
0
100
AcDbCircle
 10
0.7368409258148461
 20
4.815970068902644
 30
0.0
 40
0.0876713959042252
100
AcDbArc
 50
147.9718933333749
 51
165.4734521831872
  0
ARC
  5
AC
330
2
100
AcDbEntity
  8
0
100
AcDbCircle
 10
0.7470628973322064
 20
4.818962876955094
 30
0.0
 40
0.1181923486075977
100
AcDbArc
 50
147.0773280975555
 51
164.986628998009
  0
ARC
  5
AD
330
2
100
AcDbEntity
  8
0
100
AcDbCircle
 10
0.6448242408711451
 20
4.776966651166138
 30
0.0
 40
0.1545284259354683
100
AcDbArc
 50
124.7482755454323
 51
149.1575290112862
  0
ARC
  5
AE
330
2
100
AcDbEntity
  8
0
100
AcDbCircle
 10
0.7128375002911724
 20
4.830985451524423
 30
0.0
 40
0.0593583926698636
100
AcDbArc
 50
123.5108229556574
 51
147.971893333379
  0
ARC
  5
AF
330
2
100
AcDbEntity
  8
0
100
AcDbCircle
 10
0.6977624817273878
 20
4.85375197513908
 30
0.0
 40
0.0320532506230786
100
AcDbArc
 50
90.00000000001269
 51
123.5108229556808
  0
ARC
  5
B0
330
2
100
AcDbEntity
  8
0
100
AcDbCircle
 10
0.6977624817273878
 20
5.743913998828877
 30
0.0
 40
0.0468087730667222
100
AcDbArc
 50
237.3920789847963
 51
269.9999999999913
  0
ARC
  5
B1
330
2
100
AcDbEntity
  8
0
100
AcDbCircle
 10
0.716804986019163
 20
5.773680865572988
 30
0.0
 40
0.0821454866301529
100
AcDbArc
 50
212.9226719024582
 51
237.3920789848146
  0
ARC
  5
B2
330
2
100
AcDbEntity
  8
0
100
AcDbCircle
 10
0.7470628973322135
 20
5.793272574569222
 30
0.0
 40
0.1181923486076055
100
AcDbArc
 50
195.0133710019919
 51
212.9226719024441
  0
ARC
  5
B3
330
2
100
AcDbEntity
  8
0
100
AcDbCircle
 10
0.7949569436655466
 20
5.806117725762178
 30
0.0
 40
0.1677790160026758
100
AcDbArc
 50
180.0000000000061
 51
195.0133710020035
  0
ARC
  5
B4
330
2
100
AcDbEntity
  8
0
100
AcDbCircle
 10
0.7949569436655182
 20
5.806117725762139
 30
0.0
 40
0.1677790160026476
100
AcDbArc
 50
164.9866289979952
 51
179.9999999999927
  0
ARC
  5
B5
330
2
100
AcDbEntity
  8
0
100
AcDbCircle
 10
0.7470628973322064
 20
5.818962876955094
 30
0.0
 40
0.1181923486075977
100
AcDbArc
 50
147.0773280975555
 51
164.986628998009
  0
ARC
  5
B6
330
2
100
AcDbEntity
  8
0
100
AcDbCircle
 10
0.7168049860191701
 20
5.838554585951325
 30
0.0
 40
0.0821454866301583
100
AcDbArc
 50
122.6079210151897
 51
147.0773280975445
  0
ARC
  5
B7
330
2
100
AcDbEntity
  8
0
100
AcDbCircle
 10
0.6977624817273878
 20
5.868321452695437
 30
0.0
 40
0.0468087730667218
100
AcDbArc
 50
90.00000000000868
 51
122.6079210152037
  0
ARC
  5
B8
330
2
100
AcDbEntity
  8
0
100
AcDbCircle
 10
0.6977624817273949
 20
5.954278525999321
 30
0.0
 40
0.2864983002371666
100
AcDbArc
 50
253.9689634222553
 51
269.9999999999972
  0
ARC
  5
B9
330
2
100
AcDbEntity
  8
0
100
AcDbCircle
 10
0.6768204976408327
 20
5.881394178062223
 30
0.0
 40
0.2106649640867779
100
AcDbArc
 50
235.2517244545713
 51
253.9689634222627
  0
ARC
  5
BA
330
2
100
AcDbEntity
  8
0
100
AcDbCircle
 10
0.6448242408711593
 20
5.835268800358172
 30
0.0
 40
0.1545284259354786
100
AcDbArc
 50
210.84247098871
 51
235.2517244545641
  0
ARC
  5
BB
330
2
100
AcDbEntity
  8
0
100
AcDbCircle
 10
0.5960051719813748
 20
5.80611772576216
 30
0.0
 40
0.0976681881821263
100
AcDbArc
 50
180.0000000000042
 51
210.8424709887161
  0
ARC
  5
BC
330
2
100
AcDbEntity
  8
0
100
AcDbCircle
 10
0.5960051719813819
 20
5.80611772576215
 30
0.0
 40
0.0976681881821335
100
AcDbArc
 50
149.1575290112843
 51
179.9999999999979
  0
ARC
  5
BD
330
2
100
AcDbEntity
  8
0
100
AcDbCircle
 10
0.6448242408711451
 20
5.776966651166138
 30
0.0
 40
0.1545284259354683
100
AcDbArc
 50
124.7482755454323
 51
149.1575290112862
  0
ARC
  5
BE
330
2
100
AcDbEntity
  8
0
100
AcDbCircle
 10
0.6768204976408541
 20
5.730841273462087
 30
0.0
 40
0.2106649640867868
100
AcDbArc
 50
106.0310365777426
 51
124.7482755454341
  0
ARC
  5
BF
330
2
100
AcDbEntity
  8
0
100
AcDbCircle
 10
0.6977624817273949
 20
5.657956925524996
 30
0.0
 40
0.2864983002371627
100
AcDbArc
 50
90.00000000000284
 51
106.0310365777449
  0
ARC
  5
C0
330
2
100
AcDbEntity
  8
0
100
AcDbCircle
 10
0.6977624817273878
 20
5.758483476385234
 30
0.0
 40
0.0320532506230791
100
AcDbArc
 50
236.4891770443192
 51
269.9999999999873
  0
ARC
  5
C1
330
2
100
AcDbEntity
  8
0
100
AcDbCircle
 10
0.7128375002911724
 20
5.78124999999989
 30
0.0
 40
0.0593583926698646
100
AcDbArc
 50
212.028106666621
 51
236.4891770443426
  0
ARC
  5
C2
330
2
100
AcDbEntity
  8
0
100
AcDbCircle
 10
0.7368409258148532
 20
5.796265382621673
 30
0.0
 40
0.0876713959042334
100
AcDbArc
 50
194.5265478168138
 51
212.0281066666247
  0
ARC
  5
C3
330
2
100
AcDbEntity
  8
0
100
AcDbCircle
 10
0.774864420990987
 20
5.806117725762132
 30
0.0
 40
0.126950586969819
100
AcDbArc
 50
179.9999999999872
 51
194.5265478167845
  0
ARC
  5
C4
330
2
100
AcDbEntity
  8
0
100
AcDbCircle
 10
0.7748644209909585
 20
5.806117725762181
 30
0.0
 40
0.1269505869697909
100
AcDbArc
 50
165.4734521832123
 51
180.0000000000096
  0
ARC
  5
C5
330
2
100
AcDbEntity
  8
0
100
AcDbCircle
 10
0.7368409258148461
 20
5.815970068902644
 30
0.0
 40
0.0876713959042252
100
AcDbArc
 50
147.9718933333749
 51
165.4734521831872
  0
ARC
  5
C6
330
2
100
AcDbEntity
  8
0
100
AcDbCircle
 10
0.7128375002911724
 20
5.830985451524423
 30
0.0
 40
0.0593583926698636
100
AcDbArc
 50
123.5108229556574
 51
147.971893333379
  0
ARC
  5
C7
330
2
100
AcDbEntity
  8
0
100
AcDbCircle
 10
0.6977624817273878
 20
5.85375197513908
 30
0.0
 40
0.0320532506230786
100
AcDbArc
 50
90.00000000001269
 51
123.5108229556808
  0
LINE
  5
C8
330
2
100
AcDbEntity
  8
0
100
AcDbLine
 10
0.6977624817273807
 20
5.667780225762154
 30
0.0
 11
0.6977624817273807
 21
5.944455225762159
 31
0.0
  0
ARC
  5
C9
330
2
100
AcDbEntity
  8
0
100
AcDbCircle
 10
4.705632577138012
 20
4.009640958454646
 30
0.0
 40
3.25
100
AcDbArc
 50
180.0
 51
225.0000000000005
  0
LINE
  5
CA
330
2
100
AcDbEntity
  8
0
100
AcDbLine
 10
1.179744229489693
 20
4.876835228390402
 30
0.0
 11
1.419020924786331
 21
4.637558533093763
 31
0.0
  0
LINE
  5
CB
330
2
100
AcDbEntity
  8
0
100
AcDbLine
 10
1.455632577138005
 20
4.009640958454646
 30
0.0
 11
1.455632577138005
 21
4.549170185445437
 31
0.0
  0
ARC
  5
CC
330
2
100
AcDbEntity
  8
0
100
AcDbCircle
 10
1.330632577138005
 20
4.549170185445437
 30
0.0
 40
0.125
100
AcDbArc
 50
0.000000000000007
 51
45.00000000000016
  0
LINE
  5
CD
330
2
100
AcDbEntity
  8
0
100
AcDbLine
 10
1.143132577138012
 20
5.611670185445444
 30
0.0
 11
1.143132577138012
 21
4.965223576038721
 31
0.0
  0
ARC
  5
CE
330
2
100
AcDbEntity
  8
0
100
AcDbCircle
 10
1.268132577138012
 20
4.965223576038721
 30
0.0
 40
0.125
100
AcDbArc
 50
180.0
 51
225.0000000000003
  0
LINE
  5
CF
330
2
100
AcDbEntity
  8
0
100
AcDbLine
 10
1.419020924786331
 20
5.939335228390402
 30
0.0
 11
1.179744229489693
 21
5.700058533093763
 31
0.0
  0
ARC
  5
D0
330
2
100
AcDbEntity
  8
0
100
AcDbCircle
 10
1.268132577138012
 20
5.611670185445444
 30
0.0
 40
0.125
100
AcDbArc
 50
134.9999999999999
 51
180.0
  0
LINE
  5
D1
330
2
100
AcDbEntity
  8
0
100
AcDbLine
 10
1.143132577137997
 20
7.125
 30
0.0
 11
-0.3184124997087068
 21
7.125
 31
0.0
  0
LINE
  5
D2
330
2
100
AcDbEntity
  8
0
100
AcDbLine
 10
-0.2246624997087068
 20
6.331249999999994
 30
0.0
 11
-0.2246624997087068
 21
6.231249999999992
 31
0.0
  0
ARC
  5
D3
330
2
100
AcDbEntity
  8
0
100
AcDbCircle
 10
1.330632577138012
 20
6.549170185445444
 30
0.0
 40
0.125
100
AcDbArc
 50
0.000000000000007
 51
45.00000000000016
  0
LINE
  5
D4
330
2
100
AcDbEntity
  8
0
100
AcDbLine
 10
1.455632577138012
 20
6.027723576038721
 30
0.0
 11
1.455632577138012
 21
6.549170185445444
 31
0.0
  0
LINE
  5
D5
330
2
100
AcDbEntity
  8
0
100
AcDbLine
 10
1.455632577138012
 20
6.531249999999996
 30
0.0
 11
1.455632577138012
 21
6.027723319994447
 31
0.0
  0
LINE
  5
D6
330
2
100
AcDbEntity
  8
0
100
AcDbLine
 10
1.179744229489693
 20
6.876835228390402
 30
0.0
 11
1.419020924786331
 21
6.637558533093763
 31
0.0
  0
LINE
  5
D7
330
2
100
AcDbEntity
  8
0
100
AcDbLine
 10
1.143132577138012
 20
7.125
 30
0.0
 11
1.143132577138012
 21
6.965223576038721
 31
0.0
  0
ARC
  5
D8
330
2
100
AcDbEntity
  8
0
100
AcDbCircle
 10
1.268132577138012
 20
6.965223576038721
 30
0.0
 40
0.125
100
AcDbArc
 50
180.0
 51
225.0000000000003
  0
LINE
  5
24A
330
2
100
AcDbEntity
  8
0
  6
HIDDEN
100
AcDbLine
 10
3.915869644864154
 20
0.09375
 30
0.0
 11
-0.148360399545993
 21
0.09375
 31
0.0
  0
ENDSEC
  0
SECTION
  2
OBJECTS
  0
DICTIONARY
  5
9
330
0
100
AcDbDictionary
281
     1
  3
ACAD_COLOR
350
242
  3
ACAD_GROUP
350
23
  3
ACAD_LAYOUT
350
D
  3
ACAD_MATERIAL
350
241
  3
ACAD_MLINESTYLE
350
24
  3
ACAD_PLOTSETTINGS
350
25
  3
ACAD_PLOTSTYLENAME
350
8
  3
ACAD_TABLESTYLE
350
243
  3
ACDBHEADERROUNDTRIPXREC
350
26D
  3
AcDbVariableDictionary
350
23D
  0
DICTIONARY
  5
242
102
{ACAD_REACTORS
330
9
102
}
330
9
100
AcDbDictionary
281
     1
  0
DICTIONARY
  5
23
102
{ACAD_REACTORS
330
9
102
}
330
9
100
AcDbDictionary
281
     1
  0
DICTIONARY
  5
D
102
{ACAD_REACTORS
330
9
102
}
330
9
100
AcDbDictionary
281
     1
  3
Layout1
350
13
  3
Model
350
C
  0
DICTIONARY
  5
241
102
{ACAD_REACTORS
330
9
102
}
330
9
100
AcDbDictionary
281
     1
  0
DICTIONARY
  5
24
102
{ACAD_REACTORS
330
9
102
}
330
9
100
AcDbDictionary
281
     1
  3
STANDARD
350
26
  0
DICTIONARY
  5
25
102
{ACAD_REACTORS
330
9
102
}
330
9
100
AcDbDictionary
281
     1
  0
ACDBDICTIONARYWDFLT
  5
8
102
{ACAD_REACTORS
330
9
102
}
330
9
100
AcDbDictionary
281
     1
  3
Normal
350
7
100
AcDbDictionaryWithDefault
340
7
  0
DICTIONARY
  5
243
102
{ACAD_REACTORS
330
9
102
}
330
9
100
AcDbDictionary
281
     1
  3
Standard
350
244
  0
DICTIONARY
  5
26D
102
{ACAD_REACTORS
330
9
102
}
330
9
100
AcDbDictionary
281
     1
  3
COLORDICT
350
26E
  3
MATERIALDICT
350
26F
  0
DICTIONARY
  5
23D
102
{ACAD_REACTORS
330
9
102
}
330
9
100
AcDbDictionary
281
     1
  3
CTABLESTYLE
350
26A
  3
HIDETEXT
350
26C
  0
LAYOUT
  5
13
102
{ACAD_REACTORS
330
D
102
}
102
{ACAD_XDICTIONARY
360
270
102
}
330
D
100
AcDbPlotSettings
  1

  2
HP LaserJet 2100 Series PS
  4

  6

 40
0.0
 41
0.0
 42
0.0
 43
0.0
 44
0.0
 45
0.0
 46
0.0
 47
0.0
 48
0.0
 49
0.0
140
0.0
141
0.0
142
1.0
143
1.0
 70
   688
 72
     0
 73
     0
 74
     5
  7

 75
    16
147
1.0
148
0.0
149
0.0
100
AcDbLayout
  1
Layout1
 70
     0
 71
     1
 10
0.0
 20
0.0
 11
12.0
 21
9.0
 12
0.0
 22
0.0
 32
0.0
 14
1.000000000000000E+20
 24
1.000000000000000E+20
 34
1.000000000000000E+20
 15
-1.000000000000000E+20
 25
-1.000000000000000E+20
 35
-1.000000000000000E+20
146
0.0
 13
0.0
 23
0.0
 33
0.0
 16
1.0
 26
0.0
 36
0.0
 17
0.0
 27
1.0
 37
0.0
 76
     0
330
E
  0
LAYOUT
  5
C
102
{ACAD_REACTORS
330
D
102
}
102
{ACAD_XDICTIONARY
360
272
102
}
330
D
100
AcDbPlotSettings
  1

  2
HP LaserJet 2100 Series PS
  4
Letter
  6

 40
5.365749835968018
 41
5.408084392547607
 42
5.4080810546875
 43
5.365753173828125
 44
215.8999938964844
 45
279.3999938964844
 46
0.0
 47
0.0
 48
0.0
 49
0.0
140
0.0
141
0.0
142
1.0
143
3.971318409846261
 70
 11952
 72
     0
 73
     1
 74
     2
  7

 75
     0
147
0.2518055458662435
148
0.0
149
0.0
100
AcDbLayout
  1
Model
 70
     1
 71
     0
 10
0.0
 20
0.0
 11
12.0
 21
9.0
 12
0.0
 22
0.0
 32
0.0
 14
0.0
 24
0.0
 34
0.0
 15
0.0
 25
0.0
 35
0.0
146
0.0
 13
0.0
 23
0.0
 33
0.0
 16
1.0
 26
0.0
 36
0.0
 17
0.0
 27
1.0
 37
0.0
 76
     0
330
2
  0
MLINESTYLE
  5
26
102
{ACAD_REACTORS
330
24
102
}
330
24
100
AcDbMlineStyle
  2
STANDARD
 70
     0
  3

 62
   256
 51
90.0
 52
90.0
 71
     2
 49
0.5
 62
   256
  6
BYLAYER
 49
-0.5
 62
   256
  6
BYLAYER
  0
ACDBPLACEHOLDER
  5
7
102
{ACAD_REACTORS
330
8
102
}
330
8
  0
ACAD_PROXY_OBJECT
  5
244
102
{ACAD_REACTORS
330
243
102
}
330
243
100
AcDbProxyObject
 90
      499
 91
      537
 95
   983063
 70
     0
 93
     1841
310
4214DD185B99185C9928B81E85EB51B8AE3F2E07A17AD46E2B8FC02B5E8DC0F42B1CFD028000000C1008070000C3001FDFF8000000C1003FBFF000000182007F7FE00000030400FEFFC00000060801FDFF8000000C1003FBFF00000018200000000000000681FA0B0000001820100E000186003FBFF000000182007F7FE000
310
00030400FEFFC00000060801FDFF8000000C1003FBFF000000182007F7FE000000304000AD7A3703D0AC73F4160000003040201C00030C007F7FE00000030400FEFFC00000060801FDFF8000000C1003FBFF000000182007F7FE00000030400FEFFC000000608000
340
16
340
16
340
16
 94
        0
  0
XRECORD
  5
26E
102
{ACAD_REACTORS
330
26D
102
}
330
26D
100
AcDbXrecord
340
242
  0
XRECORD
  5
26F
102
{ACAD_REACTORS
330
26D
102
}
330
26D
100
AcDbXrecord
340
241
  0
DICTIONARYVAR
  5
26A
102
{ACAD_REACTORS
330
23D
102
}
330
23D
100
DictionaryVariables
280
     0
  1
STANDARD
  0
DICTIONARYVAR
  5
26C
102
{ACAD_REACTORS
330
23D
102
}
330
23D
100
DictionaryVariables
280
     0
  1
0
  0
DICTIONARY
  5
270
330
13
100
AcDbDictionary
280
     1
281
     1
  3
ACAD_XREC_ROUNDTRIP
360
271
  0
DICTIONARY
  5
272
330
C
100
AcDbDictionary
280
     1
281
     1
  3
ACAD_XREC_ROUNDTRIP
360
273
  0
XRECORD
  5
271
102
{ACAD_REACTORS
330
270
102
}
330
270
100
AcDbXrecord
102
SHADEPLOT
 70
     0
102
SHADEPLOTRESLEVEL
 70
     2
102
SHADEPLOTCUSTOMDPI
 70
   300
  0
XRECORD
  5
273
102
{ACAD_REACTORS
330
272
102
}
330
272
100
AcDbXrecord
102
SHADEPLOT
 70
     0
102
SHADEPLOTRESLEVEL
 70
     2
102
SHADEPLOTCUSTOMDPI
 70
   300
  0
ENDSEC
  0
EOF
