  0
SECTION
  2
HEADER
  9
$ACADVER
  1
AC1015
  9
$ACADMAINTVER
 70
     6
  9
$DWGCODEPAGE
  3
ANSI_1252
  9
$INSBASE
 10
0.0
 20
0.0
 30
0.0
  9
$EXTMIN
 10
-12.8090514307947
 20
-0.0400389880408056
 30
-0.0015258207003583
  9
$EXTMAX
 10
12.80969244661938
 20
18.35595708987205
 30
0.0000000349246037
  9
$LIMMIN
 10
0.0
 20
0.0
  9
$LIMMAX
 10
42.0
 20
32.0
  9
$ORTHOMODE
 70
     1
  9
$REGENMODE
 70
     1
  9
$FILLMODE
 70
     1
  9
$QTEXTMODE
 70
     0
  9
$MIRRTEXT
 70
     0
  9
$LTSCALE
 40
1.0
  9
$ATTMODE
 70
     1
  9
$TEXTSIZE
 40
0.36
  9
$TRACEWID
 40
0.05
  9
$TEXTSTYLE
  7
STANDARD
  9
$CLAYER
  8
0
  9
$CELTYPE
  6
HIDDEN
  9
$CECOLOR
 62
   256
  9
$CELTSCALE
 40
1.0
  9
$DISPSILH
 70
     0
  9
$DIMSCALE
 40
4.0
  9
$DIMASZ
 40
0.125
  9
$DIMEXO
 40
0.062
  9
$DIMDLI
 40
0.375
  9
$DIMRND
 40
0.0
  9
$DIMDLE
 40
0.0
  9
$DIMEXE
 40
0.08
  9
$DIMTP
 40
0.0
  9
$DIMTM
 40
0.0
  9
$DIMTXT
 40
0.09
  9
$DIMCEN
 40
-0.03125
  9
$DIMTSZ
 40
0.0
  9
$DIMTOL
 70
     0
  9
$DIMLIM
 70
     0
  9
$DIMTIH
 70
     1
  9
$DIMTOH
 70
     1
  9
$DIMSE1
 70
     0
  9
$DIMSE2
 70
     0
  9
$DIMTAD
 70
     0
  9
$DIMZIN
 70
     0
  9
$DIMBLK
  1

  9
$DIMASO
 70
     0
  9
$DIMSHO
 70
     0
  9
$DIMPOST
  1

  9
$DIMAPOST
  1

  9
$DIMALT
 70
     0
  9
$DIMALTD
 70
     2
  9
$DIMALTF
 40
25.4
  9
$DIMLFAC
 40
1.0
  9
$DIMTOFL
 70
     0
  9
$DIMTVP
 40
0.0
  9
$DIMTIX
 70
     0
  9
$DIMSOXD
 70
     0
  9
$DIMSAH
 70
     0
  9
$DIMBLK1
  1

  9
$DIMBLK2
  1

  9
$DIMSTYLE
  2
STANDARD
  9
$DIMCLRD
 70
     0
  9
$DIMCLRE
 70
     0
  9
$DIMCLRT
 70
     0
  9
$DIMTFAC
 40
1.0
  9
$DIMGAP
 40
0.09
  9
$DIMJUST
 70
     0
  9
$DIMSD1
 70
     0
  9
$DIMSD2
 70
     0
  9
$DIMTOLJ
 70
     1
  9
$DIMTZIN
 70
     0
  9
$DIMALTZ
 70
     0
  9
$DIMALTTZ
 70
     0
  9
$DIMUPT
 70
     0
  9
$DIMDEC
 70
     5
  9
$DIMTDEC
 70
     4
  9
$DIMALTU
 70
     2
  9
$DIMALTTD
 70
     2
  9
$DIMTXSTY
  7
STANDARD
  9
$DIMAUNIT
 70
     0
  9
$DIMADEC
 70
     0
  9
$DIMALTRND
 40
0.0
  9
$DIMAZIN
 70
     0
  9
$DIMDSEP
 70
    46
  9
$DIMATFIT
 70
     3
  9
$DIMFRAC
 70
     2
  9
$DIMLDRBLK
  1

  9
$DIMLUNIT
 70
     5
  9
$DIMLWD
 70
    -2
  9
$DIMLWE
 70
    -2
  9
$DIMTMOVE
 70
     2
  9
$LUNITS
 70
     2
  9
$LUPREC
 70
     4
  9
$SKETCHINC
 40
0.1
  9
$FILLETRAD
 40
0.0
  9
$AUNITS
 70
     0
  9
$AUPREC
 70
     0
  9
$MENU
  1
acad
  9
$ELEVATION
 40
0.0
  9
$PELEVATION
 40
0.0
  9
$THICKNESS
 40
0.0
  9
$LIMCHECK
 70
     0
  9
$CHAMFERA
 40
0.0
  9
$CHAMFERB
 40
0.0
  9
$CHAMFERC
 40
0.0
  9
$CHAMFERD
 40
0.0
  9
$SKPOLY
 70
     0
  9
$TDCREATE
 40
2450514.919589815
  9
$TDUCREATE
 40
2450515.252923148
  9
$TDUPDATE
 40
2454165.951618287
  9
$TDUUPDATE
 40
2454166.28495162
  9
$TDINDWG
 40
0.1753683681
  9
$TDUSRTIMER
 40
0.1753683681
  9
$USRTIMER
 70
     1
  9
$ANGBASE
 50
0.0
  9
$ANGDIR
 70
     0
  9
$PDMODE
 70
     0
  9
$PDSIZE
 40
0.0
  9
$PLINEWID
 40
0.0
  9
$SPLFRAME
 70
     0
  9
$SPLINETYPE
 70
     6
  9
$SPLINESEGS
 70
     8
  9
$HANDSEED
  5
264
  9
$SURFTAB1
 70
     6
  9
$SURFTAB2
 70
     6
  9
$SURFTYPE
 70
     6
  9
$SURFU
 70
     6
  9
$SURFV
 70
     6
  9
$UCSBASE
  2

  9
$UCSNAME
  2

  9
$UCSORG
 10
0.0
 20
0.0
 30
0.0
  9
$UCSXDIR
 10
1.0
 20
0.0
 30
0.0
  9
$UCSYDIR
 10
0.0
 20
1.0
 30
0.0
  9
$UCSORTHOREF
  2

  9
$UCSORTHOVIEW
 70
     0
  9
$UCSORGTOP
 10
0.0
 20
0.0
 30
0.0
  9
$UCSORGBOTTOM
 10
0.0
 20
0.0
 30
0.0
  9
$UCSORGLEFT
 10
0.0
 20
0.0
 30
0.0
  9
$UCSORGRIGHT
 10
0.0
 20
0.0
 30
0.0
  9
$UCSORGFRONT
 10
0.0
 20
0.0
 30
0.0
  9
$UCSORGBACK
 10
0.0
 20
0.0
 30
0.0
  9
$PUCSBASE
  2

  9
$PUCSNAME
  2

  9
$PUCSORG
 10
0.0
 20
0.0
 30
0.0
  9
$PUCSXDIR
 10
1.0
 20
0.0
 30
0.0
  9
$PUCSYDIR
 10
0.0
 20
1.0
 30
0.0
  9
$PUCSORTHOREF
  2

  9
$PUCSORTHOVIEW
 70
     0
  9
$PUCSORGTOP
 10
0.0
 20
0.0
 30
0.0
  9
$PUCSORGBOTTOM
 10
0.0
 20
0.0
 30
0.0
  9
$PUCSORGLEFT
 10
0.0
 20
0.0
 30
0.0
  9
$PUCSORGRIGHT
 10
0.0
 20
0.0
 30
0.0
  9
$PUCSORGFRONT
 10
0.0
 20
0.0
 30
0.0
  9
$PUCSORGBACK
 10
0.0
 20
0.0
 30
0.0
  9
$USERI1
 70
     0
  9
$USERI2
 70
     0
  9
$USERI3
 70
     0
  9
$USERI4
 70
     0
  9
$USERI5
 70
     0
  9
$USERR1
 40
0.0
  9
$USERR2
 40
0.0
  9
$USERR3
 40
0.0
  9
$USERR4
 40
0.0
  9
$USERR5
 40
0.0
  9
$WORLDVIEW
 70
     1
  9
$SHADEDGE
 70
     3
  9
$SHADEDIF
 70
    70
  9
$TILEMODE
 70
     1
  9
$MAXACTVP
 70
    16
  9
$PINSBASE
 10
0.0
 20
0.0
 30
0.0
  9
$PLIMCHECK
 70
     0
  9
$PEXTMIN
 10
1.000000000000000E+20
 20
1.000000000000000E+20
 30
1.000000000000000E+20
  9
$PEXTMAX
 10
-1.000000000000000E+20
 20
-1.000000000000000E+20
 30
-1.000000000000000E+20
  9
$PLIMMIN
 10
0.0
 20
0.0
  9
$PLIMMAX
 10
12.0
 20
9.0
  9
$UNITMODE
 70
     0
  9
$VISRETAIN
 70
     0
  9
$PLINEGEN
 70
     0
  9
$PSLTSCALE
 70
     0
  9
$TREEDEPTH
 70
  3020
  9
$CMLSTYLE
  2
STANDARD
  9
$CMLJUST
 70
     0
  9
$CMLSCALE
 40
1.0
  9
$PROXYGRAPHICS
 70
     1
  9
$MEASUREMENT
 70
     0
  9
$CELWEIGHT
370
    -1
  9
$ENDCAPS
280
     0
  9
$JOINSTYLE
280
     0
  9
$LWDISPLAY
290
     0
  9
$INSUNITS
 70
     0
  9
$HYPERLINKBASE
  1

  9
$STYLESHEET
  1

  9
$XEDIT
290
     1
  9
$CEPSNTYPE
380
     0
  9
$PSTYLEMODE
290
     1
  9
$FINGERPRINTGUID
  2
{4A389431-8CC7-11D5-BE3F-00508B5FCD51}
  9
$VERSIONGUID
  2
{6D553A81-A9CE-4371-BCE8-EA768100046A}
  9
$EXTNAMES
290
     1
  9
$PSVPSCALE
 40
0.0
  9
$OLESTARTUP
290
     0
  0
ENDSEC
  0
SECTION
  2
CLASSES
  0
CLASS
  1
DICTIONARYVAR
  2
AcDbDictionaryVar
  3
AutoCAD 2000
 90
        0
280
     0
281
     0
  0
CLASS
  1
LWPOLYLINE
  2
AcDbPolyline
  3
AutoCAD 2000
 90
        0
280
     0
281
     1
  0
CLASS
  1
ACDBDICTIONARYWDFLT
  2
AcDbDictionaryWithDefault
  3
AutoCAD 2000
 90
        0
280
     0
281
     0
  0
CLASS
  1
ACDBPLACEHOLDER
  2
AcDbPlaceHolder
  3
ObjectDBX Classes
 90
        0
280
     0
281
     0
  0
CLASS
  1
LAYOUT
  2
AcDbLayout
  3
ObjectDBX Classes
 90
        0
280
     0
281
     0
  0
CLASS
  1
LONG_TRANSACTION
  2
AcDbLongTransaction
  3
ObjectDBX Classes
 90
   -65536
280
     1
281
     0
  0
CLASS
  1
LWPOLYLINE
  2
AcDbPolyline
  3
AutoCAD 2000
 90
        0
280
     0
281
     1
  0
CLASS
  1
HATCH
  2
AcDbHatch
  3
AutoCAD 2000
 90
        0
280
     0
281
     1
  0
CLASS
  1
XRECORD
  2
AcDbXrecord
  3
AutoCAD 2000
 90
        0
280
     0
281
     0
  0
CLASS
  1
LONG_TRANSACTION
  2
AcDbLongTransaction
  3
ObjectDBX Classes
 90
   -65536
280
     1
281
     0
  0
CLASS
  1
LWPOLYLINE
  2
AcDbPolyline
  3
AutoCAD 2000
 90
        0
280
     0
281
     1
  0
CLASS
  1
HATCH
  2
AcDbHatch
  3
AutoCAD 2000
 90
        0
280
     0
281
     1
  0
CLASS
  1
XRECORD
  2
AcDbXrecord
  3
AutoCAD 2000
 90
        0
280
     0
281
     0
  0
CLASS
  1
LONG_TRANSACTION
  2
AcDbLongTransaction
  3
ObjectDBX Classes
 90
   -65536
280
     1
281
     0
  0
CLASS
  1
LWPOLYLINE
  2
AcDbPolyline
  3
AutoCAD 2000
 90
        0
280
     0
281
     1
  0
CLASS
  1
HATCH
  2
AcDbHatch
  3
AutoCAD 2000
 90
        0
280
     0
281
     1
  0
CLASS
  1
XRECORD
  2
AcDbXrecord
  3
AutoCAD 2000
 90
        0
280
     0
281
     0
  0
CLASS
  1
LONG_TRANSACTION
  2
AcDbLongTransaction
  3
ObjectDBX Classes
 90
   -65536
280
     1
281
     0
  0
CLASS
  1
LWPOLYLINE
  2
AcDbPolyline
  3
AutoCAD 2000
 90
        0
280
     0
281
     1
  0
CLASS
  1
HATCH
  2
AcDbHatch
  3
AutoCAD 2000
 90
        0
280
     0
281
     1
  0
CLASS
  1
XRECORD
  2
AcDbXrecord
  3
AutoCAD 2000
 90
        0
280
     0
281
     0
  0
CLASS
  1
LONG_TRANSACTION
  2
AcDbLongTransaction
  3
ObjectDBX Classes
 90
   -65536
280
     1
281
     0
  0
CLASS
  1
LWPOLYLINE
  2
AcDbPolyline
  3
AutoCAD 2000
 90
        0
280
     0
281
     1
  0
CLASS
  1
HATCH
  2
AcDbHatch
  3
AutoCAD 2000
 90
        0
280
     0
281
     1
  0
CLASS
  1
XRECORD
  2
AcDbXrecord
  3
AutoCAD 2000
 90
        0
280
     0
281
     0
  0
CLASS
  1
LONG_TRANSACTION
  2
AcDbLongTransaction
  3
ObjectDBX Classes
 90
   -65536
280
     1
281
     0
  0
CLASS
  1
LWPOLYLINE
  2
AcDbPolyline
  3
AutoCAD 2000
 90
        0
280
     0
281
     1
  0
CLASS
  1
HATCH
  2
AcDbHatch
  3
AutoCAD 2000
 90
        0
280
     0
281
     1
  0
CLASS
  1
XRECORD
  2
AcDbXrecord
  3
AutoCAD 2000
 90
        0
280
     0
281
     0
  0
CLASS
  1
LONG_TRANSACTION
  2
AcDbLongTransaction
  3
ObjectDBX Classes
 90
   -65536
280
     1
281
     0
  0
CLASS
  1
LWPOLYLINE
  2
AcDbPolyline
  3
AutoCAD 2000
 90
        0
280
     0
281
     1
  0
CLASS
  1
HATCH
  2
AcDbHatch
  3
AutoCAD 2000
 90
        0
280
     0
281
     1
  0
CLASS
  1
XRECORD
  2
AcDbXrecord
  3
AutoCAD 2000
 90
        0
280
     0
281
     0
  0
CLASS
  1
LONG_TRANSACTION
  2
AcDbLongTransaction
  3
ObjectDBX Classes
 90
   -65536
280
     1
281
     0
  0
CLASS
  1
LWPOLYLINE
  2
AcDbPolyline
  3
AutoCAD 2000
 90
        0
280
     0
281
     1
  0
CLASS
  1
HATCH
  2
AcDbHatch
  3
AutoCAD 2000
 90
        0
280
     0
281
     1
  0
CLASS
  1
XRECORD
  2
AcDbXrecord
  3
AutoCAD 2000
 90
        0
280
     0
281
     0
  0
CLASS
  1
TABLESTYLE
  2
AcDbTableStyle
  3
ObjectDBX Classes
 90
     2047
280
     1
281
     0
  0
ENDSEC
  0
SECTION
  2
TABLES
  0
TABLE
  2
VPORT
  5
1D
330
0
100
AcDbSymbolTable
 70
     3
  0
VPORT
  5
254
330
1D
100
AcDbSymbolTableRecord
100
AcDbViewportTableRecord
  2
*Active
 70
     0
 10
0.0
 20
0.0
 11
1.0
 21
1.0
 12
14.59547428460265
 22
15.97998050597959
 13
0.0
 23
0.0
 14
0.03125
 24
0.03125
 15
0.25
 25
0.25
 16
0.0
 26
0.0
 36
1.0
 17
0.0
 27
0.0
 37
0.0
 40
32.43970683404547
 41
1.814583333333333
 42
50.0
 43
0.0
 44
0.0
 50
0.0
 51
0.0
 71
     0
 72
   100
 73
     1
 74
     0
 75
     0
 76
     0
 77
     0
 78
     0
281
     0
 65
     1
110
0.0
120
0.0
130
0.0
111
1.0
121
0.0
131
0.0
112
0.0
122
1.0
132
0.0
 79
     0
146
0.0
  0
ENDTAB
  0
TABLE
  2
LTYPE
  5
18
330
0
100
AcDbSymbolTable
 70
     2
  0
LTYPE
  5
19
330
18
100
AcDbSymbolTableRecord
100
AcDbLinetypeTableRecord
  2
BYBLOCK
 70
     0
  3

 72
    65
 73
     0
 40
0.0
  0
LTYPE
  5
1A
330
18
100
AcDbSymbolTableRecord
100
AcDbLinetypeTableRecord
  2
BYLAYER
 70
     0
  3

 72
    65
 73
     0
 40
0.0
  0
LTYPE
  5
A
330
18
100
AcDbSymbolTableRecord
100
AcDbLinetypeTableRecord
  2
CONTINUOUS
 70
     0
  3
Solid line
 72
    65
 73
     0
 40
0.0
  0
LTYPE
  5
249
330
18
100
AcDbSymbolTableRecord
100
AcDbLinetypeTableRecord
  2
HIDDEN
 70
     0
  3
Hidden __ __ __ __ __ __ __ __ __ __ __ __ __ _
 72
    65
 73
     2
 40
0.375
 49
0.25
 74
     0
 49
-0.125
 74
     0
  0
ENDTAB
  0
TABLE
  2
LAYER
  5
14
330
0
100
AcDbSymbolTable
 70
     1
  0
LAYER
  5
6
330
14
100
AcDbSymbolTableRecord
100
AcDbLayerTableRecord
  2
0
 70
     0
 62
     7
  6
CONTINUOUS
370
    -3
390
7
  0
ENDTAB
  0
TABLE
  2
STYLE
  5
15
330
0
100
AcDbSymbolTable
 70
     2
  0
STYLE
  5
16
330
15
100
AcDbSymbolTableRecord
100
AcDbTextStyleTableRecord
  2
STANDARD
 70
     0
 40
0.0
 41
1.0
 50
0.0
 71
     0
 42
0.36
  3
TXT
  4

  0
STYLE
  5
248
330
15
100
AcDbSymbolTableRecord
100
AcDbTextStyleTableRecord
  2

 70
     1
 40
0.0
 41
1.0
 50
0.0
 71
     0
 42
0.36
  3
ltypeshp.shx
  4

  0
ENDTAB
  0
TABLE
  2
VIEW
  5
1B
330
0
100
AcDbSymbolTable
 70
     0
  0
ENDTAB
  0
TABLE
  2
UCS
  5
1C
330
0
100
AcDbSymbolTable
 70
     0
  0
ENDTAB
  0
TABLE
  2
APPID
  5
1F
330
0
100
AcDbSymbolTable
 70
     1
  0
APPID
  5
20
330
1F
100
AcDbSymbolTableRecord
100
AcDbRegAppTableRecord
  2
ACAD
 70
     0
  0
ENDTAB
  0
TABLE
  2
DIMSTYLE
  5
21
330
0
100
AcDbSymbolTable
 70
     1
100
AcDbDimStyleTable
  0
DIMSTYLE
105
27
330
21
100
AcDbSymbolTableRecord
100
AcDbDimStyleTableRecord
  2
STANDARD
 70
     0
  3

  4

340
16
  0
ENDTAB
  0
TABLE
  2
BLOCK_RECORD
  5
1
330
0
100
AcDbSymbolTable
 70
     0
  0
BLOCK_RECORD
  5
2
330
1
100
AcDbSymbolTableRecord
100
AcDbBlockTableRecord
  2
*MODEL_SPACE
340
C
  0
BLOCK_RECORD
  5
E
330
1
100
AcDbSymbolTableRecord
100
AcDbBlockTableRecord
  2
*PAPER_SPACE
340
13
  0
ENDTAB
  0
ENDSEC
  0
SECTION
  2
BLOCKS
  0
BLOCK
  5
5
330
2
100
AcDbEntity
  8
0
100
AcDbBlockBegin
  2
*MODEL_SPACE
 70
     0
 10
0.0
 20
0.0
 30
0.0
  3
*MODEL_SPACE
  1

  4

  0
ENDBLK
  5
B
330
2
100
AcDbEntity
  8
0
100
AcDbBlockEnd
  0
BLOCK
  5
11
330
E
100
AcDbEntity
 67
     1
  8
0
100
AcDbBlockBegin
  2
*PAPER_SPACE
 70
     0
 10
0.0
 20
0.0
 30
0.0
  3
*PAPER_SPACE
  1

  4

  0
ENDBLK
  5
12
330
E
100
AcDbEntity
 67
     1
  8
0
100
AcDbBlockEnd
  0
ENDSEC
  0
SECTION
  2
ENTITIES
  0
LINE
  5
28
330
2
100
AcDbEntity
  8
0
100
AcDbLine
 10
1.803086674056871
 20
18.12810485369596
 30
0.0
 11
1.803086674056871
 21
14.09685485369596
 31
0.0
  0
LINE
  5
29
330
2
100
AcDbEntity
  8
0
100
AcDbLine
 10
-1.821912949274211
 20
18.12810485369596
 30
0.0
 11
-1.821912949274207
 21
14.09685485369596
 31
0.0
  0
LINE
  5
2A
330
2
100
AcDbEntity
  8
0
100
AcDbLine
 10
1.896836674056871
 20
18.12810485369596
 30
0.0
 11
1.896836674056871
 21
14.09685485369596
 31
0.0
  0
LINE
  5
2B
330
2
100
AcDbEntity
  8
0
100
AcDbLine
 10
-1.915662949274207
 20
18.12810485369596
 30
0.0
 11
-1.915662949274207
 21
14.09685485369596
 31
0.0
  0
ARC
  5
2C
330
2
100
AcDbEntity
  8
0
100
AcDbCircle
 10
-11.15783296890697
 20
6.027723576038721
 30
0.0
 40
0.125
100
AcDbArc
 50
314.9999999999999
 51
0.000000000000007
  0
LINE
  5
2D
330
2
100
AcDbEntity
  8
0
100
AcDbLine
 10
-12.71312804575369
 20
0.1729746157956456
 30
0.0
 11
-12.71312804575369
 21
7.125
 31
0.0
  0
LINE
  5
2E
330
2
100
AcDbEntity
  8
0
100
AcDbLine
 10
-12.80687804575369
 20
0.2499976788802716
 30
0.0
 11
-12.80687804575369
 21
7.125
 31
0.0
  0
LINE
  5
2F
330
2
100
AcDbEntity
  8
0
100
AcDbLine
 10
-10.08093000776326
 20
1.71154391959832
 30
0.0
 11
-8.752502883017087
 21
0.3831167948521639
 31
0.0
  0
LINE
  5
30
330
2
100
AcDbEntity
  8
0
100
AcDbLine
 10
-12.56527588947738
 20
0.0
 30
0.0
 11
-8.54742271133518
 21
-0.0000000000000018
 31
0.0
  0
ARC
  5
31
330
2
100
AcDbEntity
  8
0
100
AcDbCircle
 10
-13.38983586714793
 20
-0.555126145668563
 30
0.0
 40
0.9940141821829845
100
AcDbArc
 50
33.94998761713367
 51
54.09321247863786
  0
ARC
  5
32
330
2
100
AcDbEntity
  8
0
100
AcDbCircle
 10
-11.79070306431759
 20
0.7584834763852317
 30
0.0
 40
0.0320532506230773
100
AcDbArc
 50
236.4891770443175
 51
269.9999999999873
  0
ARC
  5
33
330
2
100
AcDbEntity
  8
0
100
AcDbCircle
 10
-11.77562804575381
 20
0.7812499999998899
 30
0.0
 40
0.0593583926698646
100
AcDbArc
 50
212.028106666621
 51
236.4891770443426
  0
ARC
  5
34
330
2
100
AcDbEntity
  8
0
100
AcDbCircle
 10
-11.75162462023013
 20
0.796265382621673
 30
0.0
 40
0.0876713959042334
100
AcDbArc
 50
194.5265478168138
 51
212.0281066666247
  0
ARC
  5
35
330
2
100
AcDbEntity
  8
0
100
AcDbCircle
 10
-11.71360112505399
 20
0.8061177257621317
 30
0.0
 40
0.126950586969819
100
AcDbArc
 50
179.9999999999872
 51
194.5265478167845
  0
ARC
  5
36
330
2
100
AcDbEntity
  8
0
100
AcDbCircle
 10
-11.71360112505402
 20
0.806117725762185
 30
0.0
 40
0.1269505869697909
100
AcDbArc
 50
165.4734521832139
 51
180.0000000000113
  0
ARC
  5
37
330
2
100
AcDbEntity
  8
0
100
AcDbCircle
 10
-11.75162462023013
 20
0.8159700689026437
 30
0.0
 40
0.0876713959042252
100
AcDbArc
 50
147.9718933333749
 51
165.4734521831872
  0
ARC
  5
38
330
2
100
AcDbEntity
  8
0
100
AcDbCircle
 10
-11.77562804575381
 20
0.8309854515244233
 30
0.0
 40
0.0593583926698636
100
AcDbArc
 50
123.5108229556574
 51
147.971893333379
  0
ARC
  5
39
330
2
100
AcDbEntity
  8
0
100
AcDbCircle
 10
-11.79070306431759
 20
0.8537519751390814
 30
0.0
 40
0.0320532506230772
100
AcDbArc
 50
90.00000000001269
 51
123.5108229556825
  0
ARC
  5
3A
330
2
100
AcDbEntity
  8
0
100
AcDbCircle
 10
-11.79070306431758
 20
0.954278525999321
 30
0.0
 40
0.2864983002371666
100
AcDbArc
 50
253.9689634222553
 51
269.9999999999972
  0
ARC
  5
3B
330
2
100
AcDbEntity
  8
0
100
AcDbCircle
 10
-11.81164504840415
 20
0.881394178062223
 30
0.0
 40
0.2106649640867779
100
AcDbArc
 50
235.2517244545713
 51
253.9689634222627
  0
ARC
  5
3C
330
2
100
AcDbEntity
  8
0
100
AcDbCircle
 10
-11.84364130517382
 20
0.8352688003581719
 30
0.0
 40
0.1545284259354786
100
AcDbArc
 50
210.84247098871
 51
235.2517244545641
  0
ARC
  5
3D
330
2
100
AcDbEntity
  8
0
100
AcDbCircle
 10
-11.8924603740636
 20
0.8061177257621601
 30
0.0
 40
0.0976681881821263
100
AcDbArc
 50
180.0000000000042
 51
210.8424709887161
  0
ARC
  5
3E
330
2
100
AcDbEntity
  8
0
100
AcDbCircle
 10
-11.8924603740636
 20
0.8061177257621495
 30
0.0
 40
0.0976681881821335
100
AcDbArc
 50
149.1575290112843
 51
179.9999999999979
  0
ARC
  5
3F
330
2
100
AcDbEntity
  8
0
100
AcDbCircle
 10
-11.84364130517383
 20
0.7769666511661377
 30
0.0
 40
0.1545284259354683
100
AcDbArc
 50
124.7482755454323
 51
149.1575290112862
  0
ARC
  5
40
330
2
100
AcDbEntity
  8
0
100
AcDbCircle
 10
-11.81164504840412
 20
0.7308412734620848
 30
0.0
 40
0.2106649640867883
100
AcDbArc
 50
106.0310365777425
 51
124.7482755454338
  0
ARC
  5
41
330
2
100
AcDbEntity
  8
0
100
AcDbCircle
 10
-11.79070306431758
 20
0.657956925524994
 30
0.0
 40
0.2864983002371644
100
AcDbArc
 50
90.00000000000284
 51
106.0310365777448
  0
ARC
  5
42
330
2
100
AcDbEntity
  8
0
100
AcDbCircle
 10
-11.79070306431759
 20
0.7439139988288765
 30
0.0
 40
0.0468087730667222
100
AcDbArc
 50
237.3920789847963
 51
269.9999999999913
  0
ARC
  5
43
330
2
100
AcDbEntity
  8
0
100
AcDbCircle
 10
-11.77166056002582
 20
0.7736808655729881
 30
0.0
 40
0.0821454866301529
100
AcDbArc
 50
212.9226719024582
 51
237.3920789848146
  0
ARC
  5
44
330
2
100
AcDbEntity
  8
0
100
AcDbCircle
 10
-11.74140264871276
 20
0.7932725745692224
 30
0.0
 40
0.1181923486076055
100
AcDbArc
 50
195.0133710019919
 51
212.9226719024441
  0
ARC
  5
45
330
2
100
AcDbEntity
  8
0
100
AcDbCircle
 10
-11.69350860237943
 20
0.8061177257621779
 30
0.0
 40
0.1677790160026758
100
AcDbArc
 50
180.0000000000061
 51
195.0133710020035
  0
ARC
  5
46
330
2
100
AcDbEntity
  8
0
100
AcDbCircle
 10
-11.69350860237946
 20
0.8061177257621388
 30
0.0
 40
0.1677790160026476
100
AcDbArc
 50
164.9866289979952
 51
179.9999999999927
  0
ARC
  5
47
330
2
100
AcDbEntity
  8
0
100
AcDbCircle
 10
-11.74140264871277
 20
0.8189628769550943
 30
0.0
 40
0.1181923486075977
100
AcDbArc
 50
147.0773280975555
 51
164.986628998009
  0
ARC
  5
48
330
2
100
AcDbEntity
  8
0
100
AcDbCircle
 10
-11.77166056002581
 20
0.8385545859513215
 30
0.0
 40
0.0821454866301602
100
AcDbArc
 50
122.6079210151883
 51
147.0773280975424
  0
ARC
  5
49
330
2
100
AcDbEntity
  8
0
100
AcDbCircle
 10
-11.79070306431759
 20
0.8683214526954366
 30
0.0
 40
0.0468087730667218
100
AcDbArc
 50
90.00000000000868
 51
122.6079210152037
  0
LINE
  5
4A
330
2
100
AcDbEntity
  8
0
100
AcDbLine
 10
-11.7907030643176
 20
0.6677802257621543
 30
0.0
 11
-11.7907030643176
 21
0.9444552257621588
 31
0.0
  0
ARC
  5
4B
330
2
100
AcDbEntity
  8
0
100
AcDbCircle
 10
-9.282832968906995
 20
-0.1472132910377244
 30
0.0
 40
0.75
100
AcDbArc
 50
11.31976373773759
 51
45.00000000000052
  0
ARC
  5
4C
330
2
100
AcDbEntity
  8
0
100
AcDbCircle
 10
-11.77562804575381
 20
1.830985451524423
 30
0.0
 40
0.0593583926698636
100
AcDbArc
 50
123.5108229556574
 51
147.971893333379
  0
ARC
  5
4D
330
2
100
AcDbEntity
  8
0
100
AcDbCircle
 10
-11.79070306431759
 20
1.853751975139081
 30
0.0
 40
0.0320532506230772
100
AcDbArc
 50
90.00000000001269
 51
123.5108229556825
  0
ARC
  5
4E
330
2
100
AcDbEntity
  8
0
100
AcDbCircle
 10
-11.8924603740636
 20
1.80611772576215
 30
0.0
 40
0.0976681881821335
100
AcDbArc
 50
149.1575290112843
 51
179.9999999999979
  0
ARC
  5
4F
330
2
100
AcDbEntity
  8
0
100
AcDbCircle
 10
-11.84364130517383
 20
1.776966651166138
 30
0.0
 40
0.1545284259354683
100
AcDbArc
 50
124.7482755454323
 51
149.1575290112862
  0
ARC
  5
50
330
2
100
AcDbEntity
  8
0
100
AcDbCircle
 10
-11.81164504840412
 20
1.730841273462085
 30
0.0
 40
0.2106649640867883
100
AcDbArc
 50
106.0310365777425
 51
124.7482755454338
  0
ARC
  5
51
330
2
100
AcDbEntity
  8
0
100
AcDbCircle
 10
-11.79070306431758
 20
1.657956925524994
 30
0.0
 40
0.2864983002371644
100
AcDbArc
 50
90.00000000000284
 51
106.0310365777448
  0
ARC
  5
52
330
2
100
AcDbEntity
  8
0
100
AcDbCircle
 10
-11.69350860237943
 20
1.806117725762178
 30
0.0
 40
0.1677790160026758
100
AcDbArc
 50
180.0000000000061
 51
195.0133710020035
  0
ARC
  5
53
330
2
100
AcDbEntity
  8
0
100
AcDbCircle
 10
-11.69350860237946
 20
1.806117725762139
 30
0.0
 40
0.1677790160026476
100
AcDbArc
 50
164.9866289979952
 51
179.9999999999927
  0
ARC
  5
54
330
2
100
AcDbEntity
  8
0
100
AcDbCircle
 10
-11.74140264871277
 20
1.818962876955094
 30
0.0
 40
0.1181923486075977
100
AcDbArc
 50
147.0773280975555
 51
164.986628998009
  0
ARC
  5
55
330
2
100
AcDbEntity
  8
0
100
AcDbCircle
 10
-11.77166056002581
 20
1.838554585951322
 30
0.0
 40
0.0821454866301602
100
AcDbArc
 50
122.6079210151883
 51
147.0773280975424
  0
ARC
  5
56
330
2
100
AcDbEntity
  8
0
100
AcDbCircle
 10
-11.79070306431759
 20
1.868321452695437
 30
0.0
 40
0.0468087730667218
100
AcDbArc
 50
90.00000000000868
 51
122.6079210152037
  0
ARC
  5
57
330
2
100
AcDbEntity
  8
0
100
AcDbCircle
 10
-11.71360112505399
 20
1.806117725762132
 30
0.0
 40
0.126950586969819
100
AcDbArc
 50
179.9999999999872
 51
194.5265478167845
  0
ARC
  5
58
330
2
100
AcDbEntity
  8
0
100
AcDbCircle
 10
-11.71360112505402
 20
1.806117725762185
 30
0.0
 40
0.1269505869697909
100
AcDbArc
 50
165.4734521832139
 51
180.0000000000113
  0
ARC
  5
59
330
2
100
AcDbEntity
  8
0
100
AcDbCircle
 10
-11.75162462023013
 20
1.815970068902644
 30
0.0
 40
0.0876713959042252
100
AcDbArc
 50
147.9718933333749
 51
165.4734521831872
  0
ARC
  5
5A
330
2
100
AcDbEntity
  8
0
100
AcDbCircle
 10
-11.79070306431758
 20
1.954278525999321
 30
0.0
 40
0.2864983002371666
100
AcDbArc
 50
253.9689634222553
 51
269.9999999999972
  0
ARC
  5
5B
330
2
100
AcDbEntity
  8
0
100
AcDbCircle
 10
-11.81164504840415
 20
1.881394178062223
 30
0.0
 40
0.2106649640867779
100
AcDbArc
 50
235.2517244545713
 51
253.9689634222627
  0
ARC
  5
5C
330
2
100
AcDbEntity
  8
0
100
AcDbCircle
 10
-11.79070306431759
 20
1.743913998828877
 30
0.0
 40
0.0468087730667222
100
AcDbArc
 50
237.3920789847963
 51
269.9999999999913
  0
ARC
  5
5D
330
2
100
AcDbEntity
  8
0
100
AcDbCircle
 10
-11.77166056002582
 20
1.773680865572988
 30
0.0
 40
0.0821454866301529
100
AcDbArc
 50
212.9226719024582
 51
237.3920789848146
  0
ARC
  5
5E
330
2
100
AcDbEntity
  8
0
100
AcDbCircle
 10
-11.79070306431759
 20
1.758483476385232
 30
0.0
 40
0.0320532506230773
100
AcDbArc
 50
236.4891770443175
 51
269.9999999999873
  0
ARC
  5
5F
330
2
100
AcDbEntity
  8
0
100
AcDbCircle
 10
-11.77562804575381
 20
1.78124999999989
 30
0.0
 40
0.0593583926698646
100
AcDbArc
 50
212.028106666621
 51
236.4891770443426
  0
ARC
  5
60
330
2
100
AcDbEntity
  8
0
100
AcDbCircle
 10
-11.84364130517382
 20
1.835268800358172
 30
0.0
 40
0.1545284259354786
100
AcDbArc
 50
210.84247098871
 51
235.2517244545641
  0
ARC
  5
61
330
2
100
AcDbEntity
  8
0
100
AcDbCircle
 10
-11.8924603740636
 20
1.80611772576216
 30
0.0
 40
0.0976681881821263
100
AcDbArc
 50
180.0000000000042
 51
210.8424709887161
  0
ARC
  5
62
330
2
100
AcDbEntity
  8
0
100
AcDbCircle
 10
-11.74140264871276
 20
1.793272574569222
 30
0.0
 40
0.1181923486076055
100
AcDbArc
 50
195.0133710019919
 51
212.9226719024441
  0
ARC
  5
63
330
2
100
AcDbEntity
  8
0
100
AcDbCircle
 10
-11.75162462023013
 20
1.796265382621673
 30
0.0
 40
0.0876713959042334
100
AcDbArc
 50
194.5265478168138
 51
212.0281066666247
  0
LINE
  5
64
330
2
100
AcDbEntity
  8
0
100
AcDbLine
 10
-11.7907030643176
 20
1.667780225762154
 30
0.0
 11
-11.7907030643176
 21
1.944455225762159
 31
0.0
  0
ARC
  5
65
330
2
100
AcDbEntity
  8
0
100
AcDbCircle
 10
-11.74140264871277
 20
2.818962876955094
 30
0.0
 40
0.1181923486075977
100
AcDbArc
 50
147.0773280975555
 51
164.986628998009
  0
ARC
  5
66
330
2
100
AcDbEntity
  8
0
100
AcDbCircle
 10
-11.84364130517383
 20
2.776966651166138
 30
0.0
 40
0.1545284259354683
100
AcDbArc
 50
124.7482755454323
 51
149.1575290112862
  0
ARC
  5
67
330
2
100
AcDbEntity
  8
0
100
AcDbCircle
 10
-11.77562804575381
 20
2.830985451524423
 30
0.0
 40
0.0593583926698636
100
AcDbArc
 50
123.5108229556574
 51
147.971893333379
  0
LINE
  5
68
330
2
100
AcDbEntity
  8
0
100
AcDbLine
 10
-11.7907030643176
 20
2.667780225762154
 30
0.0
 11
-11.7907030643176
 21
2.944455225762159
 31
0.0
  0
ARC
  5
69
330
2
100
AcDbEntity
  8
0
100
AcDbCircle
 10
-11.79070306431759
 20
2.743913998828877
 30
0.0
 40
0.0468087730667222
100
AcDbArc
 50
237.3920789847963
 51
269.9999999999913
  0
ARC
  5
6A
330
2
100
AcDbEntity
  8
0
100
AcDbCircle
 10
-11.77166056002582
 20
2.773680865572988
 30
0.0
 40
0.0821454866301529
100
AcDbArc
 50
212.9226719024582
 51
237.3920789848146
  0
ARC
  5
6B
330
2
100
AcDbEntity
  8
0
100
AcDbCircle
 10
-11.74140264871276
 20
2.793272574569222
 30
0.0
 40
0.1181923486076055
100
AcDbArc
 50
195.0133710019919
 51
212.9226719024441
  0
ARC
  5
6C
330
2
100
AcDbEntity
  8
0
100
AcDbCircle
 10
-11.69350860237943
 20
2.806117725762178
 30
0.0
 40
0.1677790160026758
100
AcDbArc
 50
180.0000000000061
 51
195.0133710020035
  0
ARC
  5
6D
330
2
100
AcDbEntity
  8
0
100
AcDbCircle
 10
-11.69350860237946
 20
2.806117725762139
 30
0.0
 40
0.1677790160026476
100
AcDbArc
 50
164.9866289979952
 51
179.9999999999927
  0
ARC
  5
6E
330
2
100
AcDbEntity
  8
0
100
AcDbCircle
 10
-11.79070306431758
 20
2.954278525999321
 30
0.0
 40
0.2864983002371666
100
AcDbArc
 50
253.9689634222553
 51
269.9999999999972
  0
ARC
  5
6F
330
2
100
AcDbEntity
  8
0
100
AcDbCircle
 10
-11.81164504840415
 20
2.881394178062223
 30
0.0
 40
0.2106649640867779
100
AcDbArc
 50
235.2517244545713
 51
253.9689634222627
  0
ARC
  5
70
330
2
100
AcDbEntity
  8
0
100
AcDbCircle
 10
-11.84364130517382
 20
2.835268800358172
 30
0.0
 40
0.1545284259354786
100
AcDbArc
 50
210.84247098871
 51
235.2517244545641
  0
ARC
  5
71
330
2
100
AcDbEntity
  8
0
100
AcDbCircle
 10
-11.8924603740636
 20
2.80611772576216
 30
0.0
 40
0.0976681881821263
100
AcDbArc
 50
180.0000000000042
 51
210.8424709887161
  0
ARC
  5
72
330
2
100
AcDbEntity
  8
0
100
AcDbCircle
 10
-11.8924603740636
 20
2.80611772576215
 30
0.0
 40
0.0976681881821335
100
AcDbArc
 50
149.1575290112843
 51
179.9999999999979
  0
ARC
  5
73
330
2
100
AcDbEntity
  8
0
100
AcDbCircle
 10
-11.79070306431759
 20
2.758483476385232
 30
0.0
 40
0.0320532506230773
100
AcDbArc
 50
236.4891770443175
 51
269.9999999999873
  0
ARC
  5
74
330
2
100
AcDbEntity
  8
0
100
AcDbCircle
 10
-11.77562804575381
 20
2.78124999999989
 30
0.0
 40
0.0593583926698646
100
AcDbArc
 50
212.028106666621
 51
236.4891770443426
  0
ARC
  5
75
330
2
100
AcDbEntity
  8
0
100
AcDbCircle
 10
-11.75162462023013
 20
2.796265382621673
 30
0.0
 40
0.0876713959042334
100
AcDbArc
 50
194.5265478168138
 51
212.0281066666247
  0
ARC
  5
76
330
2
100
AcDbEntity
  8
0
100
AcDbCircle
 10
-11.71360112505399
 20
2.806117725762132
 30
0.0
 40
0.126950586969819
100
AcDbArc
 50
179.9999999999872
 51
194.5265478167845
  0
ARC
  5
77
330
2
100
AcDbEntity
  8
0
100
AcDbCircle
 10
-11.71360112505402
 20
2.806117725762185
 30
0.0
 40
0.1269505869697909
100
AcDbArc
 50
165.4734521832139
 51
180.0000000000113
  0
ARC
  5
78
330
2
100
AcDbEntity
  8
0
100
AcDbCircle
 10
-11.75162462023013
 20
2.815970068902644
 30
0.0
 40
0.0876713959042252
100
AcDbArc
 50
147.9718933333749
 51
165.4734521831872
  0
ARC
  5
79
330
2
100
AcDbEntity
  8
0
100
AcDbCircle
 10
-11.77166056002581
 20
2.838554585951322
 30
0.0
 40
0.0821454866301602
100
AcDbArc
 50
122.6079210151883
 51
147.0773280975424
  0
ARC
  5
7A
330
2
100
AcDbEntity
  8
0
100
AcDbCircle
 10
-11.79070306431759
 20
2.868321452695437
 30
0.0
 40
0.0468087730667218
100
AcDbArc
 50
90.00000000000868
 51
122.6079210152037
  0
ARC
  5
7B
330
2
100
AcDbEntity
  8
0
100
AcDbCircle
 10
-11.81164504840412
 20
2.730841273462085
 30
0.0
 40
0.2106649640867883
100
AcDbArc
 50
106.0310365777425
 51
124.7482755454338
  0
ARC
  5
7C
330
2
100
AcDbEntity
  8
0
100
AcDbCircle
 10
-11.79070306431758
 20
2.657956925524994
 30
0.0
 40
0.2864983002371644
100
AcDbArc
 50
90.00000000000284
 51
106.0310365777448
  0
ARC
  5
7D
330
2
100
AcDbEntity
  8
0
100
AcDbCircle
 10
-11.79070306431759
 20
2.853751975139081
 30
0.0
 40
0.0320532506230772
100
AcDbArc
 50
90.00000000001269
 51
123.5108229556825
  0
ARC
  5
7E
330
2
100
AcDbEntity
  8
0
100
AcDbCircle
 10
-11.74140264871276
 20
4.793272574569222
 30
0.0
 40
0.1181923486076055
100
AcDbArc
 50
195.0133710019919
 51
212.9226719024441
  0
ARC
  5
7F
330
2
100
AcDbEntity
  8
0
100
AcDbCircle
 10
-11.84364130517382
 20
4.835268800358172
 30
0.0
 40
0.1545284259354786
100
AcDbArc
 50
210.84247098871
 51
235.2517244545641
  0
ARC
  5
80
330
2
100
AcDbEntity
  8
0
100
AcDbCircle
 10
-11.77562804575381
 20
4.78124999999989
 30
0.0
 40
0.0593583926698646
100
AcDbArc
 50
212.028106666621
 51
236.4891770443426
  0
ARC
  5
81
330
2
100
AcDbEntity
  8
0
100
AcDbCircle
 10
-11.75162462023013
 20
4.796265382621673
 30
0.0
 40
0.0876713959042334
100
AcDbArc
 50
194.5265478168138
 51
212.0281066666247
  0
LINE
  5
82
330
2
100
AcDbEntity
  8
0
100
AcDbLine
 10
-11.7907030643176
 20
4.667780225762154
 30
0.0
 11
-11.7907030643176
 21
4.944455225762159
 31
0.0
  0
ARC
  5
83
330
2
100
AcDbEntity
  8
0
100
AcDbCircle
 10
-11.79070306431759
 20
3.743913998828877
 30
0.0
 40
0.0468087730667222
100
AcDbArc
 50
237.3920789847963
 51
269.9999999999913
  0
ARC
  5
84
330
2
100
AcDbEntity
  8
0
100
AcDbCircle
 10
-11.77166056002582
 20
3.773680865572988
 30
0.0
 40
0.0821454866301529
100
AcDbArc
 50
212.9226719024582
 51
237.3920789848146
  0
ARC
  5
85
330
2
100
AcDbEntity
  8
0
100
AcDbCircle
 10
-11.74140264871276
 20
3.793272574569222
 30
0.0
 40
0.1181923486076055
100
AcDbArc
 50
195.0133710019919
 51
212.9226719024441
  0
ARC
  5
86
330
2
100
AcDbEntity
  8
0
100
AcDbCircle
 10
-11.69350860237943
 20
3.806117725762178
 30
0.0
 40
0.1677790160026758
100
AcDbArc
 50
180.0000000000061
 51
195.0133710020035
  0
ARC
  5
87
330
2
100
AcDbEntity
  8
0
100
AcDbCircle
 10
-11.69350860237946
 20
3.806117725762139
 30
0.0
 40
0.1677790160026476
100
AcDbArc
 50
164.9866289979952
 51
179.9999999999927
  0
ARC
  5
88
330
2
100
AcDbEntity
  8
0
100
AcDbCircle
 10
-11.74140264871277
 20
3.818962876955094
 30
0.0
 40
0.1181923486075977
100
AcDbArc
 50
147.0773280975555
 51
164.986628998009
  0
ARC
  5
89
330
2
100
AcDbEntity
  8
0
100
AcDbCircle
 10
-11.77166056002581
 20
3.838554585951322
 30
0.0
 40
0.0821454866301602
100
AcDbArc
 50
122.6079210151883
 51
147.0773280975424
  0
ARC
  5
8A
330
2
100
AcDbEntity
  8
0
100
AcDbCircle
 10
-11.79070306431759
 20
3.868321452695437
 30
0.0
 40
0.0468087730667218
100
AcDbArc
 50
90.00000000000868
 51
122.6079210152037
  0
ARC
  5
8B
330
2
100
AcDbEntity
  8
0
100
AcDbCircle
 10
-11.79070306431758
 20
3.954278525999321
 30
0.0
 40
0.2864983002371666
100
AcDbArc
 50
253.9689634222553
 51
269.9999999999972
  0
ARC
  5
8C
330
2
100
AcDbEntity
  8
0
100
AcDbCircle
 10
-11.81164504840415
 20
3.881394178062223
 30
0.0
 40
0.2106649640867779
100
AcDbArc
 50
235.2517244545713
 51
253.9689634222627
  0
ARC
  5
8D
330
2
100
AcDbEntity
  8
0
100
AcDbCircle
 10
-11.84364130517382
 20
3.835268800358172
 30
0.0
 40
0.1545284259354786
100
AcDbArc
 50
210.84247098871
 51
235.2517244545641
  0
ARC
  5
8E
330
2
100
AcDbEntity
  8
0
100
AcDbCircle
 10
-11.8924603740636
 20
3.80611772576216
 30
0.0
 40
0.0976681881821263
100
AcDbArc
 50
180.0000000000042
 51
210.8424709887161
  0
ARC
  5
8F
330
2
100
AcDbEntity
  8
0
100
AcDbCircle
 10
-11.8924603740636
 20
3.80611772576215
 30
0.0
 40
0.0976681881821335
100
AcDbArc
 50
149.1575290112843
 51
179.9999999999979
  0
ARC
  5
90
330
2
100
AcDbEntity
  8
0
100
AcDbCircle
 10
-11.84364130517383
 20
3.776966651166138
 30
0.0
 40
0.1545284259354683
100
AcDbArc
 50
124.7482755454323
 51
149.1575290112862
  0
ARC
  5
91
330
2
100
AcDbEntity
  8
0
100
AcDbCircle
 10
-11.81164504840412
 20
3.730841273462085
 30
0.0
 40
0.2106649640867883
100
AcDbArc
 50
106.0310365777425
 51
124.7482755454338
  0
ARC
  5
92
330
2
100
AcDbEntity
  8
0
100
AcDbCircle
 10
-11.79070306431758
 20
3.657956925524994
 30
0.0
 40
0.2864983002371644
100
AcDbArc
 50
90.00000000000284
 51
106.0310365777448
  0
ARC
  5
93
330
2
100
AcDbEntity
  8
0
100
AcDbCircle
 10
-11.79070306431759
 20
3.758483476385232
 30
0.0
 40
0.0320532506230773
100
AcDbArc
 50
236.4891770443175
 51
269.9999999999873
  0
ARC
  5
94
330
2
100
AcDbEntity
  8
0
100
AcDbCircle
 10
-11.77562804575381
 20
3.78124999999989
 30
0.0
 40
0.0593583926698646
100
AcDbArc
 50
212.028106666621
 51
236.4891770443426
  0
ARC
  5
95
330
2
100
AcDbEntity
  8
0
100
AcDbCircle
 10
-11.75162462023013
 20
3.796265382621673
 30
0.0
 40
0.0876713959042334
100
AcDbArc
 50
194.5265478168138
 51
212.0281066666247
  0
ARC
  5
96
330
2
100
AcDbEntity
  8
0
100
AcDbCircle
 10
-11.71360112505399
 20
3.806117725762132
 30
0.0
 40
0.126950586969819
100
AcDbArc
 50
179.9999999999872
 51
194.5265478167845
  0
ARC
  5
97
330
2
100
AcDbEntity
  8
0
100
AcDbCircle
 10
-11.71360112505402
 20
3.806117725762185
 30
0.0
 40
0.1269505869697909
100
AcDbArc
 50
165.4734521832139
 51
180.0000000000113
  0
ARC
  5
98
330
2
100
AcDbEntity
  8
0
100
AcDbCircle
 10
-11.75162462023013
 20
3.815970068902644
 30
0.0
 40
0.0876713959042252
100
AcDbArc
 50
147.9718933333749
 51
165.4734521831872
  0
ARC
  5
99
330
2
100
AcDbEntity
  8
0
100
AcDbCircle
 10
-11.77562804575381
 20
3.830985451524423
 30
0.0
 40
0.0593583926698636
100
AcDbArc
 50
123.5108229556574
 51
147.971893333379
  0
ARC
  5
9A
330
2
100
AcDbEntity
  8
0
100
AcDbCircle
 10
-11.79070306431759
 20
3.853751975139081
 30
0.0
 40
0.0320532506230772
100
AcDbArc
 50
90.00000000001269
 51
123.5108229556825
  0
LINE
  5
9B
330
2
100
AcDbEntity
  8
0
100
AcDbLine
 10
-11.7907030643176
 20
3.667780225762154
 30
0.0
 11
-11.7907030643176
 21
3.944455225762159
 31
0.0
  0
ARC
  5
9C
330
2
100
AcDbEntity
  8
0
100
AcDbCircle
 10
-11.79070306431759
 20
4.743913998828877
 30
0.0
 40
0.0468087730667222
100
AcDbArc
 50
237.3920789847963
 51
269.9999999999913
  0
ARC
  5
9D
330
2
100
AcDbEntity
  8
0
100
AcDbCircle
 10
-11.77166056002582
 20
4.773680865572988
 30
0.0
 40
0.0821454866301529
100
AcDbArc
 50
212.9226719024582
 51
237.3920789848146
  0
ARC
  5
9E
330
2
100
AcDbEntity
  8
0
100
AcDbCircle
 10
-11.79070306431758
 20
4.954278525999321
 30
0.0
 40
0.2864983002371666
100
AcDbArc
 50
253.9689634222553
 51
269.9999999999972
  0
ARC
  5
9F
330
2
100
AcDbEntity
  8
0
100
AcDbCircle
 10
-11.81164504840415
 20
4.881394178062223
 30
0.0
 40
0.2106649640867779
100
AcDbArc
 50
235.2517244545713
 51
253.9689634222627
  0
ARC
  5
A0
330
2
100
AcDbEntity
  8
0
100
AcDbCircle
 10
-11.79070306431759
 20
4.758483476385234
 30
0.0
 40
0.0320532506230791
100
AcDbArc
 50
236.4891770443192
 51
269.9999999999873
  0
ARC
  5
A1
330
2
100
AcDbEntity
  8
0
100
AcDbCircle
 10
-11.77166056002581
 20
4.838554585951325
 30
0.0
 40
0.0821454866301583
100
AcDbArc
 50
122.6079210151897
 51
147.0773280975445
  0
ARC
  5
A2
330
2
100
AcDbEntity
  8
0
100
AcDbCircle
 10
-11.79070306431759
 20
4.868321452695437
 30
0.0
 40
0.0468087730667218
100
AcDbArc
 50
90.00000000000868
 51
122.6079210152037
  0
ARC
  5
A3
330
2
100
AcDbEntity
  8
0
100
AcDbCircle
 10
-11.81164504840412
 20
4.730841273462087
 30
0.0
 40
0.2106649640867868
100
AcDbArc
 50
106.0310365777426
 51
124.7482755454341
  0
ARC
  5
A4
330
2
100
AcDbEntity
  8
0
100
AcDbCircle
 10
-11.79070306431758
 20
4.657956925524996
 30
0.0
 40
0.2864983002371627
100
AcDbArc
 50
90.00000000000284
 51
106.0310365777449
  0
ARC
  5
A5
330
2
100
AcDbEntity
  8
0
100
AcDbCircle
 10
-11.69350860237943
 20
4.806117725762178
 30
0.0
 40
0.1677790160026758
100
AcDbArc
 50
180.0000000000061
 51
195.0133710020035
  0
ARC
  5
A6
330
2
100
AcDbEntity
  8
0
100
AcDbCircle
 10
-11.69350860237946
 20
4.806117725762139
 30
0.0
 40
0.1677790160026476
100
AcDbArc
 50
164.9866289979952
 51
179.9999999999927
  0
ARC
  5
A7
330
2
100
AcDbEntity
  8
0
100
AcDbCircle
 10
-11.8924603740636
 20
4.80611772576216
 30
0.0
 40
0.0976681881821263
100
AcDbArc
 50
180.0000000000042
 51
210.8424709887161
  0
ARC
  5
A8
330
2
100
AcDbEntity
  8
0
100
AcDbCircle
 10
-11.8924603740636
 20
4.80611772576215
 30
0.0
 40
0.0976681881821335
100
AcDbArc
 50
149.1575290112843
 51
179.9999999999979
  0
ARC
  5
A9
330
2
100
AcDbEntity
  8
0
100
AcDbCircle
 10
-11.71360112505399
 20
4.806117725762132
 30
0.0
 40
0.126950586969819
100
AcDbArc
 50
179.9999999999872
 51
194.5265478167845
  0
ARC
  5
AA
330
2
100
AcDbEntity
  8
0
100
AcDbCircle
 10
-11.71360112505402
 20
4.806117725762181
 30
0.0
 40
0.1269505869697909
100
AcDbArc
 50
165.4734521832123
 51
180.0000000000096
  0
ARC
  5
AB
330
2
100
AcDbEntity
  8
0
100
AcDbCircle
 10
-11.75162462023013
 20
4.815970068902644
 30
0.0
 40
0.0876713959042252
100
AcDbArc
 50
147.9718933333749
 51
165.4734521831872
  0
ARC
  5
AC
330
2
100
AcDbEntity
  8
0
100
AcDbCircle
 10
-11.74140264871277
 20
4.818962876955094
 30
0.0
 40
0.1181923486075977
100
AcDbArc
 50
147.0773280975555
 51
164.986628998009
  0
ARC
  5
AD
330
2
100
AcDbEntity
  8
0
100
AcDbCircle
 10
-11.84364130517383
 20
4.776966651166138
 30
0.0
 40
0.1545284259354683
100
AcDbArc
 50
124.7482755454323
 51
149.1575290112862
  0
ARC
  5
AE
330
2
100
AcDbEntity
  8
0
100
AcDbCircle
 10
-11.77562804575381
 20
4.830985451524423
 30
0.0
 40
0.0593583926698636
100
AcDbArc
 50
123.5108229556574
 51
147.971893333379
  0
ARC
  5
AF
330
2
100
AcDbEntity
  8
0
100
AcDbCircle
 10
-11.79070306431759
 20
4.85375197513908
 30
0.0
 40
0.0320532506230786
100
AcDbArc
 50
90.00000000001269
 51
123.5108229556808
  0
ARC
  5
B0
330
2
100
AcDbEntity
  8
0
100
AcDbCircle
 10
-11.79070306431759
 20
5.743913998828877
 30
0.0
 40
0.0468087730667222
100
AcDbArc
 50
237.3920789847963
 51
269.9999999999913
  0
ARC
  5
B1
330
2
100
AcDbEntity
  8
0
100
AcDbCircle
 10
-11.77166056002582
 20
5.773680865572988
 30
0.0
 40
0.0821454866301529
100
AcDbArc
 50
212.9226719024582
 51
237.3920789848146
  0
ARC
  5
B2
330
2
100
AcDbEntity
  8
0
100
AcDbCircle
 10
-11.74140264871276
 20
5.793272574569222
 30
0.0
 40
0.1181923486076055
100
AcDbArc
 50
195.0133710019919
 51
212.9226719024441
  0
ARC
  5
B3
330
2
100
AcDbEntity
  8
0
100
AcDbCircle
 10
-11.69350860237943
 20
5.806117725762178
 30
0.0
 40
0.1677790160026758
100
AcDbArc
 50
180.0000000000061
 51
195.0133710020035
  0
ARC
  5
B4
330
2
100
AcDbEntity
  8
0
100
AcDbCircle
 10
-11.69350860237946
 20
5.806117725762139
 30
0.0
 40
0.1677790160026476
100
AcDbArc
 50
164.9866289979952
 51
179.9999999999927
  0
ARC
  5
B5
330
2
100
AcDbEntity
  8
0
100
AcDbCircle
 10
-11.74140264871277
 20
5.818962876955094
 30
0.0
 40
0.1181923486075977
100
AcDbArc
 50
147.0773280975555
 51
164.986628998009
  0
ARC
  5
B6
330
2
100
AcDbEntity
  8
0
100
AcDbCircle
 10
-11.77166056002581
 20
5.838554585951325
 30
0.0
 40
0.0821454866301583
100
AcDbArc
 50
122.6079210151897
 51
147.0773280975445
  0
ARC
  5
B7
330
2
100
AcDbEntity
  8
0
100
AcDbCircle
 10
-11.79070306431759
 20
5.868321452695437
 30
0.0
 40
0.0468087730667218
100
AcDbArc
 50
90.00000000000868
 51
122.6079210152037
  0
ARC
  5
B8
330
2
100
AcDbEntity
  8
0
100
AcDbCircle
 10
-11.79070306431758
 20
5.954278525999321
 30
0.0
 40
0.2864983002371666
100
AcDbArc
 50
253.9689634222553
 51
269.9999999999972
  0
ARC
  5
B9
330
2
100
AcDbEntity
  8
0
100
AcDbCircle
 10
-11.81164504840415
 20
5.881394178062223
 30
0.0
 40
0.2106649640867779
100
AcDbArc
 50
235.2517244545713
 51
253.9689634222627
  0
ARC
  5
BA
330
2
100
AcDbEntity
  8
0
100
AcDbCircle
 10
-11.84364130517382
 20
5.835268800358172
 30
0.0
 40
0.1545284259354786
100
AcDbArc
 50
210.84247098871
 51
235.2517244545641
  0
ARC
  5
BB
330
2
100
AcDbEntity
  8
0
100
AcDbCircle
 10
-11.8924603740636
 20
5.80611772576216
 30
0.0
 40
0.0976681881821263
100
AcDbArc
 50
180.0000000000042
 51
210.8424709887161
  0
ARC
  5
BC
330
2
100
AcDbEntity
  8
0
100
AcDbCircle
 10
-11.8924603740636
 20
5.80611772576215
 30
0.0
 40
0.0976681881821335
100
AcDbArc
 50
149.1575290112843
 51
179.9999999999979
  0
ARC
  5
BD
330
2
100
AcDbEntity
  8
0
100
AcDbCircle
 10
-11.84364130517383
 20
5.776966651166138
 30
0.0
 40
0.1545284259354683
100
AcDbArc
 50
124.7482755454323
 51
149.1575290112862
  0
ARC
  5
BE
330
2
100
AcDbEntity
  8
0
100
AcDbCircle
 10
-11.81164504840412
 20
5.730841273462087
 30
0.0
 40
0.2106649640867868
100
AcDbArc
 50
106.0310365777426
 51
124.7482755454341
  0
ARC
  5
BF
330
2
100
AcDbEntity
  8
0
100
AcDbCircle
 10
-11.79070306431758
 20
5.657956925524996
 30
0.0
 40
0.2864983002371627
100
AcDbArc
 50
90.00000000000284
 51
106.0310365777449
  0
ARC
  5
C0
330
2
100
AcDbEntity
  8
0
100
AcDbCircle
 10
-11.79070306431759
 20
5.758483476385234
 30
0.0
 40
0.0320532506230791
100
AcDbArc
 50
236.4891770443192
 51
269.9999999999873
  0
ARC
  5
C1
330
2
100
AcDbEntity
  8
0
100
AcDbCircle
 10
-11.77562804575381
 20
5.78124999999989
 30
0.0
 40
0.0593583926698646
100
AcDbArc
 50
212.028106666621
 51
236.4891770443426
  0
ARC
  5
C2
330
2
100
AcDbEntity
  8
0
100
AcDbCircle
 10
-11.75162462023013
 20
5.796265382621673
 30
0.0
 40
0.0876713959042334
100
AcDbArc
 50
194.5265478168138
 51
212.0281066666247
  0
ARC
  5
C3
330
2
100
AcDbEntity
  8
0
100
AcDbCircle
 10
-11.71360112505399
 20
5.806117725762132
 30
0.0
 40
0.126950586969819
100
AcDbArc
 50
179.9999999999872
 51
194.5265478167845
  0
ARC
  5
C4
330
2
100
AcDbEntity
  8
0
100
AcDbCircle
 10
-11.71360112505402
 20
5.806117725762181
 30
0.0
 40
0.1269505869697909
100
AcDbArc
 50
165.4734521832123
 51
180.0000000000096
  0
ARC
  5
C5
330
2
100
AcDbEntity
  8
0
100
AcDbCircle
 10
-11.75162462023013
 20
5.815970068902644
 30
0.0
 40
0.0876713959042252
100
AcDbArc
 50
147.9718933333749
 51
165.4734521831872
  0
ARC
  5
C6
330
2
100
AcDbEntity
  8
0
100
AcDbCircle
 10
-11.77562804575381
 20
5.830985451524423
 30
0.0
 40
0.0593583926698636
100
AcDbArc
 50
123.5108229556574
 51
147.971893333379
  0
ARC
  5
C7
330
2
100
AcDbEntity
  8
0
100
AcDbCircle
 10
-11.79070306431759
 20
5.85375197513908
 30
0.0
 40
0.0320532506230786
100
AcDbArc
 50
90.00000000001269
 51
123.5108229556808
  0
LINE
  5
C8
330
2
100
AcDbEntity
  8
0
100
AcDbLine
 10
-11.7907030643176
 20
5.667780225762154
 30
0.0
 11
-11.7907030643176
 21
5.944455225762159
 31
0.0
  0
ARC
  5
C9
330
2
100
AcDbEntity
  8
0
100
AcDbCircle
 10
-7.782832968906966
 20
4.009640958454646
 30
0.0
 40
3.25
100
AcDbArc
 50
180.0
 51
225.0000000000005
  0
LINE
  5
CA
330
2
100
AcDbEntity
  8
0
100
AcDbLine
 10
-11.30872131655529
 20
4.876835228390402
 30
0.0
 11
-11.06944462125865
 21
4.637558533093763
 31
0.0
  0
LINE
  5
CB
330
2
100
AcDbEntity
  8
0
100
AcDbLine
 10
-11.03283296890697
 20
4.009640958454646
 30
0.0
 11
-11.03283296890697
 21
4.549170185445437
 31
0.0
  0
ARC
  5
CC
330
2
100
AcDbEntity
  8
0
100
AcDbCircle
 10
-11.15783296890697
 20
4.549170185445437
 30
0.0
 40
0.125
100
AcDbArc
 50
0.000000000000007
 51
45.00000000000016
  0
LINE
  5
CD
330
2
100
AcDbEntity
  8
0
100
AcDbLine
 10
-11.34533296890697
 20
5.611670185445444
 30
0.0
 11
-11.34533296890697
 21
4.965223576038721
 31
0.0
  0
ARC
  5
CE
330
2
100
AcDbEntity
  8
0
100
AcDbCircle
 10
-11.22033296890697
 20
4.965223576038721
 30
0.0
 40
0.125
100
AcDbArc
 50
180.0
 51
225.0000000000003
  0
LINE
  5
CF
330
2
100
AcDbEntity
  8
0
100
AcDbLine
 10
-11.06944462125865
 20
5.939335228390402
 30
0.0
 11
-11.30872131655529
 21
5.700058533093763
 31
0.0
  0
ARC
  5
D0
330
2
100
AcDbEntity
  8
0
100
AcDbCircle
 10
-11.22033296890697
 20
5.611670185445444
 30
0.0
 40
0.125
100
AcDbArc
 50
134.9999999999999
 51
180.0
  0
LINE
  5
D1
330
2
100
AcDbEntity
  8
0
100
AcDbLine
 10
-11.34533296890698
 20
7.125
 30
0.0
 11
-12.80687804575369
 21
7.125
 31
0.0
  0
LINE
  5
D2
330
2
100
AcDbEntity
  8
0
100
AcDbLine
 10
-12.71312804575369
 20
6.331249999999994
 30
0.0
 11
-12.71312804575369
 21
6.231249999999992
 31
0.0
  0
ARC
  5
D3
330
2
100
AcDbEntity
  8
0
100
AcDbCircle
 10
-11.15783296890697
 20
6.549170185445444
 30
0.0
 40
0.125
100
AcDbArc
 50
0.000000000000007
 51
45.00000000000016
  0
LINE
  5
D4
330
2
100
AcDbEntity
  8
0
100
AcDbLine
 10
-11.03283296890697
 20
6.027723576038721
 30
0.0
 11
-11.03283296890697
 21
6.549170185445444
 31
0.0
  0
LINE
  5
D5
330
2
100
AcDbEntity
  8
0
100
AcDbLine
 10
-11.03283296890697
 20
6.531249999999996
 30
0.0
 11
-11.03283296890697
 21
6.027723319994447
 31
0.0
  0
LINE
  5
D6
330
2
100
AcDbEntity
  8
0
100
AcDbLine
 10
-11.30872131655529
 20
6.876835228390402
 30
0.0
 11
-11.06944462125865
 21
6.637558533093763
 31
0.0
  0
LINE
  5
D7
330
2
100
AcDbEntity
  8
0
100
AcDbLine
 10
-11.34533296890697
 20
7.125
 30
0.0
 11
-11.34533296890697
 21
6.965223576038721
 31
0.0
  0
ARC
  5
D8
330
2
100
AcDbEntity
  8
0
100
AcDbCircle
 10
-11.22033296890697
 20
6.965223576038721
 30
0.0
 40
0.125
100
AcDbArc
 50
180.0
 51
225.0000000000003
  0
LINE
  5
D9
330
2
100
AcDbEntity
  8
0
100
AcDbLine
 10
12.56527588947738
 20
0.0000000000000018
 30
0.0
 11
8.54742271133518
 21
0.0
 31
0.0
  0
ARC
  5
DA
330
2
100
AcDbEntity
  8
0
100
AcDbCircle
 10
7.782832968906966
 20
4.009640958454648
 30
0.0
 40
3.25
100
AcDbArc
 50
314.9999999999995
 51
0.0
  0
ARC
  5
DB
330
2
100
AcDbEntity
  8
0
100
AcDbCircle
 10
4.358419104289126
 20
6.027723576038721
 30
0.0
 40
0.125
100
AcDbArc
 50
180.0
 51
225.0000000000001
  0
CIRCLE
  5
DC
330
2
100
AcDbEntity
  8
0
100
AcDbCircle
 10
3.233414181135835
 20
6.031250000000007
 30
0.0
 40
0.0855
  0
CIRCLE
  5
DD
330
2
100
AcDbEntity
  8
0
100
AcDbCircle
 10
-3.233414181135835
 20
6.039173724782668
 30
0.0
 40
0.0855
  0
ARC
  5
DE
330
2
100
AcDbEntity
  8
0
100
AcDbCircle
 10
-4.358419104289119
 20
6.035647300821378
 30
0.0
 40
0.125
100
AcDbArc
 50
315.0
 51
0.0
  0
LINE
  5
DF
330
2
100
AcDbEntity
  8
0
100
AcDbLine
 10
1.913714181135838
 20
0.1874999999999982
 30
0.0
 11
1.913714181135838
 21
7.125
 31
0.0
  0
LINE
  5
E0
330
2
100
AcDbEntity
  8
0
100
AcDbLine
 10
-1.913714181135838
 20
0.1875
 30
0.0
 11
-1.913714181135838
 21
7.125
 31
0.0
  0
LINE
  5
E1
330
2
100
AcDbEntity
  8
0
100
AcDbLine
 10
1.819964181135838
 20
0.1875
 30
0.0
 11
1.819964181135838
 21
7.125
 31
0.0
  0
LINE
  5
E2
330
2
100
AcDbEntity
  8
0
100
AcDbLine
 10
-1.819964181135838
 20
0.1875
 30
0.0
 11
-1.819964181135838
 21
7.125
 31
0.0
  0
ARC
  5
E3
330
2
100
AcDbEntity
  8
0
100
AcDbCircle
 10
1.726214181135838
 20
0.1875
 30
0.0
 40
0.09375
100
AcDbArc
 50
270.0
 51
0.0
  0
ARC
  5
E4
330
2
100
AcDbEntity
  8
0
100
AcDbCircle
 10
1.726214181135838
 20
0.1874999999999982
 30
0.0
 40
0.1875
100
AcDbArc
 50
270.0
 51
0.0
  0
LINE
  5
E5
330
2
100
AcDbEntity
  8
0
100
AcDbLine
 10
-3.281516143145424
 20
1.704247038856238
 30
0.0
 11
-1.913714181135838
 21
0.3364450768466671
 31
0.0
  0
LINE
  5
E6
330
2
100
AcDbEntity
  8
0
100
AcDbLine
 10
-1.726214181135838
 20
0.09375
 30
0.0
 11
1.726214181135838
 21
0.0937499999999982
 31
0.0
  0
LINE
  5
E7
330
2
100
AcDbEntity
  8
0
100
AcDbLine
 10
-1.726214181135838
 20
0.0
 30
0.0
 11
1.726214181135838
 21
-0.0000000000000018
 31
0.0
  0
ARC
  5
E8
330
2
100
AcDbEntity
  8
0
100
AcDbCircle
 10
-1.726214181135838
 20
0.1875
 30
0.0
 40
0.09375
100
AcDbArc
 50
180.0
 51
269.9999999999998
  0
ARC
  5
E9
330
2
100
AcDbEntity
  8
0
100
AcDbCircle
 10
-1.726214181135838
 20
0.1875
 30
0.0
 40
0.1875
100
AcDbArc
 50
180.0
 51
270.0
  0
CIRCLE
  5
EB
330
2
100
AcDbEntity
  8
0
100
AcDbCircle
 10
-2.670914181135828
 20
5.414173724782661
 30
0.0
 40
0.0855
  0
CIRCLE
  5
EC
330
2
100
AcDbEntity
  8
0
100
AcDbCircle
 10
-2.670914181135828
 20
3.289173724782661
 30
0.0
 40
0.0855
  0
CIRCLE
  5
ED
330
2
100
AcDbEntity
  8
0
100
AcDbCircle
 10
-2.670914181135828
 20
1.601673724782661
 30
0.0
 40
0.0855
  0
CIRCLE
  5
EE
330
2
100
AcDbEntity
  8
0
100
AcDbCircle
 10
-3.062419104289319
 20
3.468699999999956
 30
0.0
 40
0.0855
  0
ARC
  5
EF
330
2
100
AcDbEntity
  8
0
100
AcDbCircle
 10
-0.9834191042891334
 20
4.002344077712564
 30
0.0
 40
3.25
100
AcDbArc
 50
180.0
 51
225.0000000000005
  0
CIRCLE
  5
F0
330
2
100
AcDbEntity
  8
0
100
AcDbCircle
 10
-3.233414181135835
 20
2.289173724782661
 30
0.0
 40
0.0855
  0
CIRCLE
  5
F1
330
2
100
AcDbEntity
  8
0
100
AcDbCircle
 10
-3.545914181135835
 20
3.039173724782661
 30
0.0
 40
0.0855
  0
LINE
  5
F2
330
2
100
AcDbEntity
  8
0
100
AcDbLine
 10
-4.509307451937438
 20
4.884758953173066
 30
0.0
 11
-4.270030756640804
 21
4.645482257876427
 31
0.0
  0
LINE
  5
F3
330
2
100
AcDbEntity
  8
0
100
AcDbLine
 10
-4.233419104289126
 20
4.549170185445451
 30
0.0
 11
-4.233419104289133
 21
4.002344077712564
 31
0.0
  0
ARC
  5
F4
330
2
100
AcDbEntity
  8
0
100
AcDbCircle
 10
-4.358419104289119
 20
4.557093910228108
 30
0.0
 40
0.125
100
AcDbArc
 50
0.0
 51
45.00000000000014
  0
CIRCLE
  5
F5
330
2
100
AcDbEntity
  8
0
100
AcDbCircle
 10
-3.983414181135835
 20
4.289173724782661
 30
0.0
 40
0.0855
  0
CIRCLE
  5
F6
330
2
100
AcDbEntity
  8
0
100
AcDbCircle
 10
-3.233414181135835
 20
4.039173724782661
 30
0.0
 40
0.0855
  0
CIRCLE
  5
F7
330
2
100
AcDbEntity
  8
0
100
AcDbCircle
 10
-3.764664181135842
 20
3.664173724782661
 30
0.0
 40
0.0855
  0
CIRCLE
  5
F8
330
2
100
AcDbEntity
  8
0
100
AcDbCircle
 10
-4.295914181135835
 20
5.289173724782661
 30
0.0
 40
0.0855
  0
LINE
  5
F9
330
2
100
AcDbEntity
  8
0
100
AcDbLine
 10
-4.545919104289119
 20
5.619593910228101
 30
0.0
 11
-4.545919104289119
 21
4.973147300821385
 31
0.0
  0
ARC
  5
FA
330
2
100
AcDbEntity
  8
0
100
AcDbCircle
 10
-4.420919104289119
 20
4.973147300821385
 30
0.0
 40
0.125
100
AcDbArc
 50
180.0
 51
225.0000000000003
  0
LINE
  5
FB
330
2
100
AcDbEntity
  8
0
100
AcDbLine
 10
-4.2700307566408
 20
5.947258953173058
 30
0.0
 11
-4.509307451937438
 21
5.70798225787642
 31
0.0
  0
ARC
  5
FC
330
2
100
AcDbEntity
  8
0
100
AcDbCircle
 10
-4.420919104289119
 20
5.619593910228101
 30
0.0
 40
0.125
100
AcDbArc
 50
134.9999999999996
 51
180.0
  0
CIRCLE
  5
FD
330
2
100
AcDbEntity
  8
0
100
AcDbCircle
 10
-3.545914181135835
 20
5.039173724782661
 30
0.0
 40
0.0855
  0
CIRCLE
  5
FE
330
2
100
AcDbEntity
  8
0
100
AcDbCircle
 10
-3.764664181135842
 20
5.664173724782661
 30
0.0
 40
0.0855
  0
ELLIPSE
  5
FF
330
2
100
AcDbEntity
  8
0
100
AcDbEllipse
 10
-1.913714181135838
 20
1.75350143008685
 30
0.0
 11
0.0
 21
-0.1875000000000142
 31
0.0
210
0.0
220
0.0
230
-1.0
 40
0.9999999999999242
 41
0.0
 42
3.141592653589793
  0
ELLIPSE
  5
100
330
2
100
AcDbEntity
  8
0
100
AcDbEllipse
 10
-1.913714181135838
 20
1.753501430086836
 30
0.0
 11
0.0
 21
-0.1383375000000022
 31
0.0
210
0.0
220
0.0
230
-1.0
 40
0.9035872413481376
 41
0.0
 42
3.141592653589793
  0
LINE
  5
101
330
2
100
AcDbEntity
  8
0
100
AcDbLine
 10
-1.913714181135838
 20
1.909751430086836
 30
0.0
 11
-1.913714181135838
 21
1.597251430086836
 31
0.0
  0
LINE
  5
102
330
2
100
AcDbEntity
  8
0
100
AcDbLine
 10
-1.913714181135838
 20
1.597251430086836
 30
0.0
 11
-1.913714181135838
 21
1.566001430086836
 31
0.0
  0
LINE
  5
103
330
2
100
AcDbEntity
  8
0
100
AcDbLine
 10
-1.913714181135838
 20
1.909751430086864
 30
0.0
 11
-1.913714181135838
 21
1.941001430086864
 31
0.0
  0
LINE
  5
104
330
2
100
AcDbEntity
  8
0
100
AcDbLine
 10
-1.913714181135838
 20
2.909751430086836
 30
0.0
 11
-1.913714181135838
 21
2.597251430086836
 31
0.0
  0
ELLIPSE
  5
105
330
2
100
AcDbEntity
  8
0
100
AcDbEllipse
 10
-1.913714181135838
 20
2.753501430086836
 30
0.0
 11
0.0
 21
-0.1383375000000022
 31
0.0
210
0.0
220
0.0
230
-1.0
 40
0.9035872413481376
 41
0.0
 42
3.141592653589793
  0
ELLIPSE
  5
106
330
2
100
AcDbEntity
  8
0
100
AcDbEllipse
 10
-1.913714181135838
 20
2.75350143008685
 30
0.0
 11
0.0
 21
-0.1875000000000142
 31
0.0
210
0.0
220
0.0
230
-1.0
 40
0.9999999999999242
 41
0.0
 42
3.141592653589793
  0
CIRCLE
  5
107
330
2
100
AcDbEntity
  8
0
100
AcDbCircle
 10
-2.545914181135828
 20
2.772364029430566
 30
0.0
 40
0.0855
  0
LINE
  5
108
330
2
100
AcDbEntity
  8
0
100
AcDbLine
 10
-1.913714181135838
 20
2.597251430086836
 30
0.0
 11
-1.913714181135838
 21
2.566001430086836
 31
0.0
  0
LINE
  5
109
330
2
100
AcDbEntity
  8
0
100
AcDbLine
 10
-1.913714181135838
 20
2.909751430086864
 30
0.0
 11
-1.913714181135838
 21
2.941001430086864
 31
0.0
  0
LINE
  5
10A
330
2
100
AcDbEntity
  8
0
100
AcDbLine
 10
-1.913714181135838
 20
4.909751430086836
 30
0.0
 11
-1.913714181135838
 21
4.597251430086836
 31
0.0
  0
ELLIPSE
  5
10B
330
2
100
AcDbEntity
  8
0
100
AcDbEllipse
 10
-1.913714181135838
 20
4.75350143008685
 30
0.0
 11
0.0
 21
-0.1875000000000142
 31
0.0
210
0.0
220
0.0
230
-1.0
 40
0.9999999999999242
 41
0.0
 42
3.141592653589793
  0
ELLIPSE
  5
10C
330
2
100
AcDbEntity
  8
0
100
AcDbEllipse
 10
-1.913714181135838
 20
4.753501430086836
 30
0.0
 11
0.0
 21
-0.1383375000000022
 31
0.0
210
0.0
220
0.0
230
-1.0
 40
0.9035872413481376
 41
0.0
 42
3.141592653589793
  0
CIRCLE
  5
10D
330
2
100
AcDbEntity
  8
0
100
AcDbCircle
 10
-2.545914181135828
 20
4.781250000000007
 30
0.0
 40
0.0855
  0
LINE
  5
10E
330
2
100
AcDbEntity
  8
0
100
AcDbLine
 10
-1.913714181135838
 20
3.909751430086864
 30
0.0
 11
-1.913714181135838
 21
3.941001430086864
 31
0.0
  0
LINE
  5
10F
330
2
100
AcDbEntity
  8
0
100
AcDbLine
 10
-1.913714181135838
 20
3.597251430086836
 30
0.0
 11
-1.913714181135838
 21
3.566001430086836
 31
0.0
  0
ELLIPSE
  5
110
330
2
100
AcDbEntity
  8
0
100
AcDbEllipse
 10
-1.913714181135838
 20
3.753501430086836
 30
0.0
 11
0.0
 21
-0.1383375000000022
 31
0.0
210
0.0
220
0.0
230
-1.0
 40
0.9035872413481376
 41
0.0
 42
3.141592653589793
  0
ELLIPSE
  5
111
330
2
100
AcDbEntity
  8
0
100
AcDbEllipse
 10
-1.913714181135838
 20
3.75350143008685
 30
0.0
 11
0.0
 21
-0.1875000000000142
 31
0.0
210
0.0
220
0.0
230
-1.0
 40
0.9999999999999242
 41
0.0
 42
3.141592653589793
  0
LINE
  5
112
330
2
100
AcDbEntity
  8
0
100
AcDbLine
 10
-1.913714181135838
 20
3.909751430086836
 30
0.0
 11
-1.913714181135838
 21
3.597251430086836
 31
0.0
  0
CIRCLE
  5
113
330
2
100
AcDbEntity
  8
0
100
AcDbCircle
 10
-2.545914181135828
 20
4.281250000000004
 30
0.0
 40
0.0855
  0
LINE
  5
114
330
2
100
AcDbEntity
  8
0
100
AcDbLine
 10
-1.913714181135838
 20
4.597251430086836
 30
0.0
 11
-1.913714181135838
 21
4.566001430086836
 31
0.0
  0
LINE
  5
115
330
2
100
AcDbEntity
  8
0
100
AcDbLine
 10
-1.913714181135838
 20
4.909751430086864
 30
0.0
 11
-1.913714181135838
 21
4.941001430086864
 31
0.0
  0
LINE
  5
116
330
2
100
AcDbEntity
  8
0
100
AcDbLine
 10
-1.913714181135838
 20
5.909751430086836
 30
0.0
 11
-1.913714181135838
 21
5.597251430086836
 31
0.0
  0
LINE
  5
117
330
2
100
AcDbEntity
  8
0
100
AcDbLine
 10
-1.913714181135838
 20
5.597251430086836
 30
0.0
 11
-1.913714181135838
 21
5.566001430086836
 31
0.0
  0
LINE
  5
118
330
2
100
AcDbEntity
  8
0
100
AcDbLine
 10
-1.913714181135838
 20
5.909751430086864
 30
0.0
 11
-1.913714181135838
 21
5.941001430086864
 31
0.0
  0
ELLIPSE
  5
119
330
2
100
AcDbEntity
  8
0
100
AcDbEllipse
 10
-1.913714181135838
 20
5.75350143008685
 30
0.0
 11
0.0
 21
-0.1875000000000142
 31
0.0
210
0.0
220
0.0
230
-1.0
 40
0.9999999999999242
 41
0.0
 42
3.141592653589793
  0
ELLIPSE
  5
11A
330
2
100
AcDbEntity
  8
0
100
AcDbEllipse
 10
-1.913714181135838
 20
5.753501430086836
 30
0.0
 11
0.0
 21
-0.1383375000000022
 31
0.0
210
0.0
220
0.0
230
-1.0
 40
0.9035872413481376
 41
0.0
 42
3.141592653589793
  0
LINE
  5
11B
330
2
100
AcDbEntity
  8
0
100
AcDbLine
 10
10.08093000776326
 20
1.711543919598322
 30
0.0
 11
8.752502883017087
 21
0.3831167948521657
 31
0.0
  0
LINE
  5
11C
330
2
100
AcDbEntity
  8
0
100
AcDbLine
 10
3.281516143145424
 20
1.704247038856238
 30
0.0
 11
1.913714181135838
 21
0.3364450768466671
 31
0.0
  0
ARC
  5
11D
330
2
100
AcDbEntity
  8
0
100
AcDbCircle
 10
9.282832968906995
 20
-0.1472132910377226
 30
0.0
 40
0.75
100
AcDbArc
 50
134.9999999999995
 51
168.6802362622624
  0
CIRCLE
  5
11E
330
2
100
AcDbEntity
  8
0
100
AcDbCircle
 10
3.062419104289319
 20
3.468699999999956
 30
0.0
 40
0.0855
  0
ARC
  5
11F
330
2
100
AcDbEntity
  8
0
100
AcDbCircle
 10
0.9834191042891334
 20
4.002344077712564
 30
0.0
 40
3.25
100
AcDbArc
 50
314.9999999999995
 51
0.0
  0
LINE
  5
120
330
2
100
AcDbEntity
  8
0
100
AcDbLine
 10
1.913714181135838
 20
3.534751430086836
 30
0.0
 11
1.913714181135838
 21
3.222251430086836
 31
0.0
  0
ELLIPSE
  5
121
330
2
100
AcDbEntity
  8
0
100
AcDbEllipse
 10
1.913714181135838
 20
3.37850143008685
 30
0.0
 11
0.0
 21
-0.1875000000000142
 31
0.0
210
0.0
220
0.0
230
1.0
 40
0.9999999999999242
 41
0.0
 42
3.141592653589793
  0
ELLIPSE
  5
122
330
2
100
AcDbEntity
  8
0
100
AcDbEllipse
 10
1.913714181135838
 20
3.378501430086836
 30
0.0
 11
0.0
 21
-0.1383375000000022
 31
0.0
210
0.0
220
0.0
230
1.0
 40
0.9035872413481376
 41
0.0
 42
3.141592653589793
  0
CIRCLE
  5
123
330
2
100
AcDbEntity
  8
0
100
AcDbCircle
 10
3.233414181135842
 20
2.281250000000004
 30
0.0
 40
0.0855
  0
LINE
  5
124
330
2
100
AcDbEntity
  8
0
100
AcDbLine
 10
1.913714181135838
 20
2.534751430086836
 30
0.0
 11
1.913714181135838
 21
2.222251430086836
 31
0.0
  0
ELLIPSE
  5
125
330
2
100
AcDbEntity
  8
0
100
AcDbEllipse
 10
1.913714181135838
 20
2.37850143008685
 30
0.0
 11
0.0
 21
-0.1875000000000142
 31
0.0
210
0.0
220
0.0
230
1.0
 40
0.9999999999999242
 41
0.0
 42
3.141592653589793
  0
ELLIPSE
  5
126
330
2
100
AcDbEntity
  8
0
100
AcDbEllipse
 10
1.913714181135838
 20
2.378501430086836
 30
0.0
 11
0.0
 21
-0.1383375000000022
 31
0.0
210
0.0
220
0.0
230
1.0
 40
0.9035872413481376
 41
0.0
 42
3.141592653589793
  0
CIRCLE
  5
127
330
2
100
AcDbEntity
  8
0
100
AcDbCircle
 10
2.670914181135832
 20
1.59375
 30
0.0
 40
0.0855
  0
LINE
  5
128
330
2
100
AcDbEntity
  8
0
100
AcDbLine
 10
1.913714181135838
 20
1.534751430086864
 30
0.0
 11
1.913714181135838
 21
1.566001430086864
 31
0.0
  0
LINE
  5
129
330
2
100
AcDbEntity
  8
0
100
AcDbLine
 10
1.913714181135838
 20
1.534751430086836
 30
0.0
 11
1.913714181135838
 21
1.222251430086836
 31
0.0
  0
LINE
  5
12A
330
2
100
AcDbEntity
  8
0
100
AcDbLine
 10
1.913714181135838
 20
1.222251430086836
 30
0.0
 11
1.913714181135838
 21
1.191001430086836
 31
0.0
  0
ELLIPSE
  5
12B
330
2
100
AcDbEntity
  8
0
100
AcDbEllipse
 10
1.913714181135838
 20
1.378501430086836
 30
0.0
 11
0.0
 21
-0.1383375000000022
 31
0.0
210
0.0
220
0.0
230
1.0
 40
0.9035872413481376
 41
0.0
 42
3.141592653589793
  0
ELLIPSE
  5
12C
330
2
100
AcDbEntity
  8
0
100
AcDbEllipse
 10
1.913714181135838
 20
1.37850143008685
 30
0.0
 11
0.0
 21
-0.1875000000000142
 31
0.0
210
0.0
220
0.0
230
1.0
 40
0.9999999999999242
 41
0.0
 42
3.141592653589793
  0
LINE
  5
12D
330
2
100
AcDbEntity
  8
0
100
AcDbLine
 10
1.913714181135838
 20
2.222251430086836
 30
0.0
 11
1.913714181135838
 21
2.191001430086836
 31
0.0
  0
LINE
  5
12E
330
2
100
AcDbEntity
  8
0
100
AcDbLine
 10
1.913714181135838
 20
2.534751430086864
 30
0.0
 11
1.913714181135838
 21
2.566001430086864
 31
0.0
  0
CIRCLE
  5
12F
330
2
100
AcDbEntity
  8
0
100
AcDbCircle
 10
2.545914181135828
 20
2.772364029430566
 30
0.0
 40
0.0855
  0
LINE
  5
130
330
2
100
AcDbEntity
  8
0
100
AcDbLine
 10
1.913714181135838
 20
3.222251430086836
 30
0.0
 11
1.913714181135838
 21
3.191001430086836
 31
0.0
  0
CIRCLE
  5
131
330
2
100
AcDbEntity
  8
0
100
AcDbCircle
 10
2.670914181135832
 20
3.281250000000004
 30
0.0
 40
0.0855
  0
CIRCLE
  5
132
330
2
100
AcDbEntity
  8
0
100
AcDbCircle
 10
3.545914181135842
 20
3.031250000000004
 30
0.0
 40
0.0855
  0
CIRCLE
  5
133
330
2
100
AcDbEntity
  8
0
100
AcDbCircle
 10
2.545914181135828
 20
4.781250000000007
 30
0.0
 40
0.0855
  0
LINE
  5
134
330
2
100
AcDbEntity
  8
0
100
AcDbLine
 10
1.913714181135838
 20
3.534751430086864
 30
0.0
 11
1.913714181135838
 21
3.566001430086864
 31
0.0
  0
LINE
  5
135
330
2
100
AcDbEntity
  8
0
100
AcDbLine
 10
1.913714181135838
 20
4.534751430086864
 30
0.0
 11
1.913714181135838
 21
4.566001430086864
 31
0.0
  0
LINE
  5
136
330
2
100
AcDbEntity
  8
0
100
AcDbLine
 10
1.913714181135838
 20
4.222251430086836
 30
0.0
 11
1.913714181135838
 21
4.191001430086836
 31
0.0
  0
ELLIPSE
  5
137
330
2
100
AcDbEntity
  8
0
100
AcDbEllipse
 10
1.913714181135838
 20
4.378501430086836
 30
0.0
 11
0.0
 21
-0.1383375000000022
 31
0.0
210
0.0
220
0.0
230
1.0
 40
0.9035872413481376
 41
0.0
 42
3.141592653589793
  0
ELLIPSE
  5
138
330
2
100
AcDbEntity
  8
0
100
AcDbEllipse
 10
1.913714181135838
 20
4.37850143008685
 30
0.0
 11
0.0
 21
-0.1875000000000142
 31
0.0
210
0.0
220
0.0
230
1.0
 40
0.9999999999999242
 41
0.0
 42
3.141592653589793
  0
LINE
  5
139
330
2
100
AcDbEntity
  8
0
100
AcDbLine
 10
1.913714181135838
 20
4.534751430086836
 30
0.0
 11
1.913714181135838
 21
4.222251430086836
 31
0.0
  0
CIRCLE
  5
13A
330
2
100
AcDbEntity
  8
0
100
AcDbCircle
 10
2.545914181135828
 20
4.281250000000004
 30
0.0
 40
0.0855
  0
CIRCLE
  5
13B
330
2
100
AcDbEntity
  8
0
100
AcDbCircle
 10
3.233414181135842
 20
4.031250000000004
 30
0.0
 40
0.0855
  0
CIRCLE
  5
13C
330
2
100
AcDbEntity
  8
0
100
AcDbCircle
 10
3.764664181135842
 20
3.65625
 30
0.0
 40
0.0855
  0
CIRCLE
  5
13D
330
2
100
AcDbEntity
  8
0
100
AcDbCircle
 10
3.983414181135842
 20
4.281250000000004
 30
0.0
 40
0.0855
  0
CIRCLE
  5
13E
330
2
100
AcDbEntity
  8
0
100
AcDbCircle
 10
2.670914181135832
 20
5.40625
 30
0.0
 40
0.0855
  0
LINE
  5
13F
330
2
100
AcDbEntity
  8
0
100
AcDbLine
 10
1.913714181135838
 20
5.534751430086836
 30
0.0
 11
1.913714181135838
 21
5.222251430086836
 31
0.0
  0
ELLIPSE
  5
140
330
2
100
AcDbEntity
  8
0
100
AcDbEllipse
 10
1.913714181135838
 20
5.378501430086836
 30
0.0
 11
0.0
 21
-0.1383375000000022
 31
0.0
210
0.0
220
0.0
230
1.0
 40
0.9035872413481376
 41
0.0
 42
3.141592653589793
  0
ELLIPSE
  5
141
330
2
100
AcDbEntity
  8
0
100
AcDbEllipse
 10
1.913714181135838
 20
5.37850143008685
 30
0.0
 11
0.0
 21
-0.1875000000000142
 31
0.0
210
0.0
220
0.0
230
1.0
 40
0.9999999999999242
 41
0.0
 42
3.141592653589793
  0
LINE
  5
142
330
2
100
AcDbEntity
  8
0
100
AcDbLine
 10
1.913714181135838
 20
5.222251430086836
 30
0.0
 11
1.913714181135838
 21
5.191001430086836
 31
0.0
  0
LINE
  5
143
330
2
100
AcDbEntity
  8
0
100
AcDbLine
 10
1.913714181135838
 20
5.534751430086864
 30
0.0
 11
1.913714181135838
 21
5.566001430086864
 31
0.0
  0
CIRCLE
  5
144
330
2
100
AcDbEntity
  8
0
100
AcDbCircle
 10
3.545914181135842
 20
5.03125
 30
0.0
 40
0.0855
  0
CIRCLE
  5
145
330
2
100
AcDbEntity
  8
0
100
AcDbCircle
 10
3.764664181135842
 20
5.65625
 30
0.0
 40
0.0855
  0
LINE
  5
146
330
2
100
AcDbEntity
  8
0
100
AcDbLine
 10
4.509307451937438
 20
4.876835228390405
 30
0.0
 11
4.270030756640807
 21
4.63755853309377
 31
0.0
  0
LINE
  5
147
330
2
100
AcDbEntity
  8
0
100
AcDbLine
 10
4.233419104289126
 20
4.549170185445451
 30
0.0
 11
4.233419104289133
 21
4.002344077712564
 31
0.0
  0
ARC
  5
148
330
2
100
AcDbEntity
  8
0
100
AcDbCircle
 10
4.358419104289126
 20
4.549170185445451
 30
0.0
 40
0.125
100
AcDbArc
 50
134.9999999999999
 51
180.0
  0
LINE
  5
149
330
2
100
AcDbEntity
  8
0
100
AcDbLine
 10
4.545919104289126
 20
5.611670185445444
 30
0.0
 11
4.545919104289126
 21
4.965223576038724
 31
0.0
  0
ARC
  5
14A
330
2
100
AcDbEntity
  8
0
100
AcDbCircle
 10
4.420919104289126
 20
4.965223576038724
 30
0.0
 40
0.125
100
AcDbArc
 50
314.9999999999997
 51
0.0
  0
CIRCLE
  5
14B
330
2
100
AcDbEntity
  8
0
100
AcDbCircle
 10
4.295914181135842
 20
5.28125
 30
0.0
 40
0.0855
  0
ARC
  5
14C
330
2
100
AcDbEntity
  8
0
100
AcDbCircle
 10
4.420919104289126
 20
5.611670185445444
 30
0.0
 40
0.125
100
AcDbArc
 50
0.0
 51
45.00000000000033
  0
LINE
  5
14D
330
2
100
AcDbEntity
  8
0
100
AcDbLine
 10
4.270030756640807
 20
5.939335228390402
 30
0.0
 11
4.509307451937438
 21
5.700058533093763
 31
0.0
  0
LINE
  5
14E
330
2
100
AcDbEntity
  8
0
100
AcDbLine
 10
1.517053827182473
 20
14.09685485369596
 30
0.0
 11
1.896836674056871
 21
14.09685485369595
 31
0.0
  0
LINE
  5
14F
330
2
100
AcDbEntity
  8
0
100
AcDbLine
 10
-4.545919104289119
 20
7.125
 30
0.0
 11
-1.819964181135838
 21
7.125
 31
0.0
  0
ARC
  5
150
330
2
100
AcDbEntity
  8
0
100
AcDbCircle
 10
-4.358419104289119
 20
6.557093910228108
 30
0.0
 40
0.125
100
AcDbArc
 50
0.0
 51
45.00000000000014
  0
LINE
  5
151
330
2
100
AcDbEntity
  8
0
100
AcDbLine
 10
-4.233419104289119
 20
6.035647402433749
 30
0.0
 11
-4.233419104289116
 21
6.557093910228108
 31
0.0
  0
LINE
  5
152
330
2
100
AcDbEntity
  8
0
100
AcDbLine
 10
-4.509307451937438
 20
6.884758953173066
 30
0.0
 11
-4.270030756640804
 21
6.645482257876427
 31
0.0
  0
LINE
  5
153
330
2
100
AcDbEntity
  8
0
100
AcDbLine
 10
-4.545919104289119
 20
7.125
 30
0.0
 11
-4.545919104289119
 21
6.973147300821385
 31
0.0
  0
ARC
  5
154
330
2
100
AcDbEntity
  8
0
100
AcDbCircle
 10
-4.420919104289119
 20
6.973147300821385
 30
0.0
 40
0.125
100
AcDbArc
 50
180.0
 51
225.0000000000003
  0
CIRCLE
  5
155
330
2
100
AcDbEntity
  8
0
100
AcDbCircle
 10
-3.983414181135835
 20
6.882923724782668
 30
0.0
 40
0.0855
  0
ELLIPSE
  5
156
330
2
100
AcDbEntity
  8
0
100
AcDbEllipse
 10
-1.913714181135838
 20
6.753501430086836
 30
0.0
 11
0.0
 21
-0.1383375000000022
 31
0.0
210
0.0
220
0.0
230
-1.0
 40
0.9035872413481376
 41
0.0
 42
3.141592653589793
  0
ELLIPSE
  5
157
330
2
100
AcDbEntity
  8
0
100
AcDbEllipse
 10
-1.913714181135838
 20
6.75350143008685
 30
0.0
 11
0.0
 21
-0.1875000000000142
 31
0.0
210
0.0
220
0.0
230
-1.0
 40
0.9999999999999242
 41
0.0
 42
3.141592653589793
  0
LINE
  5
158
330
2
100
AcDbEntity
  8
0
100
AcDbLine
 10
-1.913714181135838
 20
6.909751430086836
 30
0.0
 11
-1.913714181135838
 21
6.597251430086836
 31
0.0
  0
CIRCLE
  5
159
330
2
100
AcDbEntity
  8
0
100
AcDbCircle
 10
-2.545914181135832
 20
6.281250000000007
 30
0.0
 40
0.0855
  0
LINE
  5
15A
330
2
100
AcDbEntity
  8
0
100
AcDbLine
 10
-1.913714181135838
 20
6.597251430086836
 30
0.0
 11
-1.913714181135838
 21
6.566001430086836
 31
0.0
  0
LINE
  5
15B
330
2
100
AcDbEntity
  8
0
100
AcDbLine
 10
-1.913714181135838
 20
6.909751430086864
 30
0.0
 11
-1.913714181135838
 21
6.941001430086864
 31
0.0
  0
LINE
  5
15C
330
2
100
AcDbEntity
  8
0
100
AcDbLine
 10
-1.049053827181336
 20
14.09685485369596
 30
0.0
 11
1.017053827181583
 21
14.09685485369596
 31
0.0
  0
LINE
  5
15D
330
2
100
AcDbEntity
  8
0
100
AcDbLine
 10
-1.915662949274207
 20
14.09685485369596
 30
0.0
 11
-1.549053827180892
 21
14.09685485369596
 31
0.0
  0
ARC
  5
15E
330
2
100
AcDbEntity
  8
0
100
AcDbCircle
 10
-1.142803827181151
 20
14.09685485369596
 30
0.0
 40
0.09375
100
AcDbArc
 50
0.0
 51
90.0
  0
ARC
  5
15F
330
2
100
AcDbEntity
  8
0
100
AcDbCircle
 10
-1.455303827181151
 20
14.09685485369596
 30
0.0
 40
0.09375
100
AcDbArc
 50
90.0
 51
180.0
  0
LINE
  5
160
330
2
100
AcDbEntity
  8
0
100
AcDbLine
 10
-1.142803827181151
 20
14.19060485369596
 30
0.0
 11
-1.455303827181151
 21
14.19060485369596
 31
0.0
  0
ARC
  5
161
330
2
100
AcDbEntity
  8
0
100
AcDbCircle
 10
1.110803827182178
 20
14.09685485369596
 30
0.0
 40
0.09375
100
AcDbArc
 50
90.0
 51
180.0
  0
ARC
  5
162
330
2
100
AcDbEntity
  8
0
100
AcDbCircle
 10
1.423303827182178
 20
14.09685485369596
 30
0.0
 40
0.09375
100
AcDbArc
 50
0.0
 51
90.0
  0
LINE
  5
163
330
2
100
AcDbEntity
  8
0
100
AcDbLine
 10
1.423303827182178
 20
14.19060485369596
 30
0.0
 11
1.110803827182178
 21
14.19060485369596
 31
0.0
  0
LINE
  5
164
330
2
100
AcDbEntity
  8
0
100
AcDbLine
 10
-0.009413137608707
 20
15.09685485369596
 30
0.0
 11
0.1115021219741923
 21
15.21777011327886
 31
0.0
  0
LINE
  5
165
330
2
100
AcDbEntity
  8
0
100
AcDbLine
 10
0.1115021219741923
 20
15.21777011327886
 30
0.0
 11
-0.009413137608707
 21
15.33868537286176
 31
0.0
  0
LINE
  5
166
330
2
100
AcDbEntity
  8
0
100
AcDbLine
 10
-0.1303283971916063
 20
15.21777011327886
 30
0.0
 11
-0.009413137608707
 21
15.33868537286176
 31
0.0
  0
LINE
  5
167
330
2
100
AcDbEntity
  8
0
100
AcDbLine
 10
-0.009413137608707
 20
15.09685485369596
 30
0.0
 11
-0.1303283971916063
 21
15.21777011327886
 31
0.0
  0
LINE
  5
168
330
2
100
AcDbEntity
  8
0
100
AcDbLine
 10
1.819964181135838
 20
7.124999999999996
 30
0.0
 11
4.545919104289126
 21
7.124999999999996
 31
0.0
  0
LINE
  5
169
330
2
100
AcDbEntity
  8
0
100
AcDbLine
 10
1.913714181135838
 20
6.534751430086836
 30
0.0
 11
1.913714181135838
 21
6.222251430086836
 31
0.0
  0
LINE
  5
16A
330
2
100
AcDbEntity
  8
0
100
AcDbLine
 10
1.913714181135838
 20
6.222251430086836
 30
0.0
 11
1.913714181135838
 21
6.191001430086836
 31
0.0
  0
LINE
  5
16B
330
2
100
AcDbEntity
  8
0
100
AcDbLine
 10
1.913714181135838
 20
6.534751430086864
 30
0.0
 11
1.913714181135838
 21
6.566001430086864
 31
0.0
  0
ELLIPSE
  5
16C
330
2
100
AcDbEntity
  8
0
100
AcDbEllipse
 10
1.913714181135838
 20
6.37850143008685
 30
0.0
 11
0.0
 21
-0.1875000000000142
 31
0.0
210
0.0
220
0.0
230
1.0
 40
0.9999999999999242
 41
0.0
 42
3.141592653589793
  0
ELLIPSE
  5
16D
330
2
100
AcDbEntity
  8
0
100
AcDbEllipse
 10
1.913714181135838
 20
6.378501430086836
 30
0.0
 11
0.0
 21
-0.1383375000000022
 31
0.0
210
0.0
220
0.0
230
1.0
 40
0.9035872413481376
 41
0.0
 42
3.141592653589793
  0
CIRCLE
  5
16E
330
2
100
AcDbEntity
  8
0
100
AcDbCircle
 10
2.545914181135832
 20
6.281250000000007
 30
0.0
 40
0.0855
  0
CIRCLE
  5
16F
330
2
100
AcDbEntity
  8
0
100
AcDbCircle
 10
3.983414181135835
 20
6.875000000000007
 30
0.0
 40
0.0855
  0
ARC
  5
170
330
2
100
AcDbEntity
  8
0
100
AcDbCircle
 10
4.358419104289126
 20
6.549170185445451
 30
0.0
 40
0.125
100
AcDbArc
 50
134.9999999999999
 51
180.0
  0
LINE
  5
171
330
2
100
AcDbEntity
  8
0
100
AcDbLine
 10
4.233419104289119
 20
6.027723677651093
 30
0.0
 11
4.233419104289119
 21
6.531249999999996
 31
0.0
  0
LINE
  5
172
330
2
100
AcDbEntity
  8
0
100
AcDbLine
 10
4.233419104289126
 20
6.549170185445451
 30
0.0
 11
4.233419104289126
 21
6.027723576038721
 31
0.0
  0
LINE
  5
173
330
2
100
AcDbEntity
  8
0
100
AcDbLine
 10
4.545919104289126
 20
7.124999999999996
 30
0.0
 11
4.545919104289126
 21
6.965223576038724
 31
0.0
  0
ARC
  5
174
330
2
100
AcDbEntity
  8
0
100
AcDbCircle
 10
4.420919104289126
 20
6.965223576038724
 30
0.0
 40
0.125
100
AcDbArc
 50
314.9999999999997
 51
0.0
  0
LINE
  5
175
330
2
100
AcDbEntity
  8
0
100
AcDbLine
 10
4.509307451937438
 20
6.876835228390405
 30
0.0
 11
4.270030756640807
 21
6.63755853309377
 31
0.0
  0
ARC
  5
176
330
2
100
AcDbEntity
  8
0
100
AcDbCircle
 10
11.15783296890697
 20
6.027723576038721
 30
0.0
 40
0.125
100
AcDbArc
 50
180.0
 51
225.0000000000001
  0
LINE
  5
177
330
2
100
AcDbEntity
  8
0
100
AcDbLine
 10
12.71312804575369
 20
0.1729746157956473
 30
0.0
 11
12.71312804575369
 21
7.125000000000004
 31
0.0
  0
LINE
  5
178
330
2
100
AcDbEntity
  8
0
100
AcDbLine
 10
12.80687804575369
 20
0.2499976788802734
 30
0.0
 11
12.80687804575369
 21
7.125000000000004
 31
0.0
  0
ARC
  5
179
330
2
100
AcDbEntity
  8
0
100
AcDbCircle
 10
11.79070306431758
 20
0.9542785259993227
 30
0.0
 40
0.2864983002371666
100
AcDbArc
 50
270.0000000000028
 51
286.0310365777447
  0
ARC
  5
17A
330
2
100
AcDbEntity
  8
0
100
AcDbCircle
 10
11.79070306431758
 20
0.6579569255249957
 30
0.0
 40
0.2864983002371644
100
AcDbArc
 50
73.96896342225521
 51
89.99999999999716
  0
ARC
  5
17B
330
2
100
AcDbEntity
  8
0
100
AcDbCircle
 10
11.75162462023013
 20
0.7962653826216748
 30
0.0
 40
0.0876713959042334
100
AcDbArc
 50
327.9718933333754
 51
345.4734521831862
  0
ARC
  5
17C
330
2
100
AcDbEntity
  8
0
100
AcDbCircle
 10
11.75162462023013
 20
0.8159700689026455
 30
0.0
 40
0.0876713959042252
100
AcDbArc
 50
14.52654781681278
 51
32.02810666662511
  0
ARC
  5
17D
330
2
100
AcDbEntity
  8
0
100
AcDbCircle
 10
11.77166056002582
 20
0.7736808655729899
 30
0.0
 40
0.0821454866301529
100
AcDbArc
 50
302.6079210151855
 51
327.0773280975418
  0
ARC
  5
17E
330
2
100
AcDbEntity
  8
0
100
AcDbCircle
 10
11.77166056002581
 20
0.8385545859513233
 30
0.0
 40
0.0821454866301602
100
AcDbArc
 50
32.92267190245759
 51
57.3920789848117
  0
ARC
  5
17F
330
2
100
AcDbEntity
  8
0
100
AcDbCircle
 10
11.79070306431759
 20
0.7584834763852335
 30
0.0
 40
0.0320532506230773
100
AcDbArc
 50
270.0000000000127
 51
303.5108229556826
  0
ARC
  5
180
330
2
100
AcDbEntity
  8
0
100
AcDbCircle
 10
11.79070306431759
 20
0.8537519751390832
 30
0.0
 40
0.0320532506230772
100
AcDbArc
 50
56.48917704431746
 51
89.99999999998731
  0
ARC
  5
181
330
2
100
AcDbEntity
  8
0
100
AcDbCircle
 10
11.79070306431759
 20
0.7439139988288783
 30
0.0
 40
0.0468087730667222
100
AcDbArc
 50
270.0000000000087
 51
302.6079210152037
  0
ARC
  5
182
330
2
100
AcDbEntity
  8
0
100
AcDbCircle
 10
11.79070306431759
 20
0.8683214526954384
 30
0.0
 40
0.0468087730667218
100
AcDbArc
 50
57.39207898479626
 51
89.99999999999132
  0
LINE
  5
183
330
2
100
AcDbEntity
  8
0
100
AcDbLine
 10
11.7907030643176
 20
0.6677802257621561
 30
0.0
 11
11.7907030643176
 21
0.9444552257621606
 31
0.0
  0
ARC
  5
184
330
2
100
AcDbEntity
  8
0
100
AcDbCircle
 10
11.77562804575381
 20
0.7812499999998916
 30
0.0
 40
0.0593583926698646
100
AcDbArc
 50
303.5108229556574
 51
327.9718933333789
  0
ARC
  5
185
330
2
100
AcDbEntity
  8
0
100
AcDbCircle
 10
11.77562804575381
 20
0.8309854515244251
 30
0.0
 40
0.0593583926698636
100
AcDbArc
 50
32.02810666662104
 51
56.48917704434263
  0
ARC
  5
186
330
2
100
AcDbEntity
  8
0
100
AcDbCircle
 10
11.71360112505399
 20
0.8061177257621335
 30
0.0
 40
0.126950586969819
100
AcDbArc
 50
345.4734521832155
 51
0.0000000000128274
  0
ARC
  5
187
330
2
100
AcDbEntity
  8
0
100
AcDbCircle
 10
11.71360112505402
 20
0.8061177257621868
 30
0.0
 40
0.1269505869697909
100
AcDbArc
 50
359.9999999999888
 51
14.52654781678613
  0
ARC
  5
188
330
2
100
AcDbEntity
  8
0
100
AcDbCircle
 10
11.81164504840415
 20
0.8813941780622248
 30
0.0
 40
0.2106649640867779
100
AcDbArc
 50
286.0310365777373
 51
304.7482755454288
  0
ARC
  5
189
330
2
100
AcDbEntity
  8
0
100
AcDbCircle
 10
11.84364130517382
 20
0.8352688003581736
 30
0.0
 40
0.1545284259354786
100
AcDbArc
 50
304.7482755454359
 51
329.15752901129
  0
ARC
  5
18A
330
2
100
AcDbEntity
  8
0
100
AcDbCircle
 10
11.8924603740636
 20
0.8061177257621619
 30
0.0
 40
0.0976681881821263
100
AcDbArc
 50
329.1575290112839
 51
359.9999999999959
  0
ARC
  5
18B
330
2
100
AcDbEntity
  8
0
100
AcDbCircle
 10
11.8924603740636
 20
0.8061177257621512
 30
0.0
 40
0.0976681881821335
100
AcDbArc
 50
0.0000000000020842
 51
30.84247098871575
  0
ARC
  5
18C
330
2
100
AcDbEntity
  8
0
100
AcDbCircle
 10
11.84364130517383
 20
0.7769666511661395
 30
0.0
 40
0.1545284259354683
100
AcDbArc
 50
30.84247098871385
 51
55.25172445456771
  0
ARC
  5
18D
330
2
100
AcDbEntity
  8
0
100
AcDbCircle
 10
11.81164504840412
 20
0.7308412734620866
 30
0.0
 40
0.2106649640867883
100
AcDbArc
 50
55.25172445456617
 51
73.96896342225755
  0
ARC
  5
18E
330
2
100
AcDbEntity
  8
0
100
AcDbCircle
 10
11.74140264871276
 20
0.7932725745692242
 30
0.0
 40
0.1181923486076055
100
AcDbArc
 50
327.077328097556
 51
344.9866289980082
  0
ARC
  5
18F
330
2
100
AcDbEntity
  8
0
100
AcDbCircle
 10
11.69350860237943
 20
0.8061177257621797
 30
0.0
 40
0.1677790160026758
100
AcDbArc
 50
344.9866289979966
 51
359.9999999999939
  0
ARC
  5
190
330
2
100
AcDbEntity
  8
0
100
AcDbCircle
 10
11.69350860237946
 20
0.8061177257621406
 30
0.0
 40
0.1677790160026476
100
AcDbArc
 50
0.0000000000072794
 51
15.01337100200479
  0
ARC
  5
191
330
2
100
AcDbEntity
  8
0
100
AcDbCircle
 10
11.74140264871277
 20
0.8189628769550961
 30
0.0
 40
0.1181923486075977
100
AcDbArc
 50
15.01337100199102
 51
32.92267190244446
  0
ARC
  5
192
330
2
100
AcDbEntity
  8
0
100
AcDbCircle
 10
13.38983586714793
 20
-0.5551261456685612
 30
0.0
 40
0.9940141821829845
100
AcDbArc
 50
125.9067875213622
 51
146.0500123828663
  0
ARC
  5
193
330
2
100
AcDbEntity
  8
0
100
AcDbCircle
 10
11.79070306431758
 20
1.657956925524996
 30
0.0
 40
0.2864983002371644
100
AcDbArc
 50
73.96896342225521
 51
89.99999999999716
  0
ARC
  5
194
330
2
100
AcDbEntity
  8
0
100
AcDbCircle
 10
11.77166056002581
 20
1.838554585951323
 30
0.0
 40
0.0821454866301602
100
AcDbArc
 50
32.92267190245759
 51
57.3920789848117
  0
ARC
  5
195
330
2
100
AcDbEntity
  8
0
100
AcDbCircle
 10
11.75162462023013
 20
1.815970068902646
 30
0.0
 40
0.0876713959042252
100
AcDbArc
 50
14.52654781681278
 51
32.02810666662511
  0
ARC
  5
196
330
2
100
AcDbEntity
  8
0
100
AcDbCircle
 10
11.79070306431759
 20
1.853751975139083
 30
0.0
 40
0.0320532506230772
100
AcDbArc
 50
56.48917704431746
 51
89.99999999998731
  0
ARC
  5
197
330
2
100
AcDbEntity
  8
0
100
AcDbCircle
 10
11.79070306431759
 20
1.868321452695438
 30
0.0
 40
0.0468087730667218
100
AcDbArc
 50
57.39207898479626
 51
89.99999999999132
  0
ARC
  5
198
330
2
100
AcDbEntity
  8
0
100
AcDbCircle
 10
11.77562804575381
 20
1.830985451524425
 30
0.0
 40
0.0593583926698636
100
AcDbArc
 50
32.02810666662104
 51
56.48917704434263
  0
ARC
  5
199
330
2
100
AcDbEntity
  8
0
100
AcDbCircle
 10
11.8924603740636
 20
1.806117725762151
 30
0.0
 40
0.0976681881821335
100
AcDbArc
 50
0.0000000000020842
 51
30.84247098871575
  0
ARC
  5
19A
330
2
100
AcDbEntity
  8
0
100
AcDbCircle
 10
11.84364130517383
 20
1.77696665116614
 30
0.0
 40
0.1545284259354683
100
AcDbArc
 50
30.84247098871385
 51
55.25172445456771
  0
ARC
  5
19B
330
2
100
AcDbEntity
  8
0
100
AcDbCircle
 10
11.81164504840412
 20
1.730841273462087
 30
0.0
 40
0.2106649640867883
100
AcDbArc
 50
55.25172445456617
 51
73.96896342225755
  0
ARC
  5
19C
330
2
100
AcDbEntity
  8
0
100
AcDbCircle
 10
11.69350860237943
 20
1.80611772576218
 30
0.0
 40
0.1677790160026758
100
AcDbArc
 50
344.9866289979966
 51
359.9999999999939
  0
ARC
  5
19D
330
2
100
AcDbEntity
  8
0
100
AcDbCircle
 10
11.69350860237946
 20
1.806117725762141
 30
0.0
 40
0.1677790160026476
100
AcDbArc
 50
0.0000000000072794
 51
15.01337100200479
  0
ARC
  5
19E
330
2
100
AcDbEntity
  8
0
100
AcDbCircle
 10
11.74140264871277
 20
1.818962876955096
 30
0.0
 40
0.1181923486075977
100
AcDbArc
 50
15.01337100199102
 51
32.92267190244446
  0
ARC
  5
19F
330
2
100
AcDbEntity
  8
0
100
AcDbCircle
 10
11.71360112505399
 20
1.806117725762134
 30
0.0
 40
0.126950586969819
100
AcDbArc
 50
345.4734521832155
 51
0.0000000000128274
  0
ARC
  5
1A0
330
2
100
AcDbEntity
  8
0
100
AcDbCircle
 10
11.71360112505402
 20
1.806117725762187
 30
0.0
 40
0.1269505869697909
100
AcDbArc
 50
359.9999999999888
 51
14.52654781678613
  0
ARC
  5
1A1
330
2
100
AcDbEntity
  8
0
100
AcDbCircle
 10
11.79070306431758
 20
1.954278525999323
 30
0.0
 40
0.2864983002371666
100
AcDbArc
 50
270.0000000000028
 51
286.0310365777447
  0
ARC
  5
1A2
330
2
100
AcDbEntity
  8
0
100
AcDbCircle
 10
11.77166056002582
 20
1.77368086557299
 30
0.0
 40
0.0821454866301529
100
AcDbArc
 50
302.6079210151855
 51
327.0773280975418
  0
ARC
  5
1A3
330
2
100
AcDbEntity
  8
0
100
AcDbCircle
 10
11.79070306431759
 20
1.743913998828878
 30
0.0
 40
0.0468087730667222
100
AcDbArc
 50
270.0000000000087
 51
302.6079210152037
  0
ARC
  5
1A4
330
2
100
AcDbEntity
  8
0
100
AcDbCircle
 10
11.79070306431759
 20
1.758483476385234
 30
0.0
 40
0.0320532506230773
100
AcDbArc
 50
270.0000000000127
 51
303.5108229556826
  0
ARC
  5
1A5
330
2
100
AcDbEntity
  8
0
100
AcDbCircle
 10
11.77562804575381
 20
1.781249999999892
 30
0.0
 40
0.0593583926698646
100
AcDbArc
 50
303.5108229556574
 51
327.9718933333789
  0
ARC
  5
1A6
330
2
100
AcDbEntity
  8
0
100
AcDbCircle
 10
11.81164504840415
 20
1.881394178062225
 30
0.0
 40
0.2106649640867779
100
AcDbArc
 50
286.0310365777373
 51
304.7482755454288
  0
ARC
  5
1A7
330
2
100
AcDbEntity
  8
0
100
AcDbCircle
 10
11.84364130517382
 20
1.835268800358174
 30
0.0
 40
0.1545284259354786
100
AcDbArc
 50
304.7482755454359
 51
329.15752901129
  0
ARC
  5
1A8
330
2
100
AcDbEntity
  8
0
100
AcDbCircle
 10
11.8924603740636
 20
1.806117725762162
 30
0.0
 40
0.0976681881821263
100
AcDbArc
 50
329.1575290112839
 51
359.9999999999959
  0
ARC
  5
1A9
330
2
100
AcDbEntity
  8
0
100
AcDbCircle
 10
11.74140264871276
 20
1.793272574569224
 30
0.0
 40
0.1181923486076055
100
AcDbArc
 50
327.077328097556
 51
344.9866289980082
  0
ARC
  5
1AA
330
2
100
AcDbEntity
  8
0
100
AcDbCircle
 10
11.75162462023013
 20
1.796265382621675
 30
0.0
 40
0.0876713959042334
100
AcDbArc
 50
327.9718933333754
 51
345.4734521831862
  0
LINE
  5
1AB
330
2
100
AcDbEntity
  8
0
100
AcDbLine
 10
11.7907030643176
 20
1.667780225762156
 30
0.0
 11
11.7907030643176
 21
1.944455225762161
 31
0.0
  0
LINE
  5
1AC
330
2
100
AcDbEntity
  8
0
100
AcDbLine
 10
11.7907030643176
 20
2.667780225762156
 30
0.0
 11
11.7907030643176
 21
2.944455225762161
 31
0.0
  0
ARC
  5
1AD
330
2
100
AcDbEntity
  8
0
100
AcDbCircle
 10
11.77562804575381
 20
2.830985451524425
 30
0.0
 40
0.0593583926698636
100
AcDbArc
 50
32.02810666662104
 51
56.48917704434263
  0
ARC
  5
1AE
330
2
100
AcDbEntity
  8
0
100
AcDbCircle
 10
11.74140264871277
 20
2.818962876955096
 30
0.0
 40
0.1181923486075977
100
AcDbArc
 50
15.01337100199102
 51
32.92267190244446
  0
ARC
  5
1AF
330
2
100
AcDbEntity
  8
0
100
AcDbCircle
 10
11.84364130517383
 20
2.77696665116614
 30
0.0
 40
0.1545284259354683
100
AcDbArc
 50
30.84247098871385
 51
55.25172445456771
  0
ARC
  5
1B0
330
2
100
AcDbEntity
  8
0
100
AcDbCircle
 10
11.79070306431758
 20
2.954278525999323
 30
0.0
 40
0.2864983002371666
100
AcDbArc
 50
270.0000000000028
 51
286.0310365777447
  0
ARC
  5
1B1
330
2
100
AcDbEntity
  8
0
100
AcDbCircle
 10
11.77166056002582
 20
2.77368086557299
 30
0.0
 40
0.0821454866301529
100
AcDbArc
 50
302.6079210151855
 51
327.0773280975418
  0
ARC
  5
1B2
330
2
100
AcDbEntity
  8
0
100
AcDbCircle
 10
11.75162462023013
 20
2.796265382621675
 30
0.0
 40
0.0876713959042334
100
AcDbArc
 50
327.9718933333754
 51
345.4734521831862
  0
ARC
  5
1B3
330
2
100
AcDbEntity
  8
0
100
AcDbCircle
 10
11.75162462023013
 20
2.815970068902646
 30
0.0
 40
0.0876713959042252
100
AcDbArc
 50
14.52654781681278
 51
32.02810666662511
  0
ARC
  5
1B4
330
2
100
AcDbEntity
  8
0
100
AcDbCircle
 10
11.79070306431759
 20
2.743913998828878
 30
0.0
 40
0.0468087730667222
100
AcDbArc
 50
270.0000000000087
 51
302.6079210152037
  0
ARC
  5
1B5
330
2
100
AcDbEntity
  8
0
100
AcDbCircle
 10
11.79070306431759
 20
2.758483476385234
 30
0.0
 40
0.0320532506230773
100
AcDbArc
 50
270.0000000000127
 51
303.5108229556826
  0
ARC
  5
1B6
330
2
100
AcDbEntity
  8
0
100
AcDbCircle
 10
11.77562804575381
 20
2.781249999999892
 30
0.0
 40
0.0593583926698646
100
AcDbArc
 50
303.5108229556574
 51
327.9718933333789
  0
ARC
  5
1B7
330
2
100
AcDbEntity
  8
0
100
AcDbCircle
 10
11.74140264871276
 20
2.793272574569224
 30
0.0
 40
0.1181923486076055
100
AcDbArc
 50
327.077328097556
 51
344.9866289980082
  0
ARC
  5
1B8
330
2
100
AcDbEntity
  8
0
100
AcDbCircle
 10
11.69350860237943
 20
2.80611772576218
 30
0.0
 40
0.1677790160026758
100
AcDbArc
 50
344.9866289979966
 51
359.9999999999939
  0
ARC
  5
1B9
330
2
100
AcDbEntity
  8
0
100
AcDbCircle
 10
11.69350860237946
 20
2.806117725762141
 30
0.0
 40
0.1677790160026476
100
AcDbArc
 50
0.0000000000072794
 51
15.01337100200479
  0
ARC
  5
1BA
330
2
100
AcDbEntity
  8
0
100
AcDbCircle
 10
11.81164504840415
 20
2.881394178062225
 30
0.0
 40
0.2106649640867779
100
AcDbArc
 50
286.0310365777373
 51
304.7482755454288
  0
ARC
  5
1BB
330
2
100
AcDbEntity
  8
0
100
AcDbCircle
 10
11.84364130517382
 20
2.835268800358174
 30
0.0
 40
0.1545284259354786
100
AcDbArc
 50
304.7482755454359
 51
329.15752901129
  0
ARC
  5
1BC
330
2
100
AcDbEntity
  8
0
100
AcDbCircle
 10
11.8924603740636
 20
2.806117725762162
 30
0.0
 40
0.0976681881821263
100
AcDbArc
 50
329.1575290112839
 51
359.9999999999959
  0
ARC
  5
1BD
330
2
100
AcDbEntity
  8
0
100
AcDbCircle
 10
11.8924603740636
 20
2.806117725762151
 30
0.0
 40
0.0976681881821335
100
AcDbArc
 50
0.0000000000020842
 51
30.84247098871575
  0
ARC
  5
1BE
330
2
100
AcDbEntity
  8
0
100
AcDbCircle
 10
11.71360112505399
 20
2.806117725762134
 30
0.0
 40
0.126950586969819
100
AcDbArc
 50
345.4734521832155
 51
0.0000000000128274
  0
ARC
  5
1BF
330
2
100
AcDbEntity
  8
0
100
AcDbCircle
 10
11.71360112505402
 20
2.806117725762187
 30
0.0
 40
0.1269505869697909
100
AcDbArc
 50
359.9999999999888
 51
14.52654781678613
  0
ARC
  5
1C0
330
2
100
AcDbEntity
  8
0
100
AcDbCircle
 10
11.79070306431758
 20
2.657956925524996
 30
0.0
 40
0.2864983002371644
100
AcDbArc
 50
73.96896342225521
 51
89.99999999999716
  0
ARC
  5
1C1
330
2
100
AcDbEntity
  8
0
100
AcDbCircle
 10
11.77166056002581
 20
2.838554585951323
 30
0.0
 40
0.0821454866301602
100
AcDbArc
 50
32.92267190245759
 51
57.3920789848117
  0
ARC
  5
1C2
330
2
100
AcDbEntity
  8
0
100
AcDbCircle
 10
11.79070306431759
 20
2.868321452695438
 30
0.0
 40
0.0468087730667218
100
AcDbArc
 50
57.39207898479626
 51
89.99999999999132
  0
ARC
  5
1C3
330
2
100
AcDbEntity
  8
0
100
AcDbCircle
 10
11.79070306431759
 20
2.853751975139083
 30
0.0
 40
0.0320532506230772
100
AcDbArc
 50
56.48917704431746
 51
89.99999999998731
  0
ARC
  5
1C4
330
2
100
AcDbEntity
  8
0
100
AcDbCircle
 10
11.81164504840412
 20
2.730841273462087
 30
0.0
 40
0.2106649640867883
100
AcDbArc
 50
55.25172445456617
 51
73.96896342225755
  0
ARC
  5
1C5
330
2
100
AcDbEntity
  8
0
100
AcDbCircle
 10
11.75162462023013
 20
4.796265382621673
 30
0.0
 40
0.0876713959042334
100
AcDbArc
 50
327.9718933333754
 51
345.4734521831862
  0
ARC
  5
1C6
330
2
100
AcDbEntity
  8
0
100
AcDbCircle
 10
11.77562804575381
 20
4.78124999999989
 30
0.0
 40
0.0593583926698646
100
AcDbArc
 50
303.5108229556574
 51
327.9718933333789
  0
ARC
  5
1C7
330
2
100
AcDbEntity
  8
0
100
AcDbCircle
 10
11.74140264871276
 20
4.793272574569226
 30
0.0
 40
0.1181923486076055
100
AcDbArc
 50
327.077328097556
 51
344.9866289980082
  0
ARC
  5
1C8
330
2
100
AcDbEntity
  8
0
100
AcDbCircle
 10
11.84364130517382
 20
4.835268800358175
 30
0.0
 40
0.1545284259354786
100
AcDbArc
 50
304.7482755454359
 51
329.15752901129
  0
LINE
  5
1C9
330
2
100
AcDbEntity
  8
0
100
AcDbLine
 10
11.7907030643176
 20
4.667780225762154
 30
0.0
 11
11.7907030643176
 21
4.944455225762159
 31
0.0
  0
LINE
  5
1CA
330
2
100
AcDbEntity
  8
0
100
AcDbLine
 10
11.30872131655529
 20
4.876835228390402
 30
0.0
 11
11.06944462125865
 21
4.637558533093763
 31
0.0
  0
LINE
  5
1CB
330
2
100
AcDbEntity
  8
0
100
AcDbLine
 10
11.03283296890697
 20
4.009640958454648
 30
0.0
 11
11.03283296890697
 21
4.549170185445437
 31
0.0
  0
ARC
  5
1CC
330
2
100
AcDbEntity
  8
0
100
AcDbCircle
 10
11.79070306431758
 20
3.954278525999323
 30
0.0
 40
0.2864983002371666
100
AcDbArc
 50
270.0000000000028
 51
286.0310365777447
  0
ARC
  5
1CD
330
2
100
AcDbEntity
  8
0
100
AcDbCircle
 10
11.79070306431758
 20
3.657956925524996
 30
0.0
 40
0.2864983002371644
100
AcDbArc
 50
73.96896342225521
 51
89.99999999999716
  0
ARC
  5
1CE
330
2
100
AcDbEntity
  8
0
100
AcDbCircle
 10
11.77166056002582
 20
3.77368086557299
 30
0.0
 40
0.0821454866301529
100
AcDbArc
 50
302.6079210151855
 51
327.0773280975418
  0
ARC
  5
1CF
330
2
100
AcDbEntity
  8
0
100
AcDbCircle
 10
11.77166056002581
 20
3.838554585951323
 30
0.0
 40
0.0821454866301602
100
AcDbArc
 50
32.92267190245759
 51
57.3920789848117
  0
ARC
  5
1D0
330
2
100
AcDbEntity
  8
0
100
AcDbCircle
 10
11.75162462023013
 20
3.796265382621675
 30
0.0
 40
0.0876713959042334
100
AcDbArc
 50
327.9718933333754
 51
345.4734521831862
  0
ARC
  5
1D1
330
2
100
AcDbEntity
  8
0
100
AcDbCircle
 10
11.75162462023013
 20
3.815970068902646
 30
0.0
 40
0.0876713959042252
100
AcDbArc
 50
14.52654781681278
 51
32.02810666662511
  0
ARC
  5
1D2
330
2
100
AcDbEntity
  8
0
100
AcDbCircle
 10
11.79070306431759
 20
3.743913998828878
 30
0.0
 40
0.0468087730667222
100
AcDbArc
 50
270.0000000000087
 51
302.6079210152037
  0
ARC
  5
1D3
330
2
100
AcDbEntity
  8
0
100
AcDbCircle
 10
11.79070306431759
 20
3.868321452695438
 30
0.0
 40
0.0468087730667218
100
AcDbArc
 50
57.39207898479626
 51
89.99999999999132
  0
ARC
  5
1D4
330
2
100
AcDbEntity
  8
0
100
AcDbCircle
 10
11.79070306431759
 20
3.758483476385234
 30
0.0
 40
0.0320532506230773
100
AcDbArc
 50
270.0000000000127
 51
303.5108229556826
  0
ARC
  5
1D5
330
2
100
AcDbEntity
  8
0
100
AcDbCircle
 10
11.79070306431759
 20
3.853751975139083
 30
0.0
 40
0.0320532506230772
100
AcDbArc
 50
56.48917704431746
 51
89.99999999998731
  0
LINE
  5
1D6
330
2
100
AcDbEntity
  8
0
100
AcDbLine
 10
11.7907030643176
 20
3.667780225762156
 30
0.0
 11
11.7907030643176
 21
3.944455225762161
 31
0.0
  0
ARC
  5
1D7
330
2
100
AcDbEntity
  8
0
100
AcDbCircle
 10
11.77562804575381
 20
3.781249999999892
 30
0.0
 40
0.0593583926698646
100
AcDbArc
 50
303.5108229556574
 51
327.9718933333789
  0
ARC
  5
1D8
330
2
100
AcDbEntity
  8
0
100
AcDbCircle
 10
11.77562804575381
 20
3.830985451524425
 30
0.0
 40
0.0593583926698636
100
AcDbArc
 50
32.02810666662104
 51
56.48917704434263
  0
ARC
  5
1D9
330
2
100
AcDbEntity
  8
0
100
AcDbCircle
 10
11.74140264871276
 20
3.793272574569224
 30
0.0
 40
0.1181923486076055
100
AcDbArc
 50
327.077328097556
 51
344.9866289980082
  0
ARC
  5
1DA
330
2
100
AcDbEntity
  8
0
100
AcDbCircle
 10
11.69350860237943
 20
3.80611772576218
 30
0.0
 40
0.1677790160026758
100
AcDbArc
 50
344.9866289979966
 51
359.9999999999939
  0
ARC
  5
1DB
330
2
100
AcDbEntity
  8
0
100
AcDbCircle
 10
11.69350860237946
 20
3.806117725762141
 30
0.0
 40
0.1677790160026476
100
AcDbArc
 50
0.0000000000072794
 51
15.01337100200479
  0
ARC
  5
1DC
330
2
100
AcDbEntity
  8
0
100
AcDbCircle
 10
11.74140264871277
 20
3.818962876955096
 30
0.0
 40
0.1181923486075977
100
AcDbArc
 50
15.01337100199102
 51
32.92267190244446
  0
ARC
  5
1DD
330
2
100
AcDbEntity
  8
0
100
AcDbCircle
 10
11.81164504840415
 20
3.881394178062225
 30
0.0
 40
0.2106649640867779
100
AcDbArc
 50
286.0310365777373
 51
304.7482755454288
  0
ARC
  5
1DE
330
2
100
AcDbEntity
  8
0
100
AcDbCircle
 10
11.84364130517382
 20
3.835268800358174
 30
0.0
 40
0.1545284259354786
100
AcDbArc
 50
304.7482755454359
 51
329.15752901129
  0
ARC
  5
1DF
330
2
100
AcDbEntity
  8
0
100
AcDbCircle
 10
11.8924603740636
 20
3.806117725762162
 30
0.0
 40
0.0976681881821263
100
AcDbArc
 50
329.1575290112839
 51
359.9999999999959
  0
ARC
  5
1E0
330
2
100
AcDbEntity
  8
0
100
AcDbCircle
 10
11.8924603740636
 20
3.806117725762151
 30
0.0
 40
0.0976681881821335
100
AcDbArc
 50
0.0000000000020842
 51
30.84247098871575
  0
ARC
  5
1E1
330
2
100
AcDbEntity
  8
0
100
AcDbCircle
 10
11.84364130517383
 20
3.77696665116614
 30
0.0
 40
0.1545284259354683
100
AcDbArc
 50
30.84247098871385
 51
55.25172445456771
  0
ARC
  5
1E2
330
2
100
AcDbEntity
  8
0
100
AcDbCircle
 10
11.81164504840412
 20
3.730841273462087
 30
0.0
 40
0.2106649640867883
100
AcDbArc
 50
55.25172445456617
 51
73.96896342225755
  0
ARC
  5
1E3
330
2
100
AcDbEntity
  8
0
100
AcDbCircle
 10
11.71360112505399
 20
3.806117725762134
 30
0.0
 40
0.126950586969819
100
AcDbArc
 50
345.4734521832155
 51
0.0000000000128274
  0
ARC
  5
1E4
330
2
100
AcDbEntity
  8
0
100
AcDbCircle
 10
11.71360112505402
 20
3.806117725762187
 30
0.0
 40
0.1269505869697909
100
AcDbArc
 50
359.9999999999888
 51
14.52654781678613
  0
ARC
  5
1E5
330
2
100
AcDbEntity
  8
0
100
AcDbCircle
 10
11.15783296890697
 20
4.549170185445437
 30
0.0
 40
0.125
100
AcDbArc
 50
134.9999999999999
 51
180.0
  0
ARC
  5
1E6
330
2
100
AcDbEntity
  8
0
100
AcDbCircle
 10
11.79070306431758
 20
4.954278525999325
 30
0.0
 40
0.2864983002371666
100
AcDbArc
 50
270.0000000000028
 51
286.0310365777447
  0
ARC
  5
1E7
330
2
100
AcDbEntity
  8
0
100
AcDbCircle
 10
11.77166056002582
 20
4.773680865572988
 30
0.0
 40
0.0821454866301529
100
AcDbArc
 50
302.6079210151855
 51
327.0773280975418
  0
ARC
  5
1E8
330
2
100
AcDbEntity
  8
0
100
AcDbCircle
 10
11.79070306431759
 20
4.743913998828877
 30
0.0
 40
0.0468087730667222
100
AcDbArc
 50
270.0000000000087
 51
302.6079210152037
  0
ARC
  5
1E9
330
2
100
AcDbEntity
  8
0
100
AcDbCircle
 10
11.79070306431759
 20
4.758483476385234
 30
0.0
 40
0.0320532506230791
100
AcDbArc
 50
270.0000000000127
 51
303.5108229556808
  0
ARC
  5
1EA
330
2
100
AcDbEntity
  8
0
100
AcDbCircle
 10
11.81164504840415
 20
4.881394178062227
 30
0.0
 40
0.2106649640867779
100
AcDbArc
 50
286.0310365777373
 51
304.7482755454288
  0
LINE
  5
1EB
330
2
100
AcDbEntity
  8
0
100
AcDbLine
 10
11.34533296890697
 20
5.611670185445444
 30
0.0
 11
11.34533296890697
 21
4.965223576038721
 31
0.0
  0
ARC
  5
1EC
330
2
100
AcDbEntity
  8
0
100
AcDbCircle
 10
11.22033296890697
 20
4.965223576038721
 30
0.0
 40
0.125
100
AcDbArc
 50
314.9999999999997
 51
0.0
  0
ARC
  5
1ED
330
2
100
AcDbEntity
  8
0
100
AcDbCircle
 10
11.79070306431758
 20
4.657956925524996
 30
0.0
 40
0.2864983002371627
100
AcDbArc
 50
73.96896342225512
 51
89.99999999999716
  0
ARC
  5
1EE
330
2
100
AcDbEntity
  8
0
100
AcDbCircle
 10
11.77166056002581
 20
4.838554585951325
 30
0.0
 40
0.0821454866301583
100
AcDbArc
 50
32.92267190245551
 51
57.39207898481037
  0
ARC
  5
1EF
330
2
100
AcDbEntity
  8
0
100
AcDbCircle
 10
11.79070306431759
 20
4.868321452695437
 30
0.0
 40
0.0468087730667218
100
AcDbArc
 50
57.39207898479626
 51
89.99999999999132
  0
ARC
  5
1F0
330
2
100
AcDbEntity
  8
0
100
AcDbCircle
 10
11.81164504840412
 20
4.730841273462087
 30
0.0
 40
0.2106649640867868
100
AcDbArc
 50
55.2517244545659
 51
73.9689634222574
  0
ARC
  5
1F1
330
2
100
AcDbEntity
  8
0
100
AcDbCircle
 10
11.75162462023013
 20
4.815970068902647
 30
0.0
 40
0.0876713959042252
100
AcDbArc
 50
14.52654781681278
 51
32.02810666662511
  0
ARC
  5
1F2
330
2
100
AcDbEntity
  8
0
100
AcDbCircle
 10
11.69350860237943
 20
4.806117725762181
 30
0.0
 40
0.1677790160026758
100
AcDbArc
 50
344.9866289979966
 51
359.9999999999939
  0
ARC
  5
1F3
330
2
100
AcDbEntity
  8
0
100
AcDbCircle
 10
11.69350860237946
 20
4.806117725762139
 30
0.0
 40
0.1677790160026476
100
AcDbArc
 50
0.0000000000072794
 51
15.01337100200479
  0
ARC
  5
1F4
330
2
100
AcDbEntity
  8
0
100
AcDbCircle
 10
11.8924603740636
 20
4.80611772576216
 30
0.0
 40
0.0976681881821263
100
AcDbArc
 50
329.1575290112839
 51
359.9999999999959
  0
ARC
  5
1F5
330
2
100
AcDbEntity
  8
0
100
AcDbCircle
 10
11.8924603740636
 20
4.806117725762153
 30
0.0
 40
0.0976681881821335
100
AcDbArc
 50
0.0000000000020842
 51
30.84247098871575
  0
ARC
  5
1F6
330
2
100
AcDbEntity
  8
0
100
AcDbCircle
 10
11.71360112505399
 20
4.806117725762132
 30
0.0
 40
0.126950586969819
100
AcDbArc
 50
345.4734521832155
 51
0.0000000000128274
  0
ARC
  5
1F7
330
2
100
AcDbEntity
  8
0
100
AcDbCircle
 10
11.71360112505402
 20
4.806117725762181
 30
0.0
 40
0.1269505869697909
100
AcDbArc
 50
359.9999999999904
 51
14.52654781678768
  0
ARC
  5
1F8
330
2
100
AcDbEntity
  8
0
100
AcDbCircle
 10
11.77562804575381
 20
4.830985451524423
 30
0.0
 40
0.0593583926698636
100
AcDbArc
 50
32.02810666662104
 51
56.48917704434263
  0
ARC
  5
1F9
330
2
100
AcDbEntity
  8
0
100
AcDbCircle
 10
11.79070306431759
 20
4.85375197513908
 30
0.0
 40
0.0320532506230786
100
AcDbArc
 50
56.48917704431922
 51
89.99999999998731
  0
ARC
  5
1FA
330
2
100
AcDbEntity
  8
0
100
AcDbCircle
 10
11.74140264871277
 20
4.818962876955094
 30
0.0
 40
0.1181923486075977
100
AcDbArc
 50
15.01337100199102
 51
32.92267190244446
  0
ARC
  5
1FB
330
2
100
AcDbEntity
  8
0
100
AcDbCircle
 10
11.84364130517383
 20
4.776966651166138
 30
0.0
 40
0.1545284259354683
100
AcDbArc
 50
30.84247098871385
 51
55.25172445456771
  0
ARC
  5
1FC
330
2
100
AcDbEntity
  8
0
100
AcDbCircle
 10
11.22033296890697
 20
5.611670185445444
 30
0.0
 40
0.125
100
AcDbArc
 50
0.0
 51
45.00000000000014
  0
LINE
  5
1FD
330
2
100
AcDbEntity
  8
0
100
AcDbLine
 10
11.06944462125865
 20
5.939335228390402
 30
0.0
 11
11.30872131655529
 21
5.700058533093763
 31
0.0
  0
ARC
  5
1FE
330
2
100
AcDbEntity
  8
0
100
AcDbCircle
 10
11.79070306431758
 20
5.954278525999325
 30
0.0
 40
0.2864983002371666
100
AcDbArc
 50
270.0000000000028
 51
286.0310365777447
  0
ARC
  5
1FF
330
2
100
AcDbEntity
  8
0
100
AcDbCircle
 10
11.79070306431758
 20
5.657956925524996
 30
0.0
 40
0.2864983002371627
100
AcDbArc
 50
73.96896342225512
 51
89.99999999999716
  0
ARC
  5
200
330
2
100
AcDbEntity
  8
0
100
AcDbCircle
 10
11.77166056002582
 20
5.773680865572988
 30
0.0
 40
0.0821454866301529
100
AcDbArc
 50
302.6079210151855
 51
327.0773280975418
  0
ARC
  5
201
330
2
100
AcDbEntity
  8
0
100
AcDbCircle
 10
11.77166056002581
 20
5.838554585951325
 30
0.0
 40
0.0821454866301583
100
AcDbArc
 50
32.92267190245551
 51
57.39207898481037
  0
ARC
  5
202
330
2
100
AcDbEntity
  8
0
100
AcDbCircle
 10
11.75162462023013
 20
5.796265382621673
 30
0.0
 40
0.0876713959042334
100
AcDbArc
 50
327.9718933333754
 51
345.4734521831862
  0
ARC
  5
203
330
2
100
AcDbEntity
  8
0
100
AcDbCircle
 10
11.75162462023013
 20
5.815970068902647
 30
0.0
 40
0.0876713959042252
100
AcDbArc
 50
14.52654781681278
 51
32.02810666662511
  0
ARC
  5
204
330
2
100
AcDbEntity
  8
0
100
AcDbCircle
 10
11.79070306431759
 20
5.743913998828877
 30
0.0
 40
0.0468087730667222
100
AcDbArc
 50
270.0000000000087
 51
302.6079210152037
  0
ARC
  5
205
330
2
100
AcDbEntity
  8
0
100
AcDbCircle
 10
11.79070306431759
 20
5.868321452695437
 30
0.0
 40
0.0468087730667218
100
AcDbArc
 50
57.39207898479626
 51
89.99999999999132
  0
ARC
  5
206
330
2
100
AcDbEntity
  8
0
100
AcDbCircle
 10
11.79070306431759
 20
5.758483476385234
 30
0.0
 40
0.0320532506230791
100
AcDbArc
 50
270.0000000000127
 51
303.5108229556808
  0
ARC
  5
207
330
2
100
AcDbEntity
  8
0
100
AcDbCircle
 10
11.79070306431759
 20
5.85375197513908
 30
0.0
 40
0.0320532506230786
100
AcDbArc
 50
56.48917704431922
 51
89.99999999998731
  0
LINE
  5
208
330
2
100
AcDbEntity
  8
0
100
AcDbLine
 10
11.7907030643176
 20
5.667780225762154
 30
0.0
 11
11.7907030643176
 21
5.944455225762159
 31
0.0
  0
ARC
  5
209
330
2
100
AcDbEntity
  8
0
100
AcDbCircle
 10
11.77562804575381
 20
5.78124999999989
 30
0.0
 40
0.0593583926698646
100
AcDbArc
 50
303.5108229556574
 51
327.9718933333789
  0
ARC
  5
20A
330
2
100
AcDbEntity
  8
0
100
AcDbCircle
 10
11.77562804575381
 20
5.830985451524423
 30
0.0
 40
0.0593583926698636
100
AcDbArc
 50
32.02810666662104
 51
56.48917704434263
  0
ARC
  5
20B
330
2
100
AcDbEntity
  8
0
100
AcDbCircle
 10
11.74140264871276
 20
5.793272574569226
 30
0.0
 40
0.1181923486076055
100
AcDbArc
 50
327.077328097556
 51
344.9866289980082
  0
ARC
  5
20C
330
2
100
AcDbEntity
  8
0
100
AcDbCircle
 10
11.69350860237943
 20
5.806117725762181
 30
0.0
 40
0.1677790160026758
100
AcDbArc
 50
344.9866289979966
 51
359.9999999999939
  0
ARC
  5
20D
330
2
100
AcDbEntity
  8
0
100
AcDbCircle
 10
11.69350860237946
 20
5.806117725762139
 30
0.0
 40
0.1677790160026476
100
AcDbArc
 50
0.0000000000072794
 51
15.01337100200479
  0
ARC
  5
20E
330
2
100
AcDbEntity
  8
0
100
AcDbCircle
 10
11.74140264871277
 20
5.818962876955094
 30
0.0
 40
0.1181923486075977
100
AcDbArc
 50
15.01337100199102
 51
32.92267190244446
  0
ARC
  5
20F
330
2
100
AcDbEntity
  8
0
100
AcDbCircle
 10
11.81164504840415
 20
5.881394178062227
 30
0.0
 40
0.2106649640867779
100
AcDbArc
 50
286.0310365777373
 51
304.7482755454288
  0
ARC
  5
210
330
2
100
AcDbEntity
  8
0
100
AcDbCircle
 10
11.84364130517382
 20
5.835268800358175
 30
0.0
 40
0.1545284259354786
100
AcDbArc
 50
304.7482755454359
 51
329.15752901129
  0
ARC
  5
211
330
2
100
AcDbEntity
  8
0
100
AcDbCircle
 10
11.8924603740636
 20
5.80611772576216
 30
0.0
 40
0.0976681881821263
100
AcDbArc
 50
329.1575290112839
 51
359.9999999999959
  0
ARC
  5
212
330
2
100
AcDbEntity
  8
0
100
AcDbCircle
 10
11.8924603740636
 20
5.806117725762153
 30
0.0
 40
0.0976681881821335
100
AcDbArc
 50
0.0000000000020842
 51
30.84247098871575
  0
ARC
  5
213
330
2
100
AcDbEntity
  8
0
100
AcDbCircle
 10
11.84364130517383
 20
5.776966651166138
 30
0.0
 40
0.1545284259354683
100
AcDbArc
 50
30.84247098871385
 51
55.25172445456771
  0
ARC
  5
214
330
2
100
AcDbEntity
  8
0
100
AcDbCircle
 10
11.81164504840412
 20
5.730841273462087
 30
0.0
 40
0.2106649640867868
100
AcDbArc
 50
55.2517244545659
 51
73.9689634222574
  0
ARC
  5
215
330
2
100
AcDbEntity
  8
0
100
AcDbCircle
 10
11.71360112505399
 20
5.806117725762132
 30
0.0
 40
0.126950586969819
100
AcDbArc
 50
345.4734521832155
 51
0.0000000000128274
  0
ARC
  5
216
330
2
100
AcDbEntity
  8
0
100
AcDbCircle
 10
11.71360112505402
 20
5.806117725762181
 30
0.0
 40
0.1269505869697909
100
AcDbArc
 50
359.9999999999904
 51
14.52654781678768
  0
LINE
  5
217
330
2
100
AcDbEntity
  8
0
100
AcDbLine
 10
11.34533296890698
 20
7.125000000000004
 30
0.0
 11
12.80687804575369
 21
7.125000000000004
 31
0.0
  0
ARC
  5
218
330
2
100
AcDbEntity
  8
0
100
AcDbCircle
 10
11.15783296890697
 20
6.549170185445444
 30
0.0
 40
0.125
100
AcDbArc
 50
134.9999999999999
 51
180.0
  0
LINE
  5
219
330
2
100
AcDbEntity
  8
0
100
AcDbLine
 10
11.03283296890697
 20
6.027723576038721
 30
0.0
 11
11.03283296890697
 21
6.549170185445444
 31
0.0
  0
LINE
  5
21A
330
2
100
AcDbEntity
  8
0
100
AcDbLine
 10
11.03283296890697
 20
6.531249999999996
 30
0.0
 11
11.03283296890697
 21
6.027723319994447
 31
0.0
  0
LINE
  5
21B
330
2
100
AcDbEntity
  8
0
100
AcDbLine
 10
11.34533296890697
 20
7.125000000000004
 30
0.0
 11
11.34533296890697
 21
6.965223576038721
 31
0.0
  0
ARC
  5
21C
330
2
100
AcDbEntity
  8
0
100
AcDbCircle
 10
11.22033296890697
 20
6.965223576038721
 30
0.0
 40
0.125
100
AcDbArc
 50
314.9999999999997
 51
0.0
  0
LINE
  5
21D
330
2
100
AcDbEntity
  8
0
100
AcDbLine
 10
11.30872131655529
 20
6.876835228390402
 30
0.0
 11
11.06944462125865
 21
6.637558533093763
 31
0.0
  0
LINE
  5
21E
330
2
100
AcDbEntity
  8
0
100
AcDbLine
 10
12.71312804575369
 20
6.331249999999994
 30
0.0
 11
12.71312804575369
 21
6.231249999999992
 31
0.0
  0
ARC
  5
21F
330
2
100
AcDbEntity
  8
0
100
AcDbCircle
 10
1.990586674056871
 20
18.12810485369596
 30
0.0
 40
0.1875
100
AcDbArc
 50
90.0
 51
180.0
  0
LINE
  5
220
330
2
100
AcDbEntity
  8
0
100
AcDbLine
 10
-2.009412949274207
 20
18.22185485369596
 30
0.0
 11
-4.547249999999998
 21
18.22185485369596
 31
0.0
  0
LINE
  5
221
330
2
100
AcDbEntity
  8
0
100
AcDbLine
 10
-2.009412949274211
 20
18.31560485369596
 30
0.0
 11
-4.547249999999998
 21
18.31560485369596
 31
0.0
  0
LINE
  5
222
330
2
100
AcDbEntity
  8
0
100
AcDbLine
 10
-4.547249999999998
 20
18.31560485369596
 30
0.0
 11
-4.547249999999998
 21
18.22185485369596
 31
0.0
  0
LINE
  5
223
330
2
100
AcDbEntity
  8
0
100
AcDbLine
 10
-1.049056835928734
 20
18.09685485369596
 30
0.0
 11
1.017056835929438
 21
18.09685485369596
 31
0.0
  0
LINE
  5
224
330
2
100
AcDbEntity
  8
0
100
AcDbLine
 10
-2.179205537352978
 20
17.3551391438326
 30
0.0
 11
-1.96528158577825
 21
17.23401682401535
 31
0.0
  0
LINE
  5
225
330
2
100
AcDbEntity
  8
0
100
AcDbLine
 10
-1.549050818434402
 20
18.09685485369596
 30
0.0
 11
-1.821912949274211
 21
18.09685485369596
 31
0.0
  0
LINE
  5
226
330
2
100
AcDbEntity
  8
0
100
AcDbLine
 10
-1.996468775450119
 20
17.53787590573546
 30
0.0
 11
-2.179205537352978
 21
17.3551391438326
 31
0.0
  0
ARC
  5
227
330
2
100
AcDbEntity
  8
0
100
AcDbCircle
 10
-2.040662949274278
 20
17.58207007955963
 30
0.0
 40
0.0625
100
AcDbArc
 50
315.0
 51
0.000000000000007
  0
ARC
  5
228
330
2
100
AcDbEntity
  8
0
100
AcDbCircle
 10
-2.040662949274285
 20
17.58207007955962
 30
0.0
 40
0.125
100
AcDbArc
 50
315.0
 51
0.000000000000007
  0
LINE
  5
229
330
2
100
AcDbEntity
  8
0
100
AcDbLine
 10
-1.969652038880817
 20
17.47629799964333
 30
0.0
 11
-2.116872984820951
 21
17.31984686680034
 31
0.0
  0
ARC
  5
22A
330
2
100
AcDbEntity
  8
0
100
AcDbCircle
 10
-2.009412949274211
 20
18.12810485369596
 30
0.0
 40
0.1875
100
AcDbArc
 50
0.0
 51
90.0
  0
ARC
  5
22B
330
2
100
AcDbEntity
  8
0
100
AcDbCircle
 10
-2.009412949274207
 20
18.12810485369596
 30
0.0
 40
0.09375
100
AcDbArc
 50
0.0
 51
90.0
  0
LINE
  5
22C
330
2
100
AcDbEntity
  8
0
100
AcDbLine
 10
-1.142803827181151
 20
18.00235376713779
 30
0.0
 11
-1.455303827181151
 21
18.00235376713779
 31
0.0
  0
ARC
  5
22D
330
2
100
AcDbEntity
  8
0
100
AcDbCircle
 10
-1.142803827181151
 20
18.09610376713779
 30
0.0
 40
0.09375
100
AcDbArc
 50
270.0
 51
0.4590352021994594
  0
ARC
  5
22E
330
2
100
AcDbEntity
  8
0
100
AcDbCircle
 10
-1.455303827181151
 20
18.09610376713779
 30
0.0
 40
0.09375
100
AcDbArc
 50
179.5409647978006
 51
270.0000000000001
  0
LINE
  5
22F
330
2
100
AcDbEntity
  8
0
100
AcDbLine
 10
1.423303827182178
 20
18.00235376713779
 30
0.0
 11
1.110803827182178
 21
18.00235376713779
 31
0.0
  0
ARC
  5
230
330
2
100
AcDbEntity
  8
0
100
AcDbCircle
 10
1.110803827182178
 20
18.09610376713779
 30
0.0
 40
0.09375
100
AcDbArc
 50
179.5409647977985
 51
270.0
  0
LINE
  5
231
330
2
100
AcDbEntity
  8
0
100
AcDbLine
 10
1.51705081843507
 20
18.09685485369596
 30
0.0
 11
1.803086674056871
 21
18.09685485369596
 31
0.0
  0
ARC
  5
232
330
2
100
AcDbEntity
  8
0
100
AcDbCircle
 10
1.423303827182178
 20
18.09610376713779
 30
0.0
 40
0.09375
100
AcDbArc
 50
270.0
 51
0.4590352022018076
  0
LINE
  5
233
330
2
100
AcDbEntity
  8
0
100
AcDbLine
 10
1.990586674056871
 20
18.22185485369596
 30
0.0
 11
4.515250000000002
 21
18.22185485369596
 31
0.0
  0
LINE
  5
234
330
2
100
AcDbEntity
  8
0
100
AcDbLine
 10
1.990586674056871
 20
18.31560485369596
 30
0.0
 11
4.515250000000002
 21
18.31560485369596
 31
0.0
  0
LINE
  5
235
330
2
100
AcDbEntity
  8
0
100
AcDbLine
 10
2.160379262135564
 20
17.3551391438326
 30
0.0
 11
1.946455310560836
 21
17.23401682401535
 31
0.0
  0
ARC
  5
236
330
2
100
AcDbEntity
  8
0
100
AcDbCircle
 10
2.021836674056871
 20
17.58207007955962
 30
0.0
 40
0.125
100
AcDbArc
 50
180.0
 51
225.0
  0
ARC
  5
237
330
2
100
AcDbEntity
  8
0
100
AcDbCircle
 10
2.021836674056864
 20
17.58207007955963
 30
0.0
 40
0.0625
100
AcDbArc
 50
180.0
 51
225.0
  0
LINE
  5
238
330
2
100
AcDbEntity
  8
0
100
AcDbLine
 10
1.950825763663403
 20
17.47629799964333
 30
0.0
 11
2.098046709603537
 21
17.31984686680034
 31
0.0
  0
LINE
  5
239
330
2
100
AcDbEntity
  8
0
100
AcDbLine
 10
1.977642500232705
 20
17.53787590573546
 30
0.0
 11
2.160379262135564
 21
17.3551391438326
 31
0.0
  0
ARC
  5
23A
330
2
100
AcDbEntity
  8
0
100
AcDbCircle
 10
1.990586674056871
 20
18.12810485369596
 30
0.0
 40
0.09375
100
AcDbArc
 50
90.0
 51
180.0
  0
LINE
  5
23B
330
2
100
AcDbEntity
  8
0
100
AcDbLine
 10
4.515250000000002
 20
18.31560485369596
 30
0.0
 11
4.515250000000002
 21
18.22185485369596
 31
0.0
  0
LINE
  5
24A
330
2
100
AcDbEntity
  8
0
  6
HIDDEN
100
AcDbLine
 10
-8.572595901180824
 20
0.09375
 30
0.0
 11
-12.63682594559097
 21
0.09375
 31
0.0
  0
LINE
  5
24B
330
2
100
AcDbEntity
  8
0
  6
HIDDEN
100
AcDbLine
 10
8.572595901180824
 20
0.09375
 30
0.0
 11
12.63682594559097
 21
0.09375
 31
0.0
  0
ENDSEC
  0
SECTION
  2
OBJECTS
  0
DICTIONARY
  5
9
330
0
100
AcDbDictionary
281
     1
  3
ACAD_COLOR
350
242
  3
ACAD_GROUP
350
23
  3
ACAD_LAYOUT
350
D
  3
ACAD_MATERIAL
350
241
  3
ACAD_MLINESTYLE
350
24
  3
ACAD_PLOTSETTINGS
350
25
  3
ACAD_PLOTSTYLENAME
350
8
  3
ACAD_TABLESTYLE
350
243
  3
ACDBHEADERROUNDTRIPXREC
350
25D
  3
AcDbVariableDictionary
350
23D
  0
DICTIONARY
  5
242
102
{ACAD_REACTORS
330
9
102
}
330
9
100
AcDbDictionary
281
     1
  0
DICTIONARY
  5
23
102
{ACAD_REACTORS
330
9
102
}
330
9
100
AcDbDictionary
281
     1
  0
DICTIONARY
  5
D
102
{ACAD_REACTORS
330
9
102
}
330
9
100
AcDbDictionary
281
     1
  3
Layout1
350
13
  3
Model
350
C
  0
DICTIONARY
  5
241
102
{ACAD_REACTORS
330
9
102
}
330
9
100
AcDbDictionary
281
     1
  0
DICTIONARY
  5
24
102
{ACAD_REACTORS
330
9
102
}
330
9
100
AcDbDictionary
281
     1
  3
STANDARD
350
26
  0
DICTIONARY
  5
25
102
{ACAD_REACTORS
330
9
102
}
330
9
100
AcDbDictionary
281
     1
  0
ACDBDICTIONARYWDFLT
  5
8
102
{ACAD_REACTORS
330
9
102
}
330
9
100
AcDbDictionary
281
     1
  3
Normal
350
7
100
AcDbDictionaryWithDefault
340
7
  0
DICTIONARY
  5
243
102
{ACAD_REACTORS
330
9
102
}
330
9
100
AcDbDictionary
281
     1
  3
Standard
350
244
  0
DICTIONARY
  5
25D
102
{ACAD_REACTORS
330
9
102
}
330
9
100
AcDbDictionary
281
     1
  3
COLORDICT
350
25E
  3
MATERIALDICT
350
25F
  0
DICTIONARY
  5
23D
102
{ACAD_REACTORS
330
9
102
}
330
9
100
AcDbDictionary
281
     1
  3
CTABLESTYLE
350
25A
  3
HIDETEXT
350
25C
  0
LAYOUT
  5
13
102
{ACAD_REACTORS
330
D
102
}
102
{ACAD_XDICTIONARY
360
260
102
}
330
D
100
AcDbPlotSettings
  1

  2
HP LaserJet 2100 Series PS
  4

  6

 40
0.0
 41
0.0
 42
0.0
 43
0.0
 44
0.0
 45
0.0
 46
0.0
 47
0.0
 48
0.0
 49
0.0
140
0.0
141
0.0
142
1.0
143
1.0
 70
   688
 72
     0
 73
     0
 74
     5
  7

 75
    16
147
1.0
148
0.0
149
0.0
100
AcDbLayout
  1
Layout1
 70
     0
 71
     1
 10
0.0
 20
0.0
 11
12.0
 21
9.0
 12
0.0
 22
0.0
 32
0.0
 14
1.000000000000000E+20
 24
1.000000000000000E+20
 34
1.000000000000000E+20
 15
-1.000000000000000E+20
 25
-1.000000000000000E+20
 35
-1.000000000000000E+20
146
0.0
 13
0.0
 23
0.0
 33
0.0
 16
1.0
 26
0.0
 36
0.0
 17
0.0
 27
1.0
 37
0.0
 76
     0
330
E
  0
LAYOUT
  5
C
102
{ACAD_REACTORS
330
D
102
}
102
{ACAD_XDICTIONARY
360
262
102
}
330
D
100
AcDbPlotSettings
  1

  2
HP LaserJet 2100 Series PS
  4
Letter
  6

 40
5.365749835968018
 41
5.408084392547607
 42
5.4080810546875
 43
5.365753173828125
 44
215.8999938964844
 45
279.3999938964844
 46
0.0
 47
0.0
 48
0.0
 49
0.0
140
0.0
141
0.0
142
1.0
143
3.971318409846261
 70
 11952
 72
     0
 73
     1
 74
     2
  7

 75
     0
147
0.2518055458662435
148
0.0
149
0.0
100
AcDbLayout
  1
Model
 70
     1
 71
     0
 10
0.0
 20
0.0
 11
12.0
 21
9.0
 12
0.0
 22
0.0
 32
0.0
 14
0.0
 24
0.0
 34
0.0
 15
0.0
 25
0.0
 35
0.0
146
0.0
 13
0.0
 23
0.0
 33
0.0
 16
1.0
 26
0.0
 36
0.0
 17
0.0
 27
1.0
 37
0.0
 76
     0
330
2
  0
MLINESTYLE
  5
26
102
{ACAD_REACTORS
330
24
102
}
330
24
100
AcDbMlineStyle
  2
STANDARD
 70
     0
  3

 62
   256
 51
90.0
 52
90.0
 71
     2
 49
0.5
 62
   256
  6
BYLAYER
 49
-0.5
 62
   256
  6
BYLAYER
  0
ACDBPLACEHOLDER
  5
7
102
{ACAD_REACTORS
330
8
102
}
330
8
  0
ACAD_PROXY_OBJECT
  5
244
102
{ACAD_REACTORS
330
243
102
}
330
243
100
AcDbProxyObject
 90
      499
 91
      537
 95
   983063
 70
     0
 93
     1841
310
4214DD185B99185C9928B81E85EB51B8AE3F2E07A17AD46E2B8FC02B5E8DC0F42B1CFD028000000C1008070000C3001FDFF8000000C1003FBFF000000182007F7FE00000030400FEFFC00000060801FDFF8000000C1003FBFF00000018200000000000000681FA0B0000001820100E000186003FBFF000000182007F7FE000
310
00030400FEFFC00000060801FDFF8000000C1003FBFF000000182007F7FE000000304000AD7A3703D0AC73F4160000003040201C00030C007F7FE00000030400FEFFC00000060801FDFF8000000C1003FBFF000000182007F7FE00000030400FEFFC000000608000
340
16
340
16
340
16
 94
        0
  0
XRECORD
  5
25E
102
{ACAD_REACTORS
330
25D
102
}
330
25D
100
AcDbXrecord
340
242
  0
XRECORD
  5
25F
102
{ACAD_REACTORS
330
25D
102
}
330
25D
100
AcDbXrecord
340
241
  0
DICTIONARYVAR
  5
25A
102
{ACAD_REACTORS
330
23D
102
}
330
23D
100
DictionaryVariables
280
     0
  1
STANDARD
  0
DICTIONARYVAR
  5
25C
102
{ACAD_REACTORS
330
23D
102
}
330
23D
100
DictionaryVariables
280
     0
  1
0
  0
DICTIONARY
  5
260
330
13
100
AcDbDictionary
280
     1
281
     1
  3
ACAD_XREC_ROUNDTRIP
360
261
  0
DICTIONARY
  5
262
330
C
100
AcDbDictionary
280
     1
281
     1
  3
ACAD_XREC_ROUNDTRIP
360
263
  0
XRECORD
  5
261
102
{ACAD_REACTORS
330
260
102
}
330
260
100
AcDbXrecord
102
SHADEPLOT
 70
     0
102
SHADEPLOTRESLEVEL
 70
     2
102
SHADEPLOTCUSTOMDPI
 70
   300
  0
XRECORD
  5
263
102
{ACAD_REACTORS
330
262
102
}
330
262
100
AcDbXrecord
102
SHADEPLOT
 70
     0
102
SHADEPLOTRESLEVEL
 70
     2
102
SHADEPLOTCUSTOMDPI
 70
   300
  0
ENDSEC
  0
EOF
