  0
SECTION
  2
HEADER
  9
$ACADVER
  1
AC1015
  9
$ACADMAINTVER
 70
     6
  9
$DWGCODEPAGE
  3
ANSI_1252
  9
$INSBASE
 10
0.0
 20
0.0
 30
0.0
  9
$EXTMIN
 10
-14.69779614808915
 20
-0.0388325214724776
 30
0.0
  9
$EXTMAX
 10
14.69779614808916
 20
21.8863837533341
 30
0.0
  9
$LIMMIN
 10
0.0
 20
0.0
  9
$LIMMAX
 10
52.5
 20
40.0
  9
$ORTHOMODE
 70
     1
  9
$REGENMODE
 70
     1
  9
$FILLMODE
 70
     1
  9
$QTEXTMODE
 70
     0
  9
$MIRRTEXT
 70
     0
  9
$LTSCALE
 40
0.5
  9
$ATTMODE
 70
     1
  9
$TEXTSIZE
 40
0.36
  9
$TRACEWID
 40
0.05
  9
$TEXTSTYLE
  7
STANDARD
  9
$CLAYER
  8
0
  9
$CELTYPE
  6
BYLAYER
  9
$CECOLOR
 62
   256
  9
$CELTSCALE
 40
1.0
  9
$DISPSILH
 70
     0
  9
$DIMSCALE
 40
4.0
  9
$DIMASZ
 40
0.125
  9
$DIMEXO
 40
0.062
  9
$DIMDLI
 40
0.375
  9
$DIMRND
 40
0.0
  9
$DIMDLE
 40
0.0
  9
$DIMEXE
 40
0.08
  9
$DIMTP
 40
0.0
  9
$DIMTM
 40
0.0
  9
$DIMTXT
 40
0.09
  9
$DIMCEN
 40
-0.03125
  9
$DIMTSZ
 40
0.0
  9
$DIMTOL
 70
     0
  9
$DIMLIM
 70
     0
  9
$DIMTIH
 70
     1
  9
$DIMTOH
 70
     1
  9
$DIMSE1
 70
     0
  9
$DIMSE2
 70
     0
  9
$DIMTAD
 70
     0
  9
$DIMZIN
 70
     0
  9
$DIMBLK
  1

  9
$DIMASO
 70
     0
  9
$DIMSHO
 70
     0
  9
$DIMPOST
  1

  9
$DIMAPOST
  1

  9
$DIMALT
 70
     0
  9
$DIMALTD
 70
     2
  9
$DIMALTF
 40
25.4
  9
$DIMLFAC
 40
1.0
  9
$DIMTOFL
 70
     0
  9
$DIMTVP
 40
0.0
  9
$DIMTIX
 70
     0
  9
$DIMSOXD
 70
     0
  9
$DIMSAH
 70
     0
  9
$DIMBLK1
  1

  9
$DIMBLK2
  1

  9
$DIMSTYLE
  2
STANDARD
  9
$DIMCLRD
 70
     0
  9
$DIMCLRE
 70
     0
  9
$DIMCLRT
 70
     0
  9
$DIMTFAC
 40
1.0
  9
$DIMGAP
 40
0.09
  9
$DIMJUST
 70
     0
  9
$DIMSD1
 70
     0
  9
$DIMSD2
 70
     0
  9
$DIMTOLJ
 70
     1
  9
$DIMTZIN
 70
     0
  9
$DIMALTZ
 70
     0
  9
$DIMALTTZ
 70
     0
  9
$DIMUPT
 70
     0
  9
$DIMDEC
 70
     5
  9
$DIMTDEC
 70
     4
  9
$DIMALTU
 70
     2
  9
$DIMALTTD
 70
     2
  9
$DIMTXSTY
  7
STANDARD
  9
$DIMAUNIT
 70
     0
  9
$DIMADEC
 70
     0
  9
$DIMALTRND
 40
0.0
  9
$DIMAZIN
 70
     0
  9
$DIMDSEP
 70
    46
  9
$DIMATFIT
 70
     3
  9
$DIMFRAC
 70
     2
  9
$DIMLDRBLK
  1

  9
$DIMLUNIT
 70
     5
  9
$DIMLWD
 70
    -2
  9
$DIMLWE
 70
    -2
  9
$DIMTMOVE
 70
     2
  9
$LUNITS
 70
     2
  9
$LUPREC
 70
     4
  9
$SKETCHINC
 40
0.1
  9
$FILLETRAD
 40
0.0
  9
$AUNITS
 70
     0
  9
$AUPREC
 70
     0
  9
$MENU
  1
acad
  9
$ELEVATION
 40
0.0
  9
$PELEVATION
 40
0.0
  9
$THICKNESS
 40
0.0
  9
$LIMCHECK
 70
     0
  9
$CHAMFERA
 40
0.0
  9
$CHAMFERB
 40
0.0
  9
$CHAMFERC
 40
0.0
  9
$CHAMFERD
 40
0.0
  9
$SKPOLY
 70
     0
  9
$TDCREATE
 40
2450528.814363889
  9
$TDUCREATE
 40
2450529.147697222
  9
$TDUPDATE
 40
2454165.955239907
  9
$TDUUPDATE
 40
2454166.288573241
  9
$TDINDWG
 40
0.12454125
  9
$TDUSRTIMER
 40
0.12454125
  9
$USRTIMER
 70
     1
  9
$ANGBASE
 50
0.0
  9
$ANGDIR
 70
     0
  9
$PDMODE
 70
     0
  9
$PDSIZE
 40
0.0
  9
$PLINEWID
 40
0.0
  9
$SPLFRAME
 70
     0
  9
$SPLINETYPE
 70
     6
  9
$SPLINESEGS
 70
     8
  9
$HANDSEED
  5
378
  9
$SURFTAB1
 70
     6
  9
$SURFTAB2
 70
     6
  9
$SURFTYPE
 70
     6
  9
$SURFU
 70
     6
  9
$SURFV
 70
     6
  9
$UCSBASE
  2

  9
$UCSNAME
  2

  9
$UCSORG
 10
0.0
 20
0.0
 30
0.0
  9
$UCSXDIR
 10
1.0
 20
0.0
 30
0.0
  9
$UCSYDIR
 10
0.0
 20
1.0
 30
0.0
  9
$UCSORTHOREF
  2

  9
$UCSORTHOVIEW
 70
     0
  9
$UCSORGTOP
 10
0.0
 20
0.0
 30
0.0
  9
$UCSORGBOTTOM
 10
0.0
 20
0.0
 30
0.0
  9
$UCSORGLEFT
 10
0.0
 20
0.0
 30
0.0
  9
$UCSORGRIGHT
 10
0.0
 20
0.0
 30
0.0
  9
$UCSORGFRONT
 10
0.0
 20
0.0
 30
0.0
  9
$UCSORGBACK
 10
0.0
 20
0.0
 30
0.0
  9
$PUCSBASE
  2

  9
$PUCSNAME
  2

  9
$PUCSORG
 10
0.0
 20
0.0
 30
0.0
  9
$PUCSXDIR
 10
1.0
 20
0.0
 30
0.0
  9
$PUCSYDIR
 10
0.0
 20
1.0
 30
0.0
  9
$PUCSORTHOREF
  2

  9
$PUCSORTHOVIEW
 70
     0
  9
$PUCSORGTOP
 10
0.0
 20
0.0
 30
0.0
  9
$PUCSORGBOTTOM
 10
0.0
 20
0.0
 30
0.0
  9
$PUCSORGLEFT
 10
0.0
 20
0.0
 30
0.0
  9
$PUCSORGRIGHT
 10
0.0
 20
0.0
 30
0.0
  9
$PUCSORGFRONT
 10
0.0
 20
0.0
 30
0.0
  9
$PUCSORGBACK
 10
0.0
 20
0.0
 30
0.0
  9
$USERI1
 70
     0
  9
$USERI2
 70
     0
  9
$USERI3
 70
     0
  9
$USERI4
 70
     0
  9
$USERI5
 70
     0
  9
$USERR1
 40
0.0
  9
$USERR2
 40
0.0
  9
$USERR3
 40
0.0
  9
$USERR4
 40
0.0
  9
$USERR5
 40
0.0
  9
$WORLDVIEW
 70
     1
  9
$SHADEDGE
 70
     3
  9
$SHADEDIF
 70
    70
  9
$TILEMODE
 70
     1
  9
$MAXACTVP
 70
    16
  9
$PINSBASE
 10
0.0
 20
0.0
 30
0.0
  9
$PLIMCHECK
 70
     0
  9
$PEXTMIN
 10
1.000000000000000E+20
 20
1.000000000000000E+20
 30
1.000000000000000E+20
  9
$PEXTMAX
 10
-1.000000000000000E+20
 20
-1.000000000000000E+20
 30
-1.000000000000000E+20
  9
$PLIMMIN
 10
0.0
 20
0.0
  9
$PLIMMAX
 10
12.0
 20
9.0
  9
$UNITMODE
 70
     0
  9
$VISRETAIN
 70
     0
  9
$PLINEGEN
 70
     0
  9
$PSLTSCALE
 70
     0
  9
$TREEDEPTH
 70
  3020
  9
$CMLSTYLE
  2
STANDARD
  9
$CMLJUST
 70
     0
  9
$CMLSCALE
 40
1.0
  9
$PROXYGRAPHICS
 70
     1
  9
$MEASUREMENT
 70
     0
  9
$CELWEIGHT
370
    -1
  9
$ENDCAPS
280
     0
  9
$JOINSTYLE
280
     0
  9
$LWDISPLAY
290
     0
  9
$INSUNITS
 70
     0
  9
$HYPERLINKBASE
  1

  9
$STYLESHEET
  1

  9
$XEDIT
290
     1
  9
$CEPSNTYPE
380
     0
  9
$PSTYLEMODE
290
     1
  9
$FINGERPRINTGUID
  2
{69B101A2-8CA8-11D5-BE3F-00508B5FCD51}
  9
$VERSIONGUID
  2
{3D8C123E-5E6D-4C63-AE0E-F4A087014C88}
  9
$EXTNAMES
290
     1
  9
$PSVPSCALE
 40
0.0
  9
$OLESTARTUP
290
     0
  0
ENDSEC
  0
SECTION
  2
CLASSES
  0
CLASS
  1
DICTIONARYVAR
  2
AcDbDictionaryVar
  3
AutoCAD 2000
 90
        0
280
     0
281
     0
  0
CLASS
  1
LWPOLYLINE
  2
AcDbPolyline
  3
AutoCAD 2000
 90
        0
280
     0
281
     1
  0
CLASS
  1
ACDBDICTIONARYWDFLT
  2
AcDbDictionaryWithDefault
  3
AutoCAD 2000
 90
        0
280
     0
281
     0
  0
CLASS
  1
ACDBPLACEHOLDER
  2
AcDbPlaceHolder
  3
ObjectDBX Classes
 90
        0
280
     0
281
     0
  0
CLASS
  1
LAYOUT
  2
AcDbLayout
  3
ObjectDBX Classes
 90
        0
280
     0
281
     0
  0
CLASS
  1
LONG_TRANSACTION
  2
AcDbLongTransaction
  3
ObjectDBX Classes
 90
   -65536
280
     1
281
     0
  0
CLASS
  1
LWPOLYLINE
  2
AcDbPolyline
  3
AutoCAD 2000
 90
        0
280
     0
281
     1
  0
CLASS
  1
HATCH
  2
AcDbHatch
  3
AutoCAD 2000
 90
        0
280
     0
281
     1
  0
CLASS
  1
XRECORD
  2
AcDbXrecord
  3
AutoCAD 2000
 90
        0
280
     0
281
     0
  0
CLASS
  1
LONG_TRANSACTION
  2
AcDbLongTransaction
  3
ObjectDBX Classes
 90
   -65536
280
     1
281
     0
  0
CLASS
  1
LWPOLYLINE
  2
AcDbPolyline
  3
AutoCAD 2000
 90
        0
280
     0
281
     1
  0
CLASS
  1
HATCH
  2
AcDbHatch
  3
AutoCAD 2000
 90
        0
280
     0
281
     1
  0
CLASS
  1
XRECORD
  2
AcDbXrecord
  3
AutoCAD 2000
 90
        0
280
     0
281
     0
  0
CLASS
  1
LONG_TRANSACTION
  2
AcDbLongTransaction
  3
ObjectDBX Classes
 90
   -65536
280
     1
281
     0
  0
CLASS
  1
LWPOLYLINE
  2
AcDbPolyline
  3
AutoCAD 2000
 90
        0
280
     0
281
     1
  0
CLASS
  1
HATCH
  2
AcDbHatch
  3
AutoCAD 2000
 90
        0
280
     0
281
     1
  0
CLASS
  1
XRECORD
  2
AcDbXrecord
  3
AutoCAD 2000
 90
        0
280
     0
281
     0
  0
CLASS
  1
LONG_TRANSACTION
  2
AcDbLongTransaction
  3
ObjectDBX Classes
 90
   -65536
280
     1
281
     0
  0
CLASS
  1
LWPOLYLINE
  2
AcDbPolyline
  3
AutoCAD 2000
 90
        0
280
     0
281
     1
  0
CLASS
  1
HATCH
  2
AcDbHatch
  3
AutoCAD 2000
 90
        0
280
     0
281
     1
  0
CLASS
  1
XRECORD
  2
AcDbXrecord
  3
AutoCAD 2000
 90
        0
280
     0
281
     0
  0
CLASS
  1
LONG_TRANSACTION
  2
AcDbLongTransaction
  3
ObjectDBX Classes
 90
   -65536
280
     1
281
     0
  0
CLASS
  1
LWPOLYLINE
  2
AcDbPolyline
  3
AutoCAD 2000
 90
        0
280
     0
281
     1
  0
CLASS
  1
HATCH
  2
AcDbHatch
  3
AutoCAD 2000
 90
        0
280
     0
281
     1
  0
CLASS
  1
XRECORD
  2
AcDbXrecord
  3
AutoCAD 2000
 90
        0
280
     0
281
     0
  0
CLASS
  1
LONG_TRANSACTION
  2
AcDbLongTransaction
  3
ObjectDBX Classes
 90
   -65536
280
     1
281
     0
  0
CLASS
  1
LWPOLYLINE
  2
AcDbPolyline
  3
AutoCAD 2000
 90
        0
280
     0
281
     1
  0
CLASS
  1
HATCH
  2
AcDbHatch
  3
AutoCAD 2000
 90
        0
280
     0
281
     1
  0
CLASS
  1
XRECORD
  2
AcDbXrecord
  3
AutoCAD 2000
 90
        0
280
     0
281
     0
  0
CLASS
  1
LONG_TRANSACTION
  2
AcDbLongTransaction
  3
ObjectDBX Classes
 90
   -65536
280
     1
281
     0
  0
CLASS
  1
LWPOLYLINE
  2
AcDbPolyline
  3
AutoCAD 2000
 90
        0
280
     0
281
     1
  0
CLASS
  1
HATCH
  2
AcDbHatch
  3
AutoCAD 2000
 90
        0
280
     0
281
     1
  0
CLASS
  1
XRECORD
  2
AcDbXrecord
  3
AutoCAD 2000
 90
        0
280
     0
281
     0
  0
CLASS
  1
LONG_TRANSACTION
  2
AcDbLongTransaction
  3
ObjectDBX Classes
 90
   -65536
280
     1
281
     0
  0
CLASS
  1
LWPOLYLINE
  2
AcDbPolyline
  3
AutoCAD 2000
 90
        0
280
     0
281
     1
  0
CLASS
  1
HATCH
  2
AcDbHatch
  3
AutoCAD 2000
 90
        0
280
     0
281
     1
  0
CLASS
  1
XRECORD
  2
AcDbXrecord
  3
AutoCAD 2000
 90
        0
280
     0
281
     0
  0
CLASS
  1
LONG_TRANSACTION
  2
AcDbLongTransaction
  3
ObjectDBX Classes
 90
   -65536
280
     1
281
     0
  0
CLASS
  1
LWPOLYLINE
  2
AcDbPolyline
  3
AutoCAD 2000
 90
        0
280
     0
281
     1
  0
CLASS
  1
HATCH
  2
AcDbHatch
  3
AutoCAD 2000
 90
        0
280
     0
281
     1
  0
CLASS
  1
XRECORD
  2
AcDbXrecord
  3
AutoCAD 2000
 90
        0
280
     0
281
     0
  0
CLASS
  1
LONG_TRANSACTION
  2
AcDbLongTransaction
  3
ObjectDBX Classes
 90
   -65536
280
     1
281
     0
  0
CLASS
  1
LWPOLYLINE
  2
AcDbPolyline
  3
AutoCAD 2000
 90
        0
280
     0
281
     1
  0
CLASS
  1
HATCH
  2
AcDbHatch
  3
AutoCAD 2000
 90
        0
280
     0
281
     1
  0
CLASS
  1
XRECORD
  2
AcDbXrecord
  3
AutoCAD 2000
 90
        0
280
     0
281
     0
  0
CLASS
  1
LONG_TRANSACTION
  2
AcDbLongTransaction
  3
ObjectDBX Classes
 90
   -65536
280
     1
281
     0
  0
CLASS
  1
LWPOLYLINE
  2
AcDbPolyline
  3
AutoCAD 2000
 90
        0
280
     0
281
     1
  0
CLASS
  1
HATCH
  2
AcDbHatch
  3
AutoCAD 2000
 90
        0
280
     0
281
     1
  0
CLASS
  1
XRECORD
  2
AcDbXrecord
  3
AutoCAD 2000
 90
        0
280
     0
281
     0
  0
CLASS
  1
TABLESTYLE
  2
AcDbTableStyle
  3
ObjectDBX Classes
 90
     2047
280
     1
281
     0
  0
CLASS
  1
SORTENTSTABLE
  2
AcDbSortentsTable
  3
AutoCAD 2000
 90
        0
280
     0
281
     0
  0
ENDSEC
  0
SECTION
  2
TABLES
  0
TABLE
  2
VPORT
  5
1D
330
0
100
AcDbSymbolTable
 70
     3
  0
VPORT
  5
36A
330
1D
100
AcDbSymbolTableRecord
100
AcDbViewportTableRecord
  2
*Active
 70
     0
 10
0.0
 20
0.0
 11
1.0
 21
1.0
 12
14.25545547641063
 22
17.53058270886512
 13
0.0
 23
0.0
 14
0.03125
 24
0.03125
 15
0.25
 25
0.25
 16
0.0
 26
0.0
 36
1.0
 17
0.0
 27
0.0
 37
0.0
 40
40.53974526362257
 41
1.814583333333333
 42
50.0
 43
0.0
 44
0.0
 50
0.0
 51
0.0
 71
     0
 72
   100
 73
     1
 74
     0
 75
     0
 76
     0
 77
     0
 78
     0
281
     0
 65
     1
110
0.0
120
0.0
130
0.0
111
1.0
121
0.0
131
0.0
112
0.0
122
1.0
132
0.0
 79
     0
146
0.0
  0
ENDTAB
  0
TABLE
  2
LTYPE
  5
18
330
0
100
AcDbSymbolTable
 70
     2
  0
LTYPE
  5
19
330
18
100
AcDbSymbolTableRecord
100
AcDbLinetypeTableRecord
  2
BYBLOCK
 70
     0
  3

 72
    65
 73
     0
 40
0.0
  0
LTYPE
  5
1A
330
18
100
AcDbSymbolTableRecord
100
AcDbLinetypeTableRecord
  2
BYLAYER
 70
     0
  3

 72
    65
 73
     0
 40
0.0
  0
LTYPE
  5
A
330
18
100
AcDbSymbolTableRecord
100
AcDbLinetypeTableRecord
  2
CONTINUOUS
 70
     0
  3
Solid line
 72
    65
 73
     0
 40
0.0
  0
LTYPE
  5
2ED
330
18
100
AcDbSymbolTableRecord
100
AcDbLinetypeTableRecord
  2
HIDDEN
 70
     0
  3
Hidden __ __ __ __ __ __ __ __ __ __ __ __ __ _
 72
    65
 73
     2
 40
0.375
 49
0.25
 74
     0
 49
-0.125
 74
     0
  0
ENDTAB
  0
TABLE
  2
LAYER
  5
14
330
0
100
AcDbSymbolTable
 70
     1
  0
LAYER
  5
6
330
14
100
AcDbSymbolTableRecord
100
AcDbLayerTableRecord
  2
0
 70
     0
 62
     7
  6
CONTINUOUS
370
    -3
390
7
  0
ENDTAB
  0
TABLE
  2
STYLE
  5
15
330
0
100
AcDbSymbolTable
 70
     1
  0
STYLE
  5
16
330
15
100
AcDbSymbolTableRecord
100
AcDbTextStyleTableRecord
  2
STANDARD
 70
     0
 40
0.0
 41
1.0
 50
0.0
 71
     0
 42
0.36
  3
TXT
  4

  0
ENDTAB
  0
TABLE
  2
VIEW
  5
1B
330
0
100
AcDbSymbolTable
 70
     0
  0
ENDTAB
  0
TABLE
  2
UCS
  5
1C
330
0
100
AcDbSymbolTable
 70
     0
  0
ENDTAB
  0
TABLE
  2
APPID
  5
1F
330
0
100
AcDbSymbolTable
 70
     1
  0
APPID
  5
20
330
1F
100
AcDbSymbolTableRecord
100
AcDbRegAppTableRecord
  2
ACAD
 70
     0
  0
ENDTAB
  0
TABLE
  2
DIMSTYLE
  5
21
330
0
100
AcDbSymbolTable
 70
     1
100
AcDbDimStyleTable
  0
DIMSTYLE
105
28
330
21
100
AcDbSymbolTableRecord
100
AcDbDimStyleTableRecord
  2
STANDARD
 70
     0
  3

  4

340
16
  0
ENDTAB
  0
TABLE
  2
BLOCK_RECORD
  5
1
330
0
100
AcDbSymbolTable
 70
     0
  0
BLOCK_RECORD
  5
2
102
{ACAD_XDICTIONARY
360
3
102
}
330
1
100
AcDbSymbolTableRecord
100
AcDbBlockTableRecord
  2
*MODEL_SPACE
340
C
  0
BLOCK_RECORD
  5
E
330
1
100
AcDbSymbolTableRecord
100
AcDbBlockTableRecord
  2
*PAPER_SPACE
340
13
  0
ENDTAB
  0
ENDSEC
  0
SECTION
  2
BLOCKS
  0
BLOCK
  5
5
330
2
100
AcDbEntity
  8
0
100
AcDbBlockBegin
  2
*MODEL_SPACE
 70
     0
 10
0.0
 20
0.0
 30
0.0
  3
*MODEL_SPACE
  1

  4

  0
ENDBLK
  5
B
330
2
100
AcDbEntity
  8
0
100
AcDbBlockEnd
  0
BLOCK
  5
11
330
E
100
AcDbEntity
 67
     1
  8
0
100
AcDbBlockBegin
  2
*PAPER_SPACE
 70
     0
 10
0.0
 20
0.0
 30
0.0
  3
*PAPER_SPACE
  1

  4

  0
ENDBLK
  5
12
330
E
100
AcDbEntity
 67
     1
  8
0
100
AcDbBlockEnd
  0
ENDSEC
  0
SECTION
  2
ENTITIES
  0
LINE
  5
2EE
330
2
100
AcDbEntity
  8
0
100
AcDbLine
 10
0.5989441603554475
 20
5.549170185445451
 30
0.0
 11
0.5989441603554475
 21
5.027723576038721
 31
0.0
  0
ARC
  5
2EF
330
2
100
AcDbEntity
  8
0
100
AcDbCircle
 10
4.161444160355448
 20
4.072140958453144
 30
0.0
 40
3.250000000000006
100
AcDbArc
 50
180.0
 51
225.0000000000003
  0
LINE
  5
2F0
330
2
100
AcDbEntity
  8
0
100
AcDbLine
 10
3.191774246245334
 20
0.4456167948506611
 30
0.0
 11
1.863347121499178
 21
1.774043919596846
 31
0.0
  0
ARC
  5
2F1
330
2
100
AcDbEntity
  8
0
100
AcDbCircle
 10
2.661444160357252
 20
-0.0847132910384971
 30
0.0
 40
0.7499999999981685
100
AcDbArc
 50
6.485459088332444
 51
45.00000000005765
  0
LINE
  5
2F2
330
2
100
AcDbEntity
  8
0
100
AcDbLine
 10
-0.0353509164912786
 20
1.295696794696864
 30
0.0
 11
-0.0353509164912786
 21
1.146070401635653
 31
0.0
  0
ARC
  5
2F3
330
2
100
AcDbEntity
  8
0
100
AcDbCircle
 10
0.1368947312591793
 20
1.217527426202059
 30
0.0
 40
0.0855
100
AcDbArc
 50
269.9998349343467
 51
90.00016506565325
  0
ARC
  5
2F4
330
2
100
AcDbEntity
  8
0
100
AcDbCircle
 10
0.1165273011481709
 20
1.217527426202059
 30
0.0
 40
0.0855
100
AcDbArc
 50
269.9998349343467
 51
90.00016506565325
  0
ARC
  5
2F5
330
2
100
AcDbEntity
  8
0
100
AcDbCircle
 10
0.1686490835087291
 20
1.217527426202414
 30
0.0
 40
0.0855
100
AcDbArc
 50
270.0
 51
90.0
  0
LINE
  5
2F6
330
2
100
AcDbEntity
  8
0
100
AcDbLine
 10
0.1686490835087291
 20
1.132027426202415
 30
0.0
 11
-0.0188509164912709
 21
1.132027426202415
 31
0.0
  0
LINE
  5
2F7
330
2
100
AcDbEntity
  8
0
100
AcDbLine
 10
0.1686490835087291
 20
1.303027426202414
 30
0.0
 11
-0.0188509164912709
 21
1.303027426202414
 31
0.0
  0
LINE
  5
2F8
330
2
100
AcDbEntity
  8
0
100
AcDbLine
 10
-0.0353509164912786
 20
2.295214961425527
 30
0.0
 11
-0.0353509164912786
 21
2.145588568364316
 31
0.0
  0
ARC
  5
2F9
330
2
100
AcDbEntity
  8
0
100
AcDbCircle
 10
0.111827124968702
 20
2.217527426202059
 30
0.0
 40
0.0855
100
AcDbArc
 50
269.9998349343467
 51
90.00016506565325
  0
ARC
  5
2FA
330
2
100
AcDbEntity
  8
0
100
AcDbCircle
 10
0.1321945550797103
 20
2.217527426202059
 30
0.0
 40
0.0855
100
AcDbArc
 50
269.9998349343467
 51
90.00016506565325
  0
ARC
  5
2FB
330
2
100
AcDbEntity
  8
0
100
AcDbCircle
 10
0.1686490835087291
 20
2.217527426202414
 30
0.0
 40
0.0855
100
AcDbArc
 50
270.0
 51
90.0
  0
LINE
  5
2FC
330
2
100
AcDbEntity
  8
0
100
AcDbLine
 10
0.1686490835087291
 20
2.303027426202414
 30
0.0
 11
-0.0188509164912709
 21
2.303027426202414
 31
0.0
  0
LINE
  5
2FD
330
2
100
AcDbEntity
  8
0
100
AcDbLine
 10
0.1686490835087291
 20
2.132027426202415
 30
0.0
 11
-0.0188509164912709
 21
2.132027426202415
 31
0.0
  0
ARC
  5
2FE
330
2
100
AcDbEntity
  8
0
100
AcDbCircle
 10
0.1321945550796251
 20
3.217527426202773
 30
0.0
 40
0.0855
100
AcDbArc
 50
269.9998349343467
 51
90.00016506565325
  0
ARC
  5
2FF
330
2
100
AcDbEntity
  8
0
100
AcDbCircle
 10
0.1118271249686167
 20
3.217527426202773
 30
0.0
 40
0.0855
100
AcDbArc
 50
269.9998349343467
 51
90.00016506565325
  0
LINE
  5
300
330
2
100
AcDbEntity
  8
0
100
AcDbLine
 10
-0.0353509164912786
 20
3.27926308839985
 30
0.0
 11
-0.0353509164912786
 21
3.129636695338638
 31
0.0
  0
ARC
  5
301
330
2
100
AcDbEntity
  8
0
100
AcDbCircle
 10
0.1686490835087291
 20
3.217527426202414
 30
0.0
 40
0.0855
100
AcDbArc
 50
270.0
 51
90.0
  0
LINE
  5
302
330
2
100
AcDbEntity
  8
0
100
AcDbLine
 10
0.1686490835087291
 20
3.303027426202418
 30
0.0
 11
-0.0188509164912709
 21
3.303027426202418
 31
0.0
  0
LINE
  5
303
330
2
100
AcDbEntity
  8
0
100
AcDbLine
 10
0.1686490835087291
 20
3.132027426202418
 30
0.0
 11
-0.0188509164912709
 21
3.132027426202418
 31
0.0
  0
LINE
  5
304
330
2
100
AcDbEntity
  8
0
100
AcDbLine
 10
-0.0353509164912786
 20
4.295214961425527
 30
0.0
 11
-0.0353509164912786
 21
4.145588568364316
 31
0.0
  0
ARC
  5
305
330
2
100
AcDbEntity
  8
0
100
AcDbCircle
 10
0.1686490835087291
 20
4.217527426202414
 30
0.0
 40
0.0855
100
AcDbArc
 50
269.9998349343467
 51
90.00016506565325
  0
LINE
  5
306
330
2
100
AcDbEntity
  8
0
100
AcDbLine
 10
0.1686490835087291
 20
4.30302742620241
 30
0.0
 11
-0.0353509164912786
 21
4.30302742620241
 31
0.0
  0
LINE
  5
307
330
2
100
AcDbEntity
  8
0
100
AcDbLine
 10
0.1686490835087291
 20
4.132027426202411
 30
0.0
 11
-0.0353509164912786
 21
4.132027426202411
 31
0.0
  0
ARC
  5
308
330
2
100
AcDbEntity
  8
0
100
AcDbCircle
 10
0.109547754738319
 20
4.217527426202414
 30
0.0
 40
0.0855
100
AcDbArc
 50
269.9998349343467
 51
90.00016506565325
  0
ARC
  5
309
330
2
100
AcDbEntity
  8
0
100
AcDbCircle
 10
0.1299151848493274
 20
4.217527426202414
 30
0.0
 40
0.0855
100
AcDbArc
 50
269.9998349343467
 51
90.00016506565325
  0
ARC
  5
30A
330
2
100
AcDbEntity
  8
0
100
AcDbCircle
 10
0.1686490835087291
 20
4.217527426202414
 30
0.0
 40
0.0855
100
AcDbArc
 50
270.0
 51
90.0
  0
LINE
  5
30B
330
2
100
AcDbEntity
  8
0
100
AcDbLine
 10
0.1686490835087291
 20
4.303027426202418
 30
0.0
 11
-0.0188509164912709
 21
4.303027426202418
 31
0.0
  0
LINE
  5
30C
330
2
100
AcDbEntity
  8
0
100
AcDbLine
 10
0.1686490835087291
 20
4.132027426202418
 30
0.0
 11
-0.0188509164912709
 21
4.132027426202418
 31
0.0
  0
LINE
  5
30D
330
2
100
AcDbEntity
  8
0
100
AcDbLine
 10
0.6355558127071284
 20
4.939335228390402
 30
0.0
 11
0.8748325080037667
 21
4.700058533093763
 31
0.0
  0
LINE
  5
30E
330
2
100
AcDbEntity
  8
0
100
AcDbLine
 10
0.9114441603554475
 20
4.072140958453115
 30
0.0
 11
0.9114441603554475
 21
4.611670185445444
 31
0.0
  0
ARC
  5
30F
330
2
100
AcDbEntity
  8
0
100
AcDbCircle
 10
0.7864441603554475
 20
4.611670185445444
 30
0.0
 40
0.125
100
AcDbArc
 50
0.000000000000007
 51
45.00000000000016
  0
ARC
  5
310
330
2
100
AcDbEntity
  8
0
100
AcDbCircle
 10
0.7239441603554475
 20
5.027723576038721
 30
0.0
 40
0.125
100
AcDbArc
 50
180.0
 51
225.0000000000003
  0
LINE
  5
311
330
2
100
AcDbEntity
  8
0
100
AcDbLine
 10
-0.0353509164912786
 20
5.295214961425524
 30
0.0
 11
-0.0353509164912786
 21
5.145588568364312
 31
0.0
  0
ARC
  5
312
330
2
100
AcDbEntity
  8
0
100
AcDbCircle
 10
0.1686490835087291
 20
5.217527426202411
 30
0.0
 40
0.0855
100
AcDbArc
 50
270.0
 51
90.0
  0
LINE
  5
313
330
2
100
AcDbEntity
  8
0
100
AcDbLine
 10
0.1686490835087291
 20
5.132027426202415
 30
0.0
 11
-0.0188509164912709
 21
5.132027426202415
 31
0.0
  0
LINE
  5
314
330
2
100
AcDbEntity
  8
0
100
AcDbLine
 10
0.1686490835087291
 20
5.303027426202414
 30
0.0
 11
-0.0188509164912709
 21
5.303027426202414
 31
0.0
  0
ARC
  5
315
330
2
100
AcDbEntity
  8
0
100
AcDbCircle
 10
0.1299151848493274
 20
5.217527426202411
 30
0.0
 40
0.0855
100
AcDbArc
 50
269.9998349343467
 51
90.00016506565325
  0
ARC
  5
316
330
2
100
AcDbEntity
  8
0
100
AcDbCircle
 10
0.109547754738319
 20
5.217527426202411
 30
0.0
 40
0.0855
100
AcDbArc
 50
269.9998349343467
 51
90.00016506565325
  0
LINE
  5
317
330
2
100
AcDbEntity
  8
0
100
AcDbLine
 10
0.1686490835087291
 20
5.132027426202408
 30
0.0
 11
-0.0353509164912786
 21
5.132027426202408
 31
0.0
  0
LINE
  5
318
330
2
100
AcDbEntity
  8
0
100
AcDbLine
 10
0.1686490835087291
 20
5.303027426202407
 30
0.0
 11
-0.0353509164912786
 21
5.303027426202407
 31
0.0
  0
ARC
  5
319
330
2
100
AcDbEntity
  8
0
100
AcDbCircle
 10
0.1686490835087291
 20
5.217527426202411
 30
0.0
 40
0.0855
100
AcDbArc
 50
269.9998349343467
 51
90.00016506565325
  0
ARC
  5
31A
330
2
100
AcDbEntity
  8
0
100
AcDbCircle
 10
0.7864441603554475
 20
8.611670185445444
 30
0.0
 40
0.125
100
AcDbArc
 50
0.000000000000007
 51
45.00000000000016
  0
LINE
  5
31B
330
2
100
AcDbEntity
  8
0
100
AcDbLine
 10
0.5989441603554475
 20
7.549170185445451
 30
0.0
 11
0.5989441603554475
 21
7.027723576038721
 31
0.0
  0
LINE
  5
31C
330
2
100
AcDbEntity
  8
0
100
AcDbLine
 10
0.9114441603554475
 20
5.965223415289106
 30
0.0
 11
0.9114441603554475
 21
6.611670185445444
 31
0.0
  0
ARC
  5
31D
330
2
100
AcDbEntity
  8
0
100
AcDbCircle
 10
0.7239441603554475
 20
5.549170185445451
 30
0.0
 40
0.125
100
AcDbArc
 50
135.0000000000004
 51
180.0
  0
ARC
  5
31E
330
2
100
AcDbEntity
  8
0
100
AcDbCircle
 10
0.7864441603554475
 20
5.965223576038728
 30
0.0
 40
0.125
100
AcDbArc
 50
314.9999999999999
 51
0.000000000000007
  0
LINE
  5
31F
330
2
100
AcDbEntity
  8
0
100
AcDbLine
 10
0.8748325080037667
 20
5.876835228390409
 30
0.0
 11
0.6355558127071284
 21
5.63755853309377
 31
0.0
  0
ARC
  5
320
330
2
100
AcDbEntity
  8
0
100
AcDbCircle
 10
0.1686490835087291
 20
6.217527426202411
 30
0.0
 40
0.0855
100
AcDbArc
 50
269.9998349343467
 51
90.00016506565325
  0
LINE
  5
321
330
2
100
AcDbEntity
  8
0
100
AcDbLine
 10
0.1686490835087291
 20
6.303027426202407
 30
0.0
 11
-0.0353509164912786
 21
6.303027426202407
 31
0.0
  0
LINE
  5
322
330
2
100
AcDbEntity
  8
0
100
AcDbLine
 10
0.1686490835087291
 20
6.132027426202408
 30
0.0
 11
-0.0353509164912786
 21
6.132027426202408
 31
0.0
  0
ARC
  5
323
330
2
100
AcDbEntity
  8
0
100
AcDbCircle
 10
0.109547754738319
 20
6.217527426202411
 30
0.0
 40
0.0855
100
AcDbArc
 50
269.9998349343467
 51
90.00016506565325
  0
ARC
  5
324
330
2
100
AcDbEntity
  8
0
100
AcDbCircle
 10
0.1299151848493274
 20
6.217527426202411
 30
0.0
 40
0.0855
100
AcDbArc
 50
269.9998349343467
 51
90.00016506565325
  0
LINE
  5
325
330
2
100
AcDbEntity
  8
0
100
AcDbLine
 10
0.1686490835087291
 20
6.303027426202414
 30
0.0
 11
-0.0188509164912709
 21
6.303027426202414
 31
0.0
  0
LINE
  5
326
330
2
100
AcDbEntity
  8
0
100
AcDbLine
 10
0.1686490835087291
 20
6.132027426202415
 30
0.0
 11
-0.0188509164912709
 21
6.132027426202415
 31
0.0
  0
ARC
  5
327
330
2
100
AcDbEntity
  8
0
100
AcDbCircle
 10
0.1686490835087291
 20
6.217527426202411
 30
0.0
 40
0.0855
100
AcDbArc
 50
270.0
 51
90.0
  0
LINE
  5
328
330
2
100
AcDbEntity
  8
0
100
AcDbLine
 10
-0.0353509164912786
 20
6.295214961425524
 30
0.0
 11
-0.0353509164912786
 21
6.145588568364312
 31
0.0
  0
LINE
  5
329
330
2
100
AcDbEntity
  8
0
100
AcDbLine
 10
0.5989441603554475
 20
7.027723576038721
 30
0.0
 11
0.5989441603554475
 21
7.031249999999996
 31
0.0
  0
ARC
  5
32A
330
2
100
AcDbEntity
  8
0
100
AcDbCircle
 10
0.7239441603554475
 20
7.027723576038721
 30
0.0
 40
0.125
100
AcDbArc
 50
180.0
 51
225.0000000000003
  0
ARC
  5
32B
330
2
100
AcDbEntity
  8
0
100
AcDbCircle
 10
0.7864441603554475
 20
6.611670185445444
 30
0.0
 40
0.125
100
AcDbArc
 50
0.000000000000007
 51
45.00000000000016
  0
LINE
  5
32C
330
2
100
AcDbEntity
  8
0
100
AcDbLine
 10
0.6355558127071284
 20
6.939335228390402
 30
0.0
 11
0.8748325080037667
 21
6.700058533093763
 31
0.0
  0
LINE
  5
32D
330
2
100
AcDbEntity
  8
0
100
AcDbLine
 10
0.1686490835087291
 20
7.132027426202408
 30
0.0
 11
-0.0353509164912786
 21
7.132027426202408
 31
0.0
  0
ARC
  5
32E
330
2
100
AcDbEntity
  8
0
100
AcDbCircle
 10
0.109547754738319
 20
7.217527426202411
 30
0.0
 40
0.0855
100
AcDbArc
 50
269.9998349343467
 51
90.00016506565325
  0
ARC
  5
32F
330
2
100
AcDbEntity
  8
0
100
AcDbCircle
 10
0.1299151848493274
 20
7.217527426202411
 30
0.0
 40
0.0855
100
AcDbArc
 50
269.9998349343467
 51
90.00016506565325
  0
LINE
  5
330
330
2
100
AcDbEntity
  8
0
100
AcDbLine
 10
0.1686490835087291
 20
7.303027426202414
 30
0.0
 11
-0.0188509164912709
 21
7.303027426202414
 31
0.0
  0
LINE
  5
331
330
2
100
AcDbEntity
  8
0
100
AcDbLine
 10
0.1686490835087291
 20
7.132027426202415
 30
0.0
 11
-0.0188509164912709
 21
7.132027426202415
 31
0.0
  0
ARC
  5
332
330
2
100
AcDbEntity
  8
0
100
AcDbCircle
 10
0.1686490835087291
 20
7.217527426202411
 30
0.0
 40
0.0855
100
AcDbArc
 50
270.0
 51
90.0
  0
LINE
  5
333
330
2
100
AcDbEntity
  8
0
100
AcDbLine
 10
-0.0353509164912786
 20
7.295214961425524
 30
0.0
 11
-0.0353509164912786
 21
7.145588568364312
 31
0.0
  0
LINE
  5
334
330
2
100
AcDbEntity
  8
0
100
AcDbLine
 10
-0.0353509164912786
 20
8.295214961425524
 30
0.0
 11
-0.0353509164912786
 21
8.145588568364312
 31
0.0
  0
ARC
  5
335
330
2
100
AcDbEntity
  8
0
100
AcDbCircle
 10
0.1686490835087291
 20
8.217527426202411
 30
0.0
 40
0.0855
100
AcDbArc
 50
270.0
 51
90.0
  0
ARC
  5
336
330
2
100
AcDbEntity
  8
0
100
AcDbCircle
 10
0.1299151848493274
 20
8.217527426202411
 30
0.0
 40
0.0855
100
AcDbArc
 50
269.9998349343467
 51
90.00016506565325
  0
ARC
  5
337
330
2
100
AcDbEntity
  8
0
100
AcDbCircle
 10
0.109547754738319
 20
8.217527426202411
 30
0.0
 40
0.0855
100
AcDbArc
 50
269.9998349343467
 51
90.00016506565325
  0
ARC
  5
338
330
2
100
AcDbEntity
  8
0
100
AcDbCircle
 10
0.7864441603554475
 20
7.965223576038728
 30
0.0
 40
0.125
100
AcDbArc
 50
314.9999999999999
 51
0.000000000000007
  0
LINE
  5
339
330
2
100
AcDbEntity
  8
0
100
AcDbLine
 10
0.8748325080037667
 20
7.876835228390409
 30
0.0
 11
0.6355558127071284
 21
7.63755853309377
 31
0.0
  0
ARC
  5
33A
330
2
100
AcDbEntity
  8
0
100
AcDbCircle
 10
0.7239441603554475
 20
7.549170185445451
 30
0.0
 40
0.125
100
AcDbArc
 50
135.0000000000004
 51
180.0
  0
LINE
  5
33B
330
2
100
AcDbEntity
  8
0
100
AcDbLine
 10
0.1686490835087291
 20
8.132027426202415
 30
0.0
 11
-0.0188509164912709
 21
8.132027426202415
 31
0.0
  0
LINE
  5
33C
330
2
100
AcDbEntity
  8
0
100
AcDbLine
 10
0.1686490835087291
 20
8.132027426202408
 30
0.0
 11
-0.0353509164912786
 21
8.132027426202408
 31
0.0
  0
LINE
  5
33D
330
2
100
AcDbEntity
  8
0
100
AcDbLine
 10
0.9114441603554475
 20
7.965223415289106
 30
0.0
 11
0.9114441603554475
 21
8.611670185445444
 31
0.0
  0
LINE
  5
33E
330
2
100
AcDbEntity
  8
0
100
AcDbLine
 10
0.1686490835087291
 20
8.303027426202414
 30
0.0
 11
-0.0188509164912709
 21
8.303027426202414
 31
0.0
  0
LINE
  5
33F
330
2
100
AcDbEntity
  8
0
100
AcDbLine
 10
0.6355558127071284
 20
8.939335228390402
 30
0.0
 11
0.8748325080037667
 21
8.700058533093763
 31
0.0
  0
ARC
  5
340
330
2
100
AcDbEntity
  8
0
100
AcDbCircle
 10
0.7239441603554475
 20
9.027723576038721
 30
0.0
 40
0.125
100
AcDbArc
 50
180.0
 51
225.0000000000003
  0
LINE
  5
341
330
2
100
AcDbEntity
  8
0
100
AcDbLine
 10
0.5989441603554475
 20
9.027723576038721
 30
0.0
 11
0.5989441603554475
 21
9.031249999999996
 31
0.0
  0
LINE
  5
342
330
2
100
AcDbEntity
  8
0
100
AcDbLine
 10
-0.8626009164912709
 20
0.3840598626191483
 30
0.0
 11
-0.8626009164912638
 21
9.031249999999993
 31
0.0
  0
LINE
  5
343
330
2
100
AcDbEntity
  8
0
100
AcDbLine
 10
-0.7688509164912709
 20
0.301012868801795
 30
0.0
 11
-0.7688509164912638
 21
9.031249999999996
 31
0.0
  0
LINE
  5
344
330
2
100
AcDbEntity
  8
0
100
AcDbLine
 10
-0.5933554247752575
 20
0.0
 30
0.0
 11
3.406644575224743
 21
0.0
 31
0.0
  0
LINE
  5
345
330
2
100
AcDbEntity
  8
0
  6
HIDDEN
100
AcDbLine
 10
-0.6286691948357479
 20
0.0937500000000018
 30
0.0
 11
3.38990202032512
 21
0.09375
 31
0.0
  0
ARC
  5
346
330
2
100
AcDbEntity
  8
0
100
AcDbCircle
 10
-1.311303656805468
 20
-0.216910894435248
 30
0.0
 40
0.75
100
AcDbArc
 50
16.81093668363842
 51
53.25388134808164
  0
LINE
  5
347
330
2
100
AcDbEntity
  8
0
100
AcDbLine
 10
0.5989441603554475
 20
9.031249999999996
 30
0.0
 11
-0.8626009164912709
 21
9.031249999999996
 31
0.0
  0
ENDSEC
  0
SECTION
  2
OBJECTS
  0
DICTIONARY
  5
9
330
0
100
AcDbDictionary
281
     1
  3
ACAD_COLOR
350
190
  3
ACAD_GROUP
350
23
  3
ACAD_LAYOUT
350
D
  3
ACAD_MATERIAL
350
18F
  3
ACAD_MLINESTYLE
350
24
  3
ACAD_PLOTSETTINGS
350
25
  3
ACAD_PLOTSTYLENAME
350
8
  3
ACAD_TABLESTYLE
350
191
  3
ACDBHEADERROUNDTRIPXREC
350
371
  3
AcDbVariableDictionary
350
18B
  0
DICTIONARY
  5
3
330
2
100
AcDbDictionary
280
     1
281
     1
  3
ACAD_SORTENTS
360
198
  0
DICTIONARY
  5
190
102
{ACAD_REACTORS
330
9
102
}
330
9
100
AcDbDictionary
281
     1
  0
DICTIONARY
  5
23
102
{ACAD_REACTORS
330
9
102
}
330
9
100
AcDbDictionary
281
     1
  0
DICTIONARY
  5
D
102
{ACAD_REACTORS
330
9
102
}
330
9
100
AcDbDictionary
281
     1
  3
Layout1
350
13
  3
Model
350
C
  0
DICTIONARY
  5
18F
102
{ACAD_REACTORS
330
9
102
}
330
9
100
AcDbDictionary
281
     1
  0
DICTIONARY
  5
24
102
{ACAD_REACTORS
330
9
102
}
330
9
100
AcDbDictionary
281
     1
  3
STANDARD
350
27
  0
DICTIONARY
  5
25
102
{ACAD_REACTORS
330
9
102
}
330
9
100
AcDbDictionary
281
     1
  0
ACDBDICTIONARYWDFLT
  5
8
102
{ACAD_REACTORS
330
9
102
}
330
9
100
AcDbDictionary
281
     1
  3
Normal
350
7
100
AcDbDictionaryWithDefault
340
7
  0
DICTIONARY
  5
191
102
{ACAD_REACTORS
330
9
102
}
330
9
100
AcDbDictionary
281
     1
  3
Standard
350
192
  0
DICTIONARY
  5
371
102
{ACAD_REACTORS
330
9
102
}
330
9
100
AcDbDictionary
281
     1
  3
COLORDICT
350
372
  3
MATERIALDICT
350
373
  0
DICTIONARY
  5
18B
102
{ACAD_REACTORS
330
9
102
}
330
9
100
AcDbDictionary
281
     1
  3
CTABLESTYLE
350
2E5
  3
HIDETEXT
350
370
  0
SORTENTSTABLE
  5
198
102
{ACAD_REACTORS
330
3
102
}
330
3
100
AcDbSortentsTable
330
2
331
0
  5
276
  0
LAYOUT
  5
13
102
{ACAD_REACTORS
330
D
102
}
102
{ACAD_XDICTIONARY
360
374
102
}
330
D
100
AcDbPlotSettings
  1

  2
HP LaserJet 2100 Series PS
  4

  6

 40
0.0
 41
0.0
 42
0.0
 43
0.0
 44
0.0
 45
0.0
 46
0.0
 47
0.0
 48
0.0
 49
0.0
140
0.0
141
0.0
142
1.0
143
1.0
 70
   688
 72
     0
 73
     0
 74
     5
  7

 75
    16
147
1.0
148
0.0
149
0.0
100
AcDbLayout
  1
Layout1
 70
     0
 71
     1
 10
0.0
 20
0.0
 11
12.0
 21
9.0
 12
0.0
 22
0.0
 32
0.0
 14
1.000000000000000E+20
 24
1.000000000000000E+20
 34
1.000000000000000E+20
 15
-1.000000000000000E+20
 25
-1.000000000000000E+20
 35
-1.000000000000000E+20
146
0.0
 13
0.0
 23
0.0
 33
0.0
 16
1.0
 26
0.0
 36
0.0
 17
0.0
 27
1.0
 37
0.0
 76
     0
330
E
  0
LAYOUT
  5
C
102
{ACAD_REACTORS
330
D
102
}
102
{ACAD_XDICTIONARY
360
376
102
}
330
D
100
AcDbPlotSettings
  1

  2
HP LaserJet 2100 Series PS
  4
Letter
  6

 40
5.365749835968018
 41
5.408084392547607
 42
5.4080810546875
 43
5.365753173828125
 44
215.8999938964844
 45
279.3999938964844
 46
0.0
 47
0.0
 48
0.0
 49
0.0
140
0.0
141
0.0
142
1.0
143
4.964148012307827
 70
 11952
 72
     0
 73
     1
 74
     2
  7

 75
     0
147
0.2014444366929948
148
0.0
149
0.0
100
AcDbLayout
  1
Model
 70
     1
 71
     0
 10
0.0
 20
0.0
 11
12.0
 21
9.0
 12
0.0
 22
0.0
 32
0.0
 14
0.0
 24
0.0
 34
0.0
 15
0.0
 25
0.0
 35
0.0
146
0.0
 13
0.0
 23
0.0
 33
0.0
 16
1.0
 26
0.0
 36
0.0
 17
0.0
 27
1.0
 37
0.0
 76
     0
330
2
  0
MLINESTYLE
  5
27
102
{ACAD_REACTORS
330
24
102
}
330
24
100
AcDbMlineStyle
  2
STANDARD
 70
     0
  3

 62
   256
 51
90.0
 52
90.0
 71
     2
 49
0.5
 62
   256
  6
BYLAYER
 49
-0.5
 62
   256
  6
BYLAYER
  0
ACDBPLACEHOLDER
  5
7
102
{ACAD_REACTORS
330
8
102
}
330
8
  0
ACAD_PROXY_OBJECT
  5
192
102
{ACAD_REACTORS
330
191
102
}
330
191
100
AcDbProxyObject
 90
      499
 91
      549
 95
   983063
 70
     0
 93
     1841
310
4214DD185B99185C9928B81E85EB51B8AE3F2E07A17AD46E2B8FC02B5E8DC0F42B1CFD028000000C1008070000C3001FDFF8000000C1003FBFF000000182007F7FE00000030400FEFFC00000060801FDFF8000000C1003FBFF00000018200000000000000681FA0B0000001820100E000186003FBFF000000182007F7FE000
310
00030400FEFFC00000060801FDFF8000000C1003FBFF000000182007F7FE000000304000AD7A3703D0AC73F4160000003040201C00030C007F7FE00000030400FEFFC00000060801FDFF8000000C1003FBFF000000182007F7FE00000030400FEFFC000000608000
340
16
340
16
340
16
 94
        0
  0
XRECORD
  5
372
102
{ACAD_REACTORS
330
371
102
}
330
371
100
AcDbXrecord
340
190
  0
XRECORD
  5
373
102
{ACAD_REACTORS
330
371
102
}
330
371
100
AcDbXrecord
340
18F
  0
DICTIONARYVAR
  5
2E5
102
{ACAD_REACTORS
330
18B
102
}
330
18B
100
DictionaryVariables
280
     0
  1
STANDARD
  0
DICTIONARYVAR
  5
370
102
{ACAD_REACTORS
330
18B
102
}
330
18B
100
DictionaryVariables
280
     0
  1
0
  0
DICTIONARY
  5
374
330
13
100
AcDbDictionary
280
     1
281
     1
  3
ACAD_XREC_ROUNDTRIP
360
375
  0
DICTIONARY
  5
376
330
C
100
AcDbDictionary
280
     1
281
     1
  3
ACAD_XREC_ROUNDTRIP
360
377
  0
XRECORD
  5
375
102
{ACAD_REACTORS
330
374
102
}
330
374
100
AcDbXrecord
102
SHADEPLOT
 70
     0
102
SHADEPLOTRESLEVEL
 70
     2
102
SHADEPLOTCUSTOMDPI
 70
   300
  0
XRECORD
  5
377
102
{ACAD_REACTORS
330
376
102
}
330
376
100
AcDbXrecord
102
SHADEPLOT
 70
     0
102
SHADEPLOTRESLEVEL
 70
     2
102
SHADEPLOTCUSTOMDPI
 70
   300
  0
ENDSEC
  0
EOF
