  0
SECTION
  2
HEADER
  9
$ACADVER
  1
AC1015
  9
$ACADMAINTVER
 70
     6
  9
$DWGCODEPAGE
  3
ANSI_1252
  9
$INSBASE
 10
0.0
 20
0.0
 30
0.0
  9
$EXTMIN
 10
-14.69873071465173
 20
-0.0402822436649188
 30
-0.0000000000112498
  9
$EXTMAX
 10
14.70000902244325
 20
21.88662629319879
 30
0.0000000000002956
  9
$LIMMIN
 10
0.0
 20
0.0
  9
$LIMMAX
 10
52.5
 20
40.0
  9
$ORTHOMODE
 70
     1
  9
$REGENMODE
 70
     1
  9
$FILLMODE
 70
     1
  9
$QTEXTMODE
 70
     0
  9
$MIRRTEXT
 70
     0
  9
$LTSCALE
 40
0.5
  9
$ATTMODE
 70
     1
  9
$TEXTSIZE
 40
0.36
  9
$TRACEWID
 40
0.05
  9
$TEXTSTYLE
  7
STANDARD
  9
$CLAYER
  8
0
  9
$CELTYPE
  6
BYLAYER
  9
$CECOLOR
 62
   256
  9
$CELTSCALE
 40
1.0
  9
$DISPSILH
 70
     0
  9
$DIMSCALE
 40
4.0
  9
$DIMASZ
 40
0.125
  9
$DIMEXO
 40
0.062
  9
$DIMDLI
 40
0.375
  9
$DIMRND
 40
0.0
  9
$DIMDLE
 40
0.0
  9
$DIMEXE
 40
0.08
  9
$DIMTP
 40
0.0
  9
$DIMTM
 40
0.0
  9
$DIMTXT
 40
0.09
  9
$DIMCEN
 40
-0.03125
  9
$DIMTSZ
 40
0.0
  9
$DIMTOL
 70
     0
  9
$DIMLIM
 70
     0
  9
$DIMTIH
 70
     1
  9
$DIMTOH
 70
     1
  9
$DIMSE1
 70
     0
  9
$DIMSE2
 70
     0
  9
$DIMTAD
 70
     0
  9
$DIMZIN
 70
     0
  9
$DIMBLK
  1

  9
$DIMASO
 70
     0
  9
$DIMSHO
 70
     0
  9
$DIMPOST
  1

  9
$DIMAPOST
  1

  9
$DIMALT
 70
     0
  9
$DIMALTD
 70
     2
  9
$DIMALTF
 40
25.4
  9
$DIMLFAC
 40
1.0
  9
$DIMTOFL
 70
     0
  9
$DIMTVP
 40
0.0
  9
$DIMTIX
 70
     0
  9
$DIMSOXD
 70
     0
  9
$DIMSAH
 70
     0
  9
$DIMBLK1
  1

  9
$DIMBLK2
  1

  9
$DIMSTYLE
  2
STANDARD
  9
$DIMCLRD
 70
     0
  9
$DIMCLRE
 70
     0
  9
$DIMCLRT
 70
     0
  9
$DIMTFAC
 40
1.0
  9
$DIMGAP
 40
0.09
  9
$DIMJUST
 70
     0
  9
$DIMSD1
 70
     0
  9
$DIMSD2
 70
     0
  9
$DIMTOLJ
 70
     1
  9
$DIMTZIN
 70
     0
  9
$DIMALTZ
 70
     0
  9
$DIMALTTZ
 70
     0
  9
$DIMUPT
 70
     0
  9
$DIMDEC
 70
     5
  9
$DIMTDEC
 70
     4
  9
$DIMALTU
 70
     2
  9
$DIMALTTD
 70
     2
  9
$DIMTXSTY
  7
STANDARD
  9
$DIMAUNIT
 70
     0
  9
$DIMADEC
 70
     0
  9
$DIMALTRND
 40
0.0
  9
$DIMAZIN
 70
     0
  9
$DIMDSEP
 70
    46
  9
$DIMATFIT
 70
     3
  9
$DIMFRAC
 70
     2
  9
$DIMLDRBLK
  1

  9
$DIMLUNIT
 70
     5
  9
$DIMLWD
 70
    -2
  9
$DIMLWE
 70
    -2
  9
$DIMTMOVE
 70
     2
  9
$LUNITS
 70
     2
  9
$LUPREC
 70
     4
  9
$SKETCHINC
 40
0.1
  9
$FILLETRAD
 40
0.0
  9
$AUNITS
 70
     0
  9
$AUPREC
 70
     0
  9
$MENU
  1
acad
  9
$ELEVATION
 40
0.0
  9
$PELEVATION
 40
0.0
  9
$THICKNESS
 40
0.0
  9
$LIMCHECK
 70
     0
  9
$CHAMFERA
 40
0.0
  9
$CHAMFERB
 40
0.0
  9
$CHAMFERC
 40
0.0
  9
$CHAMFERD
 40
0.0
  9
$SKPOLY
 70
     0
  9
$TDCREATE
 40
2450528.814363889
  9
$TDUCREATE
 40
2450529.147697222
  9
$TDUPDATE
 40
2454165.954806968
  9
$TDUUPDATE
 40
2454166.288140301
  9
$TDINDWG
 40
0.1243233333
  9
$TDUSRTIMER
 40
0.1243233333
  9
$USRTIMER
 70
     1
  9
$ANGBASE
 50
0.0
  9
$ANGDIR
 70
     0
  9
$PDMODE
 70
     0
  9
$PDSIZE
 40
0.0
  9
$PLINEWID
 40
0.0
  9
$SPLFRAME
 70
     0
  9
$SPLINETYPE
 70
     6
  9
$SPLINESEGS
 70
     8
  9
$HANDSEED
  5
369
  9
$SURFTAB1
 70
     6
  9
$SURFTAB2
 70
     6
  9
$SURFTYPE
 70
     6
  9
$SURFU
 70
     6
  9
$SURFV
 70
     6
  9
$UCSBASE
  2

  9
$UCSNAME
  2

  9
$UCSORG
 10
0.0
 20
0.0
 30
0.0
  9
$UCSXDIR
 10
1.0
 20
0.0
 30
0.0
  9
$UCSYDIR
 10
0.0
 20
1.0
 30
0.0
  9
$UCSORTHOREF
  2

  9
$UCSORTHOVIEW
 70
     0
  9
$UCSORGTOP
 10
0.0
 20
0.0
 30
0.0
  9
$UCSORGBOTTOM
 10
0.0
 20
0.0
 30
0.0
  9
$UCSORGLEFT
 10
0.0
 20
0.0
 30
0.0
  9
$UCSORGRIGHT
 10
0.0
 20
0.0
 30
0.0
  9
$UCSORGFRONT
 10
0.0
 20
0.0
 30
0.0
  9
$UCSORGBACK
 10
0.0
 20
0.0
 30
0.0
  9
$PUCSBASE
  2

  9
$PUCSNAME
  2

  9
$PUCSORG
 10
0.0
 20
0.0
 30
0.0
  9
$PUCSXDIR
 10
1.0
 20
0.0
 30
0.0
  9
$PUCSYDIR
 10
0.0
 20
1.0
 30
0.0
  9
$PUCSORTHOREF
  2

  9
$PUCSORTHOVIEW
 70
     0
  9
$PUCSORGTOP
 10
0.0
 20
0.0
 30
0.0
  9
$PUCSORGBOTTOM
 10
0.0
 20
0.0
 30
0.0
  9
$PUCSORGLEFT
 10
0.0
 20
0.0
 30
0.0
  9
$PUCSORGRIGHT
 10
0.0
 20
0.0
 30
0.0
  9
$PUCSORGFRONT
 10
0.0
 20
0.0
 30
0.0
  9
$PUCSORGBACK
 10
0.0
 20
0.0
 30
0.0
  9
$USERI1
 70
     0
  9
$USERI2
 70
     0
  9
$USERI3
 70
     0
  9
$USERI4
 70
     0
  9
$USERI5
 70
     0
  9
$USERR1
 40
0.0
  9
$USERR2
 40
0.0
  9
$USERR3
 40
0.0
  9
$USERR4
 40
0.0
  9
$USERR5
 40
0.0
  9
$WORLDVIEW
 70
     1
  9
$SHADEDGE
 70
     3
  9
$SHADEDIF
 70
    70
  9
$TILEMODE
 70
     1
  9
$MAXACTVP
 70
    16
  9
$PINSBASE
 10
0.0
 20
0.0
 30
0.0
  9
$PLIMCHECK
 70
     0
  9
$PEXTMIN
 10
1.000000000000000E+20
 20
1.000000000000000E+20
 30
1.000000000000000E+20
  9
$PEXTMAX
 10
-1.000000000000000E+20
 20
-1.000000000000000E+20
 30
-1.000000000000000E+20
  9
$PLIMMIN
 10
0.0
 20
0.0
  9
$PLIMMAX
 10
12.0
 20
9.0
  9
$UNITMODE
 70
     0
  9
$VISRETAIN
 70
     0
  9
$PLINEGEN
 70
     0
  9
$PSLTSCALE
 70
     0
  9
$TREEDEPTH
 70
  3020
  9
$CMLSTYLE
  2
STANDARD
  9
$CMLJUST
 70
     0
  9
$CMLSCALE
 40
1.0
  9
$PROXYGRAPHICS
 70
     1
  9
$MEASUREMENT
 70
     0
  9
$CELWEIGHT
370
    -1
  9
$ENDCAPS
280
     0
  9
$JOINSTYLE
280
     0
  9
$LWDISPLAY
290
     0
  9
$INSUNITS
 70
     0
  9
$HYPERLINKBASE
  1

  9
$STYLESHEET
  1

  9
$XEDIT
290
     1
  9
$CEPSNTYPE
380
     0
  9
$PSTYLEMODE
290
     1
  9
$FINGERPRINTGUID
  2
{69B101A2-8CA8-11D5-BE3F-00508B5FCD51}
  9
$VERSIONGUID
  2
{4074CFC4-390E-443D-A550-F3CDEA653FCC}
  9
$EXTNAMES
290
     1
  9
$PSVPSCALE
 40
0.0
  9
$OLESTARTUP
290
     0
  0
ENDSEC
  0
SECTION
  2
CLASSES
  0
CLASS
  1
DICTIONARYVAR
  2
AcDbDictionaryVar
  3
AutoCAD 2000
 90
        0
280
     0
281
     0
  0
CLASS
  1
LWPOLYLINE
  2
AcDbPolyline
  3
AutoCAD 2000
 90
        0
280
     0
281
     1
  0
CLASS
  1
ACDBDICTIONARYWDFLT
  2
AcDbDictionaryWithDefault
  3
AutoCAD 2000
 90
        0
280
     0
281
     0
  0
CLASS
  1
ACDBPLACEHOLDER
  2
AcDbPlaceHolder
  3
ObjectDBX Classes
 90
        0
280
     0
281
     0
  0
CLASS
  1
LAYOUT
  2
AcDbLayout
  3
ObjectDBX Classes
 90
        0
280
     0
281
     0
  0
CLASS
  1
LONG_TRANSACTION
  2
AcDbLongTransaction
  3
ObjectDBX Classes
 90
   -65536
280
     1
281
     0
  0
CLASS
  1
LWPOLYLINE
  2
AcDbPolyline
  3
AutoCAD 2000
 90
        0
280
     0
281
     1
  0
CLASS
  1
HATCH
  2
AcDbHatch
  3
AutoCAD 2000
 90
        0
280
     0
281
     1
  0
CLASS
  1
XRECORD
  2
AcDbXrecord
  3
AutoCAD 2000
 90
        0
280
     0
281
     0
  0
CLASS
  1
LONG_TRANSACTION
  2
AcDbLongTransaction
  3
ObjectDBX Classes
 90
   -65536
280
     1
281
     0
  0
CLASS
  1
LWPOLYLINE
  2
AcDbPolyline
  3
AutoCAD 2000
 90
        0
280
     0
281
     1
  0
CLASS
  1
HATCH
  2
AcDbHatch
  3
AutoCAD 2000
 90
        0
280
     0
281
     1
  0
CLASS
  1
XRECORD
  2
AcDbXrecord
  3
AutoCAD 2000
 90
        0
280
     0
281
     0
  0
CLASS
  1
LONG_TRANSACTION
  2
AcDbLongTransaction
  3
ObjectDBX Classes
 90
   -65536
280
     1
281
     0
  0
CLASS
  1
LWPOLYLINE
  2
AcDbPolyline
  3
AutoCAD 2000
 90
        0
280
     0
281
     1
  0
CLASS
  1
HATCH
  2
AcDbHatch
  3
AutoCAD 2000
 90
        0
280
     0
281
     1
  0
CLASS
  1
XRECORD
  2
AcDbXrecord
  3
AutoCAD 2000
 90
        0
280
     0
281
     0
  0
CLASS
  1
LONG_TRANSACTION
  2
AcDbLongTransaction
  3
ObjectDBX Classes
 90
   -65536
280
     1
281
     0
  0
CLASS
  1
LWPOLYLINE
  2
AcDbPolyline
  3
AutoCAD 2000
 90
        0
280
     0
281
     1
  0
CLASS
  1
HATCH
  2
AcDbHatch
  3
AutoCAD 2000
 90
        0
280
     0
281
     1
  0
CLASS
  1
XRECORD
  2
AcDbXrecord
  3
AutoCAD 2000
 90
        0
280
     0
281
     0
  0
CLASS
  1
LONG_TRANSACTION
  2
AcDbLongTransaction
  3
ObjectDBX Classes
 90
   -65536
280
     1
281
     0
  0
CLASS
  1
LWPOLYLINE
  2
AcDbPolyline
  3
AutoCAD 2000
 90
        0
280
     0
281
     1
  0
CLASS
  1
HATCH
  2
AcDbHatch
  3
AutoCAD 2000
 90
        0
280
     0
281
     1
  0
CLASS
  1
XRECORD
  2
AcDbXrecord
  3
AutoCAD 2000
 90
        0
280
     0
281
     0
  0
CLASS
  1
LONG_TRANSACTION
  2
AcDbLongTransaction
  3
ObjectDBX Classes
 90
   -65536
280
     1
281
     0
  0
CLASS
  1
LWPOLYLINE
  2
AcDbPolyline
  3
AutoCAD 2000
 90
        0
280
     0
281
     1
  0
CLASS
  1
HATCH
  2
AcDbHatch
  3
AutoCAD 2000
 90
        0
280
     0
281
     1
  0
CLASS
  1
XRECORD
  2
AcDbXrecord
  3
AutoCAD 2000
 90
        0
280
     0
281
     0
  0
CLASS
  1
LONG_TRANSACTION
  2
AcDbLongTransaction
  3
ObjectDBX Classes
 90
   -65536
280
     1
281
     0
  0
CLASS
  1
LWPOLYLINE
  2
AcDbPolyline
  3
AutoCAD 2000
 90
        0
280
     0
281
     1
  0
CLASS
  1
HATCH
  2
AcDbHatch
  3
AutoCAD 2000
 90
        0
280
     0
281
     1
  0
CLASS
  1
XRECORD
  2
AcDbXrecord
  3
AutoCAD 2000
 90
        0
280
     0
281
     0
  0
CLASS
  1
LONG_TRANSACTION
  2
AcDbLongTransaction
  3
ObjectDBX Classes
 90
   -65536
280
     1
281
     0
  0
CLASS
  1
LWPOLYLINE
  2
AcDbPolyline
  3
AutoCAD 2000
 90
        0
280
     0
281
     1
  0
CLASS
  1
HATCH
  2
AcDbHatch
  3
AutoCAD 2000
 90
        0
280
     0
281
     1
  0
CLASS
  1
XRECORD
  2
AcDbXrecord
  3
AutoCAD 2000
 90
        0
280
     0
281
     0
  0
CLASS
  1
LONG_TRANSACTION
  2
AcDbLongTransaction
  3
ObjectDBX Classes
 90
   -65536
280
     1
281
     0
  0
CLASS
  1
LWPOLYLINE
  2
AcDbPolyline
  3
AutoCAD 2000
 90
        0
280
     0
281
     1
  0
CLASS
  1
HATCH
  2
AcDbHatch
  3
AutoCAD 2000
 90
        0
280
     0
281
     1
  0
CLASS
  1
XRECORD
  2
AcDbXrecord
  3
AutoCAD 2000
 90
        0
280
     0
281
     0
  0
CLASS
  1
LONG_TRANSACTION
  2
AcDbLongTransaction
  3
ObjectDBX Classes
 90
   -65536
280
     1
281
     0
  0
CLASS
  1
LWPOLYLINE
  2
AcDbPolyline
  3
AutoCAD 2000
 90
        0
280
     0
281
     1
  0
CLASS
  1
HATCH
  2
AcDbHatch
  3
AutoCAD 2000
 90
        0
280
     0
281
     1
  0
CLASS
  1
XRECORD
  2
AcDbXrecord
  3
AutoCAD 2000
 90
        0
280
     0
281
     0
  0
CLASS
  1
LONG_TRANSACTION
  2
AcDbLongTransaction
  3
ObjectDBX Classes
 90
   -65536
280
     1
281
     0
  0
CLASS
  1
LWPOLYLINE
  2
AcDbPolyline
  3
AutoCAD 2000
 90
        0
280
     0
281
     1
  0
CLASS
  1
HATCH
  2
AcDbHatch
  3
AutoCAD 2000
 90
        0
280
     0
281
     1
  0
CLASS
  1
XRECORD
  2
AcDbXrecord
  3
AutoCAD 2000
 90
        0
280
     0
281
     0
  0
CLASS
  1
TABLESTYLE
  2
AcDbTableStyle
  3
ObjectDBX Classes
 90
     2047
280
     1
281
     0
  0
CLASS
  1
SORTENTSTABLE
  2
AcDbSortentsTable
  3
AutoCAD 2000
 90
        0
280
     0
281
     0
  0
ENDSEC
  0
SECTION
  2
TABLES
  0
TABLE
  2
VPORT
  5
1D
330
0
100
AcDbSymbolTable
 70
     4
  0
VPORT
  5
35B
330
1D
100
AcDbSymbolTableRecord
100
AcDbViewportTableRecord
  2
*Active
 70
     0
 10
0.0
 20
0.0
 11
1.0
 21
1.0
 12
14.25545547641063
 22
17.53058270886512
 13
0.0
 23
0.0
 14
0.03125
 24
0.03125
 15
0.25
 25
0.25
 16
0.0
 26
0.0
 36
1.0
 17
0.0
 27
0.0
 37
0.0
 40
40.53974526362257
 41
1.814583333333333
 42
50.0
 43
0.0
 44
0.0
 50
0.0
 51
0.0
 71
     0
 72
   100
 73
     1
 74
     0
 75
     0
 76
     0
 77
     0
 78
     0
281
     0
 65
     1
110
0.0
120
0.0
130
0.0
111
1.0
121
0.0
131
0.0
112
0.0
122
1.0
132
0.0
 79
     0
146
0.0
  0
ENDTAB
  0
TABLE
  2
LTYPE
  5
18
330
0
100
AcDbSymbolTable
 70
     2
  0
LTYPE
  5
19
330
18
100
AcDbSymbolTableRecord
100
AcDbLinetypeTableRecord
  2
BYBLOCK
 70
     0
  3

 72
    65
 73
     0
 40
0.0
  0
LTYPE
  5
1A
330
18
100
AcDbSymbolTableRecord
100
AcDbLinetypeTableRecord
  2
BYLAYER
 70
     0
  3

 72
    65
 73
     0
 40
0.0
  0
LTYPE
  5
A
330
18
100
AcDbSymbolTableRecord
100
AcDbLinetypeTableRecord
  2
CONTINUOUS
 70
     0
  3
Solid line
 72
    65
 73
     0
 40
0.0
  0
LTYPE
  5
2ED
330
18
100
AcDbSymbolTableRecord
100
AcDbLinetypeTableRecord
  2
HIDDEN
 70
     0
  3
Hidden __ __ __ __ __ __ __ __ __ __ __ __ __ _
 72
    65
 73
     2
 40
0.375
 49
0.25
 74
     0
 49
-0.125
 74
     0
  0
ENDTAB
  0
TABLE
  2
LAYER
  5
14
330
0
100
AcDbSymbolTable
 70
     2
  0
LAYER
  5
6
330
14
100
AcDbSymbolTableRecord
100
AcDbLayerTableRecord
  2
0
 70
     0
 62
     7
  6
CONTINUOUS
370
    -3
390
7
  0
ENDTAB
  0
TABLE
  2
STYLE
  5
15
330
0
100
AcDbSymbolTable
 70
     2
  0
STYLE
  5
16
330
15
100
AcDbSymbolTableRecord
100
AcDbTextStyleTableRecord
  2
STANDARD
 70
     0
 40
0.0
 41
1.0
 50
0.0
 71
     0
 42
0.36
  3
TXT
  4

  0
ENDTAB
  0
TABLE
  2
VIEW
  5
1B
330
0
100
AcDbSymbolTable
 70
     0
  0
ENDTAB
  0
TABLE
  2
UCS
  5
1C
330
0
100
AcDbSymbolTable
 70
     0
  0
ENDTAB
  0
TABLE
  2
APPID
  5
1F
330
0
100
AcDbSymbolTable
 70
     1
  0
APPID
  5
20
330
1F
100
AcDbSymbolTableRecord
100
AcDbRegAppTableRecord
  2
ACAD
 70
     0
  0
ENDTAB
  0
TABLE
  2
DIMSTYLE
  5
21
330
0
100
AcDbSymbolTable
 70
     1
100
AcDbDimStyleTable
  0
DIMSTYLE
105
28
330
21
100
AcDbSymbolTableRecord
100
AcDbDimStyleTableRecord
  2
STANDARD
 70
     0
  3

  4

340
16
  0
ENDTAB
  0
TABLE
  2
BLOCK_RECORD
  5
1
330
0
100
AcDbSymbolTable
 70
     0
  0
BLOCK_RECORD
  5
2
102
{ACAD_XDICTIONARY
360
3
102
}
330
1
100
AcDbSymbolTableRecord
100
AcDbBlockTableRecord
  2
*MODEL_SPACE
340
C
  0
BLOCK_RECORD
  5
E
330
1
100
AcDbSymbolTableRecord
100
AcDbBlockTableRecord
  2
*PAPER_SPACE
340
13
  0
ENDTAB
  0
ENDSEC
  0
SECTION
  2
BLOCKS
  0
BLOCK
  5
5
330
2
100
AcDbEntity
  8
0
100
AcDbBlockBegin
  2
*MODEL_SPACE
 70
     0
 10
0.0
 20
0.0
 30
0.0
  3
*MODEL_SPACE
  1

  4

  0
ENDBLK
  5
B
330
2
100
AcDbEntity
  8
0
100
AcDbBlockEnd
  0
BLOCK
  5
11
330
E
100
AcDbEntity
 67
     1
  8
0
100
AcDbBlockBegin
  2
*PAPER_SPACE
 70
     0
 10
0.0
 20
0.0
 30
0.0
  3
*PAPER_SPACE
  1

  4

  0
ENDBLK
  5
12
330
E
100
AcDbEntity
 67
     1
  8
0
100
AcDbBlockEnd
  0
ENDSEC
  0
SECTION
  2
ENTITIES
  0
LINE
  5
19C
330
2
100
AcDbEntity
  8
0
100
AcDbLine
 10
-2.93944876813837
 20
21.84755123186162
 30
0.0
 11
-5.47728581886416
 21
21.84755123186162
 31
0.0
  0
LINE
  5
19D
330
2
100
AcDbEntity
  8
0
100
AcDbLine
 10
-2.939448768138367
 20
21.75380123186162
 30
0.0
 11
-5.47728581886416
 21
21.75380123186162
 31
0.0
  0
LINE
  5
19E
330
2
100
AcDbEntity
  8
0
100
AcDbLine
 10
-5.47728581886416
 20
21.84755123186162
 30
0.0
 11
-5.47728581886416
 21
21.75380123186162
 31
0.0
  0
LINE
  5
19F
330
2
100
AcDbEntity
  8
0
100
AcDbLine
 10
-2.845698768138367
 20
21.66005123186162
 30
0.0
 11
-2.845698768138367
 21
17.62880123186162
 31
0.0
  0
LINE
  5
1A0
330
2
100
AcDbEntity
  8
0
100
AcDbLine
 10
2.826872492921038
 20
21.66005123186162
 30
0.0
 11
2.826872492921038
 21
17.62880123186162
 31
0.0
  0
LINE
  5
1A1
330
2
100
AcDbEntity
  8
0
100
AcDbLine
 10
-2.75194876813837
 20
21.66005123186162
 30
0.0
 11
-2.751948768138367
 21
17.62880123186162
 31
0.0
  0
LINE
  5
1A2
330
2
100
AcDbEntity
  8
0
100
AcDbLine
 10
2.733122492921038
 20
21.66005123186162
 30
0.0
 11
2.733122492921038
 21
17.62880123186162
 31
0.0
  0
LINE
  5
1A3
330
2
100
AcDbEntity
  8
0
100
AcDbLine
 10
-2.071913137606301
 20
17.62880123186163
 30
0.0
 11
2.053086862391312
 21
17.62880123186162
 31
0.0
  0
ARC
  5
1A4
330
2
100
AcDbEntity
  8
0
100
AcDbCircle
 10
-2.486413137606308
 20
17.62880123186163
 30
0.0
 40
0.0855
100
AcDbArc
 50
89.99999999999993
 51
179.998568838672
  0
POINT
  5
1A5
330
2
100
AcDbEntity
  8
0
  6
ByBlock
 62
     0
100
AcDbPoint
 10
-2.571913137606141
 20
17.6344541889284
 30
0.0
  0
LINE
  5
1A6
330
2
100
AcDbEntity
  8
0
100
AcDbLine
 10
-2.845698768138367
 20
17.62880123186162
 30
0.0
 11
-2.571912949273012
 21
17.62880123186164
 31
0.0
  0
ARC
  5
1A7
330
2
100
AcDbEntity
  8
0
100
AcDbCircle
 10
-2.157413137606301
 20
17.62880123186163
 30
0.0
 40
0.0855
100
AcDbArc
 50
359.9999999999988
 51
90.00000000000109
  0
LINE
  5
1A8
330
2
100
AcDbEntity
  8
0
100
AcDbLine
 10
-2.486413137606308
 20
17.71430123186164
 30
0.0
 11
-2.157413137606301
 21
17.71430123186164
 31
0.0
  0
LINE
  5
1A9
330
2
100
AcDbEntity
  8
0
100
AcDbLine
 10
2.138586862391311
 20
17.71430123186164
 30
0.0
 11
2.467586862391319
 21
17.71430123186164
 31
0.0
  0
ARC
  5
1AA
330
2
100
AcDbEntity
  8
0
100
AcDbCircle
 10
2.138586862391311
 20
17.62880123186163
 30
0.0
 40
0.0855
100
AcDbArc
 50
89.99999999999993
 51
180.0000000000013
  0
LINE
  5
1AB
330
2
100
AcDbEntity
  8
0
100
AcDbLine
 10
2.553086674055686
 20
17.62880123186163
 30
0.0
 11
2.826872492921038
 21
17.62880123186162
 31
0.0
  0
ARC
  5
1AC
330
2
100
AcDbEntity
  8
0
100
AcDbCircle
 10
2.467586862391319
 20
17.62880123186163
 30
0.0
 40
0.0855
100
AcDbArc
 50
0.0014311613280013
 51
90.00000000000109
  0
LINE
  5
1AD
330
2
100
AcDbEntity
  8
0
100
AcDbLine
 10
-2.071953936090451
 20
21.62880123186164
 30
0.0
 11
2.053127660875462
 21
21.62880123186163
 31
0.0
  0
LINE
  5
1AE
330
2
100
AcDbEntity
  8
0
100
AcDbLine
 10
-2.83948724264295
 20
21.11401645772529
 30
0.0
 11
-3.176333202171048
 21
20.95904814491887
 31
0.0
  0
LINE
  5
1AF
330
2
100
AcDbEntity
  8
0
100
AcDbLine
 10
-3.176333202171048
 20
20.95904814491887
 30
0.0
 11
-3.130898165769584
 21
20.91504479683804
 31
0.0
  0
LINE
  5
1B0
330
2
100
AcDbEntity
  8
0
100
AcDbLine
 10
-3.130898165769584
 20
20.91504479683804
 30
0.0
 11
-2.83948724264295
 21
21.04705484108054
 31
0.0
  0
LINE
  5
1B1
330
2
100
AcDbEntity
  8
0
100
AcDbLine
 10
-0.0094131376074946
 20
18.50788597227873
 30
0.0
 11
-0.1303283971903921
 21
18.62880123186163
 31
0.0
  0
LINE
  5
1B2
330
2
100
AcDbEntity
  8
0
100
AcDbLine
 10
-0.1303283971903921
 20
18.62880123186163
 30
0.0
 11
-0.0094131376074946
 21
18.74971649144453
 31
0.0
  0
LINE
  5
1B3
330
2
100
AcDbEntity
  8
0
100
AcDbLine
 10
0.1115021219754029
 20
18.62880123186163
 30
0.0
 11
-0.0094131376074946
 21
18.74971649144453
 31
0.0
  0
LINE
  5
1B4
330
2
100
AcDbEntity
  8
0
100
AcDbLine
 10
-0.0094131376074946
 20
18.50788597227873
 30
0.0
 11
0.1115021219754029
 21
18.62880123186163
 31
0.0
  0
ARC
  5
1B5
330
2
100
AcDbEntity
  8
0
100
AcDbCircle
 10
-2.486413137606308
 20
21.63144223096678
 30
0.0
 40
0.0855
100
AcDbArc
 50
180.001431161328
 51
270.0000000000001
  0
POINT
  5
1B6
330
2
100
AcDbEntity
  8
0
  6
ByBlock
 62
     0
100
AcDbPoint
 10
-2.571913137606141
 20
21.62578927390001
 30
0.0
  0
LINE
  5
1B7
330
2
100
AcDbEntity
  8
0
100
AcDbLine
 10
-2.75194876813837
 20
21.63144223096678
 30
0.0
 11
-2.571912949273012
 21
21.63144223096677
 31
0.0
  0
ARC
  5
1B8
330
2
100
AcDbEntity
  8
0
100
AcDbCircle
 10
-2.939448768138367
 20
21.66005123186162
 30
0.0
 40
0.09375
100
AcDbArc
 50
0.0
 51
90.0
  0
ARC
  5
1B9
330
2
100
AcDbEntity
  8
0
100
AcDbCircle
 10
-2.93944876813837
 20
21.66005123186162
 30
0.0
 40
0.1875
100
AcDbArc
 50
0.0
 51
90.0
  0
LINE
  5
1BA
330
2
100
AcDbEntity
  8
0
100
AcDbLine
 10
-2.486413137606308
 20
21.54594223096677
 30
0.0
 11
-2.157413137606301
 21
21.54594223096677
 31
0.0
  0
ARC
  5
1BB
330
2
100
AcDbEntity
  8
0
100
AcDbCircle
 10
-2.157413137606301
 20
21.63144223096678
 30
0.0
 40
0.0855
100
AcDbArc
 50
269.9999999999989
 51
0.0000000000011845
  0
LINE
  5
1BC
330
2
100
AcDbEntity
  8
0
100
AcDbLine
 10
3.176599815944305
 20
20.95904814491887
 30
0.0
 11
3.13116477954284
 21
20.91504479683804
 31
0.0
  0
LINE
  5
1BD
330
2
100
AcDbEntity
  8
0
100
AcDbLine
 10
2.839753856416206
 20
21.11401645772529
 30
0.0
 11
3.176599815944305
 21
20.95904814491887
 31
0.0
  0
LINE
  5
1BE
330
2
100
AcDbEntity
  8
0
100
AcDbLine
 10
3.13116477954284
 20
20.91504479683804
 30
0.0
 11
2.839753856416206
 21
21.04705484108054
 31
0.0
  0
LINE
  5
1BF
330
2
100
AcDbEntity
  8
0
100
AcDbLine
 10
2.920622492921038
 20
21.84755123186162
 30
0.0
 11
5.445285818864169
 21
21.84755123186162
 31
0.0
  0
LINE
  5
1C0
330
2
100
AcDbEntity
  8
0
100
AcDbLine
 10
2.920622492921038
 20
21.75380123186162
 30
0.0
 11
5.445285818864169
 21
21.75380123186162
 31
0.0
  0
LINE
  5
1C1
330
2
100
AcDbEntity
  8
0
100
AcDbLine
 10
2.138586862391311
 20
21.54594223096677
 30
0.0
 11
2.467586862391319
 21
21.54594223096677
 31
0.0
  0
ARC
  5
1C2
330
2
100
AcDbEntity
  8
0
100
AcDbCircle
 10
2.138586862391311
 20
21.63144223096678
 30
0.0
 40
0.0855
100
AcDbArc
 50
179.9999999999988
 51
270.0000000000001
  0
ARC
  5
1C3
330
2
100
AcDbEntity
  8
0
100
AcDbCircle
 10
2.467586862391319
 20
21.63144223096678
 30
0.0
 40
0.0855
100
AcDbArc
 50
269.9999999999989
 51
359.998568838672
  0
LINE
  5
1C4
330
2
100
AcDbEntity
  8
0
100
AcDbLine
 10
2.553086674055686
 20
21.63144223096678
 30
0.0
 11
2.733122492921038
 21
21.63144223096679
 31
0.0
  0
ARC
  5
1C5
330
2
100
AcDbEntity
  8
0
100
AcDbCircle
 10
2.920622492921038
 20
21.66005123186162
 30
0.0
 40
0.1875
100
AcDbArc
 50
90.0
 51
180.0
  0
ARC
  5
1C6
330
2
100
AcDbEntity
  8
0
100
AcDbCircle
 10
2.920622492921038
 20
21.66005123186162
 30
0.0
 40
0.09375
100
AcDbArc
 50
90.0
 51
180.0
  0
LINE
  5
1C7
330
2
100
AcDbEntity
  8
0
100
AcDbLine
 10
5.445285818864169
 20
21.84755123186162
 30
0.0
 11
5.445285818864169
 21
21.75380123186162
 31
0.0
  0
LINE
  5
1C8
330
2
100
AcDbEntity
  8
0
100
AcDbLine
 10
13.23625107124244
 20
5.549170185445451
 30
0.0
 11
13.23625107124244
 21
5.027723576038721
 31
0.0
  0
ARC
  5
1C9
330
2
100
AcDbEntity
  8
0
100
AcDbCircle
 10
9.673751071242435
 20
4.072140958453144
 30
0.0
 40
3.250000000000006
100
AcDbArc
 50
314.9999999999997
 51
0.0
  0
LINE
  5
1CA
330
2
100
AcDbEntity
  8
0
100
AcDbLine
 10
10.64342098535255
 20
0.4456167948506611
 30
0.0
 11
11.97184811009871
 21
1.774043919596846
 31
0.0
  0
ARC
  5
1CB
330
2
100
AcDbEntity
  8
0
100
AcDbCircle
 10
11.17375107124063
 20
-0.0847132910384971
 30
0.0
 40
0.7499999999981685
100
AcDbArc
 50
134.9999999999423
 51
173.5145409116676
  0
LINE
  5
1CC
330
2
100
AcDbEntity
  8
0
100
AcDbLine
 10
13.87054614808916
 20
0.92191936849445
 30
0.0
 11
13.87054614808916
 21
0.7722929754332384
 31
0.0
  0
ARC
  5
1CD
330
2
100
AcDbEntity
  8
0
100
AcDbCircle
 10
13.6983005003387
 20
0.8437499999996447
 30
0.0
 40
0.0855
100
AcDbArc
 50
89.99983493434675
 51
270.0001650656533
  0
ARC
  5
1CE
330
2
100
AcDbEntity
  8
0
100
AcDbCircle
 10
13.71866793044971
 20
0.8437499999996447
 30
0.0
 40
0.0855
100
AcDbArc
 50
89.99983493434675
 51
270.0001650656533
  0
ARC
  5
1CF
330
2
100
AcDbEntity
  8
0
100
AcDbCircle
 10
13.66654614808915
 20
0.84375
 30
0.0
 40
0.0855
100
AcDbArc
 50
90.0
 51
270.0
  0
LINE
  5
1D0
330
2
100
AcDbEntity
  8
0
100
AcDbLine
 10
13.66654614808915
 20
0.7582500000000003
 30
0.0
 11
13.85404614808915
 21
0.7582500000000003
 31
0.0
  0
LINE
  5
1D1
330
2
100
AcDbEntity
  8
0
100
AcDbLine
 10
13.66654614808915
 20
0.9292499999999997
 30
0.0
 11
13.85404614808915
 21
0.9292499999999997
 31
0.0
  0
LINE
  5
1D2
330
2
100
AcDbEntity
  8
0
100
AcDbLine
 10
13.87054614808916
 20
1.921437535223113
 30
0.0
 11
13.87054614808916
 21
1.771811142161901
 31
0.0
  0
ARC
  5
1D3
330
2
100
AcDbEntity
  8
0
100
AcDbCircle
 10
13.72336810662918
 20
1.843749999999645
 30
0.0
 40
0.0855
100
AcDbArc
 50
89.99983493434675
 51
270.0001650656533
  0
ARC
  5
1D4
330
2
100
AcDbEntity
  8
0
100
AcDbCircle
 10
13.70300067651817
 20
1.843749999999645
 30
0.0
 40
0.0855
100
AcDbArc
 50
89.99983493434675
 51
270.0001650656533
  0
ARC
  5
1D5
330
2
100
AcDbEntity
  8
0
100
AcDbCircle
 10
13.66654614808915
 20
1.84375
 30
0.0
 40
0.0855
100
AcDbArc
 50
90.0
 51
270.0
  0
LINE
  5
1D6
330
2
100
AcDbEntity
  8
0
100
AcDbLine
 10
13.66654614808915
 20
1.92925
 30
0.0
 11
13.85404614808915
 21
1.92925
 31
0.0
  0
LINE
  5
1D7
330
2
100
AcDbEntity
  8
0
100
AcDbLine
 10
13.66654614808915
 20
1.75825
 30
0.0
 11
13.85404614808915
 21
1.75825
 31
0.0
  0
ARC
  5
1D8
330
2
100
AcDbEntity
  8
0
100
AcDbCircle
 10
13.70300067651826
 20
2.843750000000359
 30
0.0
 40
0.0855
100
AcDbArc
 50
89.99983493434675
 51
270.0001650656533
  0
ARC
  5
1D9
330
2
100
AcDbEntity
  8
0
100
AcDbCircle
 10
13.72336810662927
 20
2.843750000000359
 30
0.0
 40
0.0855
100
AcDbArc
 50
89.99983493434675
 51
270.0001650656533
  0
LINE
  5
1DA
330
2
100
AcDbEntity
  8
0
100
AcDbLine
 10
13.87054614808916
 20
2.905485662197435
 30
0.0
 11
13.87054614808916
 21
2.755859269136224
 31
0.0
  0
ARC
  5
1DB
330
2
100
AcDbEntity
  8
0
100
AcDbCircle
 10
13.66654614808915
 20
2.84375
 30
0.0
 40
0.0855
100
AcDbArc
 50
90.0
 51
270.0
  0
LINE
  5
1DC
330
2
100
AcDbEntity
  8
0
100
AcDbLine
 10
13.66654614808915
 20
2.929250000000003
 30
0.0
 11
13.85404614808915
 21
2.929250000000003
 31
0.0
  0
LINE
  5
1DD
330
2
100
AcDbEntity
  8
0
100
AcDbLine
 10
13.66654614808915
 20
2.758250000000004
 30
0.0
 11
13.85404614808915
 21
2.758250000000004
 31
0.0
  0
LINE
  5
1DE
330
2
100
AcDbEntity
  8
0
100
AcDbLine
 10
13.87054614808916
 20
3.921437535223113
 30
0.0
 11
13.87054614808916
 21
3.771811142161901
 31
0.0
  0
ARC
  5
1DF
330
2
100
AcDbEntity
  8
0
100
AcDbCircle
 10
13.66654614808915
 20
3.84375
 30
0.0
 40
0.0855
100
AcDbArc
 50
89.99983493434675
 51
270.0001650656533
  0
LINE
  5
1E0
330
2
100
AcDbEntity
  8
0
100
AcDbLine
 10
13.66654614808915
 20
3.929249999999996
 30
0.0
 11
13.87054614808916
 21
3.929249999999996
 31
0.0
  0
LINE
  5
1E1
330
2
100
AcDbEntity
  8
0
100
AcDbLine
 10
13.66654614808915
 20
3.758249999999997
 30
0.0
 11
13.87054614808916
 21
3.758249999999997
 31
0.0
  0
ARC
  5
1E2
330
2
100
AcDbEntity
  8
0
100
AcDbCircle
 10
13.72564747685956
 20
3.84375
 30
0.0
 40
0.0855
100
AcDbArc
 50
89.99983493434675
 51
270.0001650656533
  0
ARC
  5
1E3
330
2
100
AcDbEntity
  8
0
100
AcDbCircle
 10
13.70528004674856
 20
3.84375
 30
0.0
 40
0.0855
100
AcDbArc
 50
89.99983493434675
 51
270.0001650656533
  0
ARC
  5
1E4
330
2
100
AcDbEntity
  8
0
100
AcDbCircle
 10
13.66654614808915
 20
3.84375
 30
0.0
 40
0.0855
100
AcDbArc
 50
90.0
 51
270.0
  0
LINE
  5
1E5
330
2
100
AcDbEntity
  8
0
100
AcDbLine
 10
13.66654614808915
 20
3.929250000000003
 30
0.0
 11
13.85404614808915
 21
3.929250000000003
 31
0.0
  0
LINE
  5
1E6
330
2
100
AcDbEntity
  8
0
100
AcDbLine
 10
13.66654614808915
 20
3.758250000000004
 30
0.0
 11
13.85404614808915
 21
3.758250000000004
 31
0.0
  0
LINE
  5
1E7
330
2
100
AcDbEntity
  8
0
100
AcDbLine
 10
13.19963941889075
 20
4.939335228390402
 30
0.0
 11
12.96036272359412
 21
4.700058533093763
 31
0.0
  0
LINE
  5
1E8
330
2
100
AcDbEntity
  8
0
100
AcDbLine
 10
12.92375107124244
 20
4.072140958453115
 30
0.0
 11
12.92375107124244
 21
4.611670185445444
 31
0.0
  0
ARC
  5
1E9
330
2
100
AcDbEntity
  8
0
100
AcDbCircle
 10
13.04875107124244
 20
4.611670185445444
 30
0.0
 40
0.125
100
AcDbArc
 50
134.9999999999999
 51
180.0
  0
ARC
  5
1EA
330
2
100
AcDbEntity
  8
0
100
AcDbCircle
 10
13.11125107124244
 20
5.027723576038721
 30
0.0
 40
0.125
100
AcDbArc
 50
314.9999999999997
 51
0.0
  0
LINE
  5
1EB
330
2
100
AcDbEntity
  8
0
100
AcDbLine
 10
13.87054614808916
 20
4.921437535223109
 30
0.0
 11
13.87054614808916
 21
4.771811142161898
 31
0.0
  0
ARC
  5
1EC
330
2
100
AcDbEntity
  8
0
100
AcDbCircle
 10
13.66654614808915
 20
4.843749999999996
 30
0.0
 40
0.0855
100
AcDbArc
 50
90.0
 51
270.0
  0
LINE
  5
1ED
330
2
100
AcDbEntity
  8
0
100
AcDbLine
 10
13.66654614808915
 20
4.75825
 30
0.0
 11
13.85404614808915
 21
4.75825
 31
0.0
  0
LINE
  5
1EE
330
2
100
AcDbEntity
  8
0
100
AcDbLine
 10
13.66654614808915
 20
4.92925
 30
0.0
 11
13.85404614808915
 21
4.92925
 31
0.0
  0
ARC
  5
1EF
330
2
100
AcDbEntity
  8
0
100
AcDbCircle
 10
13.70528004674856
 20
4.843749999999996
 30
0.0
 40
0.0855
100
AcDbArc
 50
89.99983493434675
 51
270.0001650656533
  0
ARC
  5
1F0
330
2
100
AcDbEntity
  8
0
100
AcDbCircle
 10
13.72564747685956
 20
4.843749999999996
 30
0.0
 40
0.0855
100
AcDbArc
 50
89.99983493434675
 51
270.0001650656533
  0
LINE
  5
1F1
330
2
100
AcDbEntity
  8
0
100
AcDbLine
 10
13.66654614808915
 20
4.758249999999993
 30
0.0
 11
13.87054614808916
 21
4.758249999999993
 31
0.0
  0
LINE
  5
1F2
330
2
100
AcDbEntity
  8
0
100
AcDbLine
 10
13.66654614808915
 20
4.929249999999993
 30
0.0
 11
13.87054614808916
 21
4.929249999999993
 31
0.0
  0
ARC
  5
1F3
330
2
100
AcDbEntity
  8
0
100
AcDbCircle
 10
13.66654614808915
 20
4.843749999999996
 30
0.0
 40
0.0855
100
AcDbArc
 50
89.99983493434675
 51
270.0001650656533
  0
ARC
  5
1F4
330
2
100
AcDbEntity
  8
0
100
AcDbCircle
 10
13.04875107124244
 20
8.611670185445444
 30
0.0
 40
0.125
100
AcDbArc
 50
134.9999999999999
 51
180.0
  0
LINE
  5
1F5
330
2
100
AcDbEntity
  8
0
100
AcDbLine
 10
13.23625107124244
 20
7.549170185445451
 30
0.0
 11
13.23625107124244
 21
7.027723576038721
 31
0.0
  0
LINE
  5
1F6
330
2
100
AcDbEntity
  8
0
100
AcDbLine
 10
12.92375107124244
 20
5.965223415289106
 30
0.0
 11
12.92375107124244
 21
6.611670185445444
 31
0.0
  0
ARC
  5
1F7
330
2
100
AcDbEntity
  8
0
100
AcDbCircle
 10
13.11125107124244
 20
5.549170185445451
 30
0.0
 40
0.125
100
AcDbArc
 50
0.0
 51
44.99999999999963
  0
ARC
  5
1F8
330
2
100
AcDbEntity
  8
0
100
AcDbCircle
 10
13.04875107124244
 20
5.965223576038728
 30
0.0
 40
0.125
100
AcDbArc
 50
180.0
 51
225.0000000000001
  0
LINE
  5
1F9
330
2
100
AcDbEntity
  8
0
100
AcDbLine
 10
12.96036272359412
 20
5.876835228390409
 30
0.0
 11
13.19963941889075
 21
5.63755853309377
 31
0.0
  0
ARC
  5
1FA
330
2
100
AcDbEntity
  8
0
100
AcDbCircle
 10
13.66654614808915
 20
5.843749999999996
 30
0.0
 40
0.0855
100
AcDbArc
 50
89.99983493434675
 51
270.0001650656533
  0
LINE
  5
1FB
330
2
100
AcDbEntity
  8
0
100
AcDbLine
 10
13.66654614808915
 20
5.929249999999993
 30
0.0
 11
13.87054614808916
 21
5.929249999999993
 31
0.0
  0
LINE
  5
1FC
330
2
100
AcDbEntity
  8
0
100
AcDbLine
 10
13.66654614808915
 20
5.758249999999993
 30
0.0
 11
13.87054614808916
 21
5.758249999999993
 31
0.0
  0
ARC
  5
1FD
330
2
100
AcDbEntity
  8
0
100
AcDbCircle
 10
13.72564747685956
 20
5.843749999999996
 30
0.0
 40
0.0855
100
AcDbArc
 50
89.99983493434675
 51
270.0001650656533
  0
ARC
  5
1FE
330
2
100
AcDbEntity
  8
0
100
AcDbCircle
 10
13.70528004674856
 20
5.843749999999996
 30
0.0
 40
0.0855
100
AcDbArc
 50
89.99983493434675
 51
270.0001650656533
  0
LINE
  5
1FF
330
2
100
AcDbEntity
  8
0
100
AcDbLine
 10
13.66654614808915
 20
5.92925
 30
0.0
 11
13.85404614808915
 21
5.92925
 31
0.0
  0
LINE
  5
200
330
2
100
AcDbEntity
  8
0
100
AcDbLine
 10
13.66654614808915
 20
5.75825
 30
0.0
 11
13.85404614808915
 21
5.75825
 31
0.0
  0
ARC
  5
201
330
2
100
AcDbEntity
  8
0
100
AcDbCircle
 10
13.66654614808915
 20
5.843749999999996
 30
0.0
 40
0.0855
100
AcDbArc
 50
90.0
 51
270.0
  0
LINE
  5
202
330
2
100
AcDbEntity
  8
0
100
AcDbLine
 10
13.87054614808916
 20
5.921437535223109
 30
0.0
 11
13.87054614808916
 21
5.771811142161898
 31
0.0
  0
LINE
  5
203
330
2
100
AcDbEntity
  8
0
100
AcDbLine
 10
13.23625107124244
 20
7.027723576038721
 30
0.0
 11
13.23625107124244
 21
7.031249999999996
 31
0.0
  0
ARC
  5
204
330
2
100
AcDbEntity
  8
0
100
AcDbCircle
 10
13.11125107124244
 20
7.027723576038721
 30
0.0
 40
0.125
100
AcDbArc
 50
314.9999999999997
 51
0.0
  0
ARC
  5
205
330
2
100
AcDbEntity
  8
0
100
AcDbCircle
 10
13.04875107124244
 20
6.611670185445444
 30
0.0
 40
0.125
100
AcDbArc
 50
134.9999999999999
 51
180.0
  0
LINE
  5
206
330
2
100
AcDbEntity
  8
0
100
AcDbLine
 10
13.19963941889075
 20
6.939335228390402
 30
0.0
 11
12.96036272359412
 21
6.700058533093763
 31
0.0
  0
LINE
  5
207
330
2
100
AcDbEntity
  8
0
100
AcDbLine
 10
13.66654614808915
 20
6.758249999999993
 30
0.0
 11
13.87054614808916
 21
6.758249999999993
 31
0.0
  0
ARC
  5
208
330
2
100
AcDbEntity
  8
0
100
AcDbCircle
 10
13.72564747685956
 20
6.843749999999996
 30
0.0
 40
0.0855
100
AcDbArc
 50
89.99983493434675
 51
270.0001650656533
  0
ARC
  5
209
330
2
100
AcDbEntity
  8
0
100
AcDbCircle
 10
13.70528004674856
 20
6.843749999999996
 30
0.0
 40
0.0855
100
AcDbArc
 50
89.99983493434675
 51
270.0001650656533
  0
LINE
  5
20A
330
2
100
AcDbEntity
  8
0
100
AcDbLine
 10
13.66654614808915
 20
6.92925
 30
0.0
 11
13.85404614808915
 21
6.92925
 31
0.0
  0
LINE
  5
20B
330
2
100
AcDbEntity
  8
0
100
AcDbLine
 10
13.66654614808915
 20
6.75825
 30
0.0
 11
13.85404614808915
 21
6.75825
 31
0.0
  0
ARC
  5
20C
330
2
100
AcDbEntity
  8
0
100
AcDbCircle
 10
13.66654614808915
 20
6.843749999999996
 30
0.0
 40
0.0855
100
AcDbArc
 50
90.0
 51
270.0
  0
LINE
  5
20D
330
2
100
AcDbEntity
  8
0
100
AcDbLine
 10
13.87054614808916
 20
6.921437535223109
 30
0.0
 11
13.87054614808916
 21
6.771811142161898
 31
0.0
  0
LINE
  5
20E
330
2
100
AcDbEntity
  8
0
100
AcDbLine
 10
13.87054614808916
 20
7.921437535223109
 30
0.0
 11
13.87054614808916
 21
7.771811142161898
 31
0.0
  0
ARC
  5
20F
330
2
100
AcDbEntity
  8
0
100
AcDbCircle
 10
13.66654614808915
 20
7.843749999999996
 30
0.0
 40
0.0855
100
AcDbArc
 50
90.0
 51
270.0
  0
ARC
  5
210
330
2
100
AcDbEntity
  8
0
100
AcDbCircle
 10
13.70528004674856
 20
7.843749999999996
 30
0.0
 40
0.0855
100
AcDbArc
 50
89.99983493434675
 51
270.0001650656533
  0
ARC
  5
211
330
2
100
AcDbEntity
  8
0
100
AcDbCircle
 10
13.72564747685956
 20
7.843749999999996
 30
0.0
 40
0.0855
100
AcDbArc
 50
89.99983493434675
 51
270.0001650656533
  0
ARC
  5
212
330
2
100
AcDbEntity
  8
0
100
AcDbCircle
 10
13.04875107124244
 20
7.965223576038728
 30
0.0
 40
0.125
100
AcDbArc
 50
180.0
 51
225.0000000000001
  0
LINE
  5
213
330
2
100
AcDbEntity
  8
0
100
AcDbLine
 10
12.96036272359412
 20
7.876835228390409
 30
0.0
 11
13.19963941889075
 21
7.63755853309377
 31
0.0
  0
ARC
  5
214
330
2
100
AcDbEntity
  8
0
100
AcDbCircle
 10
13.11125107124244
 20
7.549170185445451
 30
0.0
 40
0.125
100
AcDbArc
 50
0.0
 51
44.99999999999963
  0
LINE
  5
215
330
2
100
AcDbEntity
  8
0
100
AcDbLine
 10
13.66654614808915
 20
7.75825
 30
0.0
 11
13.85404614808915
 21
7.75825
 31
0.0
  0
LINE
  5
216
330
2
100
AcDbEntity
  8
0
100
AcDbLine
 10
13.66654614808915
 20
7.758249999999993
 30
0.0
 11
13.87054614808916
 21
7.758249999999993
 31
0.0
  0
LINE
  5
217
330
2
100
AcDbEntity
  8
0
100
AcDbLine
 10
12.92375107124244
 20
7.965223415289106
 30
0.0
 11
12.92375107124244
 21
8.611670185445444
 31
0.0
  0
LINE
  5
218
330
2
100
AcDbEntity
  8
0
100
AcDbLine
 10
13.66654614808915
 20
7.92925
 30
0.0
 11
13.85404614808915
 21
7.92925
 31
0.0
  0
LINE
  5
219
330
2
100
AcDbEntity
  8
0
100
AcDbLine
 10
13.19963941889075
 20
8.939335228390402
 30
0.0
 11
12.96036272359412
 21
8.700058533093763
 31
0.0
  0
ARC
  5
21A
330
2
100
AcDbEntity
  8
0
100
AcDbCircle
 10
13.11125107124244
 20
9.027723576038721
 30
0.0
 40
0.125
100
AcDbArc
 50
314.9999999999997
 51
0.0
  0
LINE
  5
21B
330
2
100
AcDbEntity
  8
0
100
AcDbLine
 10
13.23625107124244
 20
9.027723576038721
 30
0.0
 11
13.23625107124244
 21
9.031249999999996
 31
0.0
  0
LINE
  5
21C
330
2
100
AcDbEntity
  8
0
100
AcDbLine
 10
14.69779614808915
 20
0.3840598626191483
 30
0.0
 11
14.69779614808915
 21
9.031249999999993
 31
0.0
  0
LINE
  5
21D
330
2
100
AcDbEntity
  8
0
100
AcDbLine
 10
14.60404614808915
 20
0.301012868801795
 30
0.0
 11
14.60404614808915
 21
9.031249999999996
 31
0.0
  0
LINE
  5
21E
330
2
100
AcDbEntity
  8
0
100
AcDbLine
 10
14.42855065637314
 20
0.0
 30
0.0
 11
10.42855065637314
 21
0.0
 31
0.0
  0
LINE
  5
21F
330
2
100
AcDbEntity
  8
0
  6
HIDDEN
100
AcDbLine
 10
14.46386442643363
 20
0.0937500000000018
 30
0.0
 11
10.44529321127276
 21
0.09375
 31
0.0
  0
ARC
  5
220
330
2
100
AcDbEntity
  8
0
100
AcDbCircle
 10
15.14649888840335
 20
-0.216910894435248
 30
0.0
 40
0.75
100
AcDbArc
 50
126.7461186519184
 51
163.1890633163616
  0
LINE
  5
221
330
2
100
AcDbEntity
  8
0
100
AcDbLine
 10
13.23625107124244
 20
9.031249999999996
 30
0.0
 11
14.69779614808915
 21
9.031249999999996
 31
0.0
  0
CIRCLE
  5
222
330
2
100
AcDbEntity
  8
0
100
AcDbCircle
 10
-3.600949999999991
 20
5.468750000000004
 30
0.0
 40
0.0855
  0
CIRCLE
  5
223
330
2
100
AcDbEntity
  8
0
100
AcDbCircle
 10
3.600949999999998
 20
5.468750000000004
 30
0.0
 40
0.0855
  0
LINE
  5
224
330
2
100
AcDbEntity
  8
0
100
AcDbLine
 10
5.475954923153293
 20
5.549170185445444
 30
0.0
 11
5.475954923153293
 21
5.027723576038721
 31
0.0
  0
LINE
  5
225
330
2
100
AcDbEntity
  8
0
100
AcDbLine
 10
-5.475954923153281
 20
5.549170185445444
 30
0.0
 11
-5.475954923153281
 21
5.027723576038721
 31
0.0
  0
LINE
  5
226
330
2
100
AcDbEntity
  8
0
100
AcDbLine
 10
-2.749999999999996
 20
0.1875
 30
0.0
 11
-2.750000000000001
 21
9.03125
 31
0.0
  0
LINE
  5
227
330
2
100
AcDbEntity
  8
0
100
AcDbLine
 10
2.750000000000004
 20
0.1875
 30
0.0
 11
2.750000000000001
 21
9.031249999999996
 31
0.0
  0
LINE
  5
228
330
2
100
AcDbEntity
  8
0
100
AcDbLine
 10
-2.843749999999999
 20
0.1875
 30
0.0
 11
-2.843750000000001
 21
9.03125
 31
0.0
  0
LINE
  5
229
330
2
100
AcDbEntity
  8
0
100
AcDbLine
 10
2.843750000000004
 20
0.1875
 30
0.0
 11
2.843750000000012
 21
9.031249999999996
 31
0.0
  0
CIRCLE
  5
22A
330
2
100
AcDbEntity
  8
0
100
AcDbCircle
 10
-3.992454923153463
 20
3.632246880739036
 30
0.0
 40
0.0855
  0
LINE
  5
22B
330
2
100
AcDbEntity
  8
0
100
AcDbLine
 10
-4.211551962009568
 20
1.774043919596853
 30
0.0
 11
-2.883124837263398
 21
0.445616794852203
 31
0.0
  0
ARC
  5
22C
330
2
100
AcDbEntity
  8
0
100
AcDbCircle
 10
-1.913454923153284
 20
4.072140958453122
 30
0.0
 40
3.25
100
AcDbArc
 50
180.0
 51
225.0
  0
CIRCLE
  5
22D
330
2
100
AcDbEntity
  8
0
100
AcDbCircle
 10
-4.163449999999995
 20
2.343749999999996
 30
0.0
 40
0.0855
  0
LINE
  5
22E
330
2
100
AcDbEntity
  8
0
100
AcDbLine
 10
-5.163454923153281
 20
4.611670185445444
 30
0.0
 11
-5.163454923153281
 21
3.965223369696645
 31
0.0
  0
LINE
  5
22F
330
2
100
AcDbEntity
  8
0
100
AcDbLine
 10
-5.163454923153281
 20
3.965223576038724
 30
0.0
 11
-5.163454923153281
 21
4.475946880742082
 31
0.0
  0
CIRCLE
  5
230
330
2
100
AcDbEntity
  8
0
100
AcDbCircle
 10
-4.475949999999997
 20
3.093749999999996
 30
0.0
 40
0.0855
  0
CIRCLE
  5
231
330
2
100
AcDbEntity
  8
0
100
AcDbCircle
 10
-4.694700000000004
 20
3.71875
 30
0.0
 40
0.0855
  0
LINE
  5
232
330
2
100
AcDbEntity
  8
0
100
AcDbLine
 10
-5.4393432708016
 20
4.939335228390402
 30
0.0
 11
-5.200066575504962
 21
4.700058533093763
 31
0.0
  0
ARC
  5
233
330
2
100
AcDbEntity
  8
0
100
AcDbCircle
 10
-5.350954923153281
 20
5.027723576038721
 30
0.0
 40
0.125
100
AcDbArc
 50
180.0
 51
225.0000000000003
  0
LINE
  5
234
330
2
100
AcDbEntity
  8
0
100
AcDbLine
 10
-5.163454923153284
 20
4.611670185445451
 30
0.0
 11
-5.163454923153284
 21
4.072140958453122
 31
0.0
  0
CIRCLE
  5
235
330
2
100
AcDbEntity
  8
0
100
AcDbCircle
 10
-4.913449999999997
 20
4.343750000000004
 30
0.0
 40
0.0855
  0
ARC
  5
236
330
2
100
AcDbEntity
  8
0
100
AcDbCircle
 10
-5.288454923153281
 20
4.611670185445444
 30
0.0
 40
0.125
100
AcDbArc
 50
0.0
 51
45.00000000000014
  0
CIRCLE
  5
237
330
2
100
AcDbEntity
  8
0
100
AcDbCircle
 10
-4.163450000000007
 20
4.093750000000004
 30
0.0
 40
0.0855
  0
CIRCLE
  5
238
330
2
100
AcDbEntity
  8
0
100
AcDbCircle
 10
-4.163449999999995
 20
4.093749999999996
 30
0.0
 40
0.0855
  0
CIRCLE
  5
239
330
2
100
AcDbEntity
  8
0
100
AcDbCircle
 10
-5.225949999999997
 20
5.343750000000004
 30
0.0
 40
0.0855
  0
CIRCLE
  5
23A
330
2
100
AcDbEntity
  8
0
100
AcDbCircle
 10
-4.475949999999997
 20
5.093750000000004
 30
0.0
 40
0.0855
  0
LINE
  5
23B
330
2
100
AcDbEntity
  8
0
100
AcDbLine
 10
-2.656250000000001
 20
0.0
 30
0.0
 11
2.656250000000004
 21
0.0
 31
0.0
  0
LINE
  5
23C
330
2
100
AcDbEntity
  8
0
100
AcDbLine
 10
-2.656250000000001
 20
0.09375
 30
0.0
 11
2.656250000000004
 21
0.09375
 31
0.0
  0
ARC
  5
23D
330
2
100
AcDbEntity
  8
0
100
AcDbCircle
 10
-2.656250000000001
 20
0.1875
 30
0.0
 40
0.1875
100
AcDbArc
 50
180.0
 51
270.0
  0
ARC
  5
23E
330
2
100
AcDbEntity
  8
0
100
AcDbCircle
 10
-2.656250000000001
 20
0.1875
 30
0.0
 40
0.09375
100
AcDbArc
 50
180.0
 51
269.9999999999998
  0
CIRCLE
  5
23F
330
2
100
AcDbEntity
  8
0
100
AcDbCircle
 10
-3.600949999999988
 20
1.656249999999996
 30
0.0
 40
0.0855
  0
LINE
  5
240
330
2
100
AcDbEntity
  8
0
100
AcDbLine
 10
-3.044890734621782
 20
1.1552804746959
 30
0.0
 11
-2.853794150974765
 21
1.1552804746959
 31
0.0
  0
ARC
  5
241
330
2
100
AcDbEntity
  8
0
100
AcDbCircle
 10
-2.945926565087022
 20
1.238425286162183
 30
0.0
 40
0.1292554313189278
100
AcDbArc
 50
137.1796312694826
 51
220.0353196785141
  0
LINE
  5
242
330
2
100
AcDbEntity
  8
0
100
AcDbLine
 10
-3.040733908543072
 20
1.326280474695899
 30
0.0
 11
-2.853794150974765
 21
1.326280474695899
 31
0.0
  0
LINE
  5
243
330
2
100
AcDbEntity
  8
0
100
AcDbLine
 10
-3.040733908543072
 20
2.277135431051278
 30
0.0
 11
-2.853794150974765
 21
2.277135431051274
 31
0.0
  0
LINE
  5
244
330
2
100
AcDbEntity
  8
0
100
AcDbLine
 10
-3.044890734621782
 20
2.106135431051278
 30
0.0
 11
-2.853794150974765
 21
2.106135431051278
 31
0.0
  0
ARC
  5
245
330
2
100
AcDbEntity
  8
0
100
AcDbCircle
 10
-2.945926565087022
 20
2.189280242517555
 30
0.0
 40
0.1292554313189278
100
AcDbArc
 50
137.1796312694826
 51
220.0353196785141
  0
ARC
  5
246
330
2
100
AcDbEntity
  8
0
100
AcDbCircle
 10
-2.945926565087022
 20
3.20327043742369
 30
0.0
 40
0.1292554313189278
100
AcDbArc
 50
137.1796312694826
 51
220.0353196785141
  0
ARC
  5
247
330
2
100
AcDbEntity
  8
0
100
AcDbCircle
 10
-3.413449999999988
 20
2.843749999999996
 30
0.0
 40
0.0855
100
AcDbArc
 50
270.0
 51
90.00000000000003
  0
ARC
  5
248
330
2
100
AcDbEntity
  8
0
100
AcDbCircle
 10
-3.538449999999988
 20
2.843749999999996
 30
0.0
 40
0.0855
100
AcDbArc
 50
90.00000000000003
 51
270.0
  0
LINE
  5
249
330
2
100
AcDbEntity
  8
0
100
AcDbLine
 10
-3.538449999999988
 20
2.929249999999993
 30
0.0
 11
-3.413449999999988
 21
2.929249999999993
 31
0.0
  0
LINE
  5
24A
330
2
100
AcDbEntity
  8
0
100
AcDbLine
 10
-3.538449999999988
 20
2.758249999999993
 30
0.0
 11
-3.413449999999988
 21
2.758249999999993
 31
0.0
  0
LINE
  5
24B
330
2
100
AcDbEntity
  8
0
100
AcDbLine
 10
-3.044890734621782
 20
3.12012562595741
 30
0.0
 11
-2.853794150974765
 21
3.12012562595741
 31
0.0
  0
CIRCLE
  5
24C
330
2
100
AcDbEntity
  8
0
100
AcDbCircle
 10
-3.600949999999988
 20
3.343749999999996
 30
0.0
 40
0.0855
  0
LINE
  5
24D
330
2
100
AcDbEntity
  8
0
100
AcDbLine
 10
-3.040733908543072
 20
3.29112562595741
 30
0.0
 11
-2.853794150974765
 21
3.291125625957406
 31
0.0
  0
LINE
  5
24E
330
2
100
AcDbEntity
  8
0
100
AcDbLine
 10
-3.538449999999988
 20
4.258249999999993
 30
0.0
 11
-3.413449999999988
 21
4.258249999999993
 31
0.0
  0
LINE
  5
24F
330
2
100
AcDbEntity
  8
0
100
AcDbLine
 10
-3.538449999999988
 20
4.429249999999993
 30
0.0
 11
-3.413449999999988
 21
4.429249999999993
 31
0.0
  0
ARC
  5
250
330
2
100
AcDbEntity
  8
0
100
AcDbCircle
 10
-3.538449999999988
 20
4.343749999999996
 30
0.0
 40
0.0855
100
AcDbArc
 50
90.00000000000003
 51
270.0
  0
ARC
  5
251
330
2
100
AcDbEntity
  8
0
100
AcDbCircle
 10
-3.413449999999988
 20
4.343749999999996
 30
0.0
 40
0.0855
100
AcDbArc
 50
270.0
 51
90.00000000000003
  0
LINE
  5
252
330
2
100
AcDbEntity
  8
0
100
AcDbLine
 10
-3.040733908543072
 20
4.305115820863545
 30
0.0
 11
-2.843750000000001
 21
4.305115820863538
 31
0.0
  0
LINE
  5
253
330
2
100
AcDbEntity
  8
0
100
AcDbLine
 10
-3.044890734621782
 20
4.134115820863546
 30
0.0
 11
-2.843750000000001
 21
4.134115820863546
 31
0.0
  0
ARC
  5
254
330
2
100
AcDbEntity
  8
0
100
AcDbCircle
 10
-2.945926565087022
 20
4.217260632329822
 30
0.0
 40
0.1292554313189278
100
AcDbArc
 50
137.1796312694826
 51
220.0353196785141
  0
LINE
  5
255
330
2
100
AcDbEntity
  8
0
100
AcDbLine
 10
-3.538449999999991
 20
4.758250000000007
 30
0.0
 11
-3.413449999999991
 21
4.758250000000007
 31
0.0
  0
LINE
  5
256
330
2
100
AcDbEntity
  8
0
100
AcDbLine
 10
-3.538449999999991
 20
4.929250000000007
 30
0.0
 11
-3.413449999999991
 21
4.929250000000007
 31
0.0
  0
ARC
  5
257
330
2
100
AcDbEntity
  8
0
100
AcDbCircle
 10
-3.538449999999991
 20
4.843750000000011
 30
0.0
 40
0.0855
100
AcDbArc
 50
90.00000000000003
 51
270.0
  0
ARC
  5
258
330
2
100
AcDbEntity
  8
0
100
AcDbCircle
 10
-3.413449999999991
 20
4.843750000000011
 30
0.0
 40
0.0855
100
AcDbArc
 50
270.0
 51
90.00000000000003
  0
ARC
  5
259
330
2
100
AcDbEntity
  8
0
100
AcDbCircle
 10
-2.945926565087022
 20
5.217260632329822
 30
0.0
 40
0.1292554313189278
100
AcDbArc
 50
137.1796312694826
 51
220.0353196785141
  0
LINE
  5
25A
330
2
100
AcDbEntity
  8
0
100
AcDbLine
 10
-3.044890734621782
 20
5.134115820863546
 30
0.0
 11
-2.843750000000001
 21
5.134115820863546
 31
0.0
  0
LINE
  5
25B
330
2
100
AcDbEntity
  8
0
100
AcDbLine
 10
-3.040733908543072
 20
5.305115820863545
 30
0.0
 11
-2.843750000000001
 21
5.305115820863538
 31
0.0
  0
ARC
  5
25C
330
2
100
AcDbEntity
  8
0
100
AcDbCircle
 10
1.913454923153286
 20
4.072140958453122
 30
0.0
 40
3.25
100
AcDbArc
 50
315.0
 51
0.0
  0
CIRCLE
  5
25D
330
2
100
AcDbEntity
  8
0
100
AcDbCircle
 10
4.163450000000009
 20
2.343750000000004
 30
0.0
 40
0.0855
  0
LINE
  5
25E
330
2
100
AcDbEntity
  8
0
100
AcDbLine
 10
4.21155196200957
 20
1.774043919596853
 30
0.0
 11
2.8831248372634
 21
0.445616794852203
 31
0.0
  0
ARC
  5
25F
330
2
100
AcDbEntity
  8
0
100
AcDbCircle
 10
2.945926565087029
 20
0.8634252861621832
 30
0.0
 40
0.1292554313189278
100
AcDbArc
 50
319.9646803214859
 51
42.82036873051739
  0
ARC
  5
260
330
2
100
AcDbEntity
  8
0
100
AcDbCircle
 10
2.656250000000004
 20
0.1875
 30
0.0
 40
0.1875
100
AcDbArc
 50
270.0
 51
0.0
  0
LINE
  5
261
330
2
100
AcDbEntity
  8
0
100
AcDbLine
 10
3.044890734621789
 20
0.7802804746958998
 30
0.0
 11
2.853794150974772
 21
0.7802804746958998
 31
0.0
  0
ARC
  5
262
330
2
100
AcDbEntity
  8
0
100
AcDbCircle
 10
2.656250000000004
 20
0.1875
 30
0.0
 40
0.09375
100
AcDbArc
 50
270.0
 51
0.0
  0
LINE
  5
263
330
2
100
AcDbEntity
  8
0
100
AcDbLine
 10
3.040733908543079
 20
0.9512804746958992
 30
0.0
 11
2.853794150974772
 21
0.9512804746958992
 31
0.0
  0
ARC
  5
264
330
2
100
AcDbEntity
  8
0
100
AcDbCircle
 10
2.945926565087029
 20
1.814280242517555
 30
0.0
 40
0.1292554313189278
100
AcDbArc
 50
319.9646803214859
 51
42.82036873051739
  0
LINE
  5
265
330
2
100
AcDbEntity
  8
0
100
AcDbLine
 10
3.044890734621789
 20
1.731135431051278
 30
0.0
 11
2.853794150974772
 21
1.731135431051278
 31
0.0
  0
LINE
  5
266
330
2
100
AcDbEntity
  8
0
100
AcDbLine
 10
3.040733908543079
 20
1.902135431051278
 30
0.0
 11
2.853794150974772
 21
1.902135431051274
 31
0.0
  0
CIRCLE
  5
267
330
2
100
AcDbEntity
  8
0
100
AcDbCircle
 10
3.600949999999998
 20
1.65625
 30
0.0
 40
0.0855
  0
ARC
  5
268
330
2
100
AcDbEntity
  8
0
100
AcDbCircle
 10
2.945926565087029
 20
2.82827043742369
 30
0.0
 40
0.1292554313189278
100
AcDbArc
 50
319.9646803214859
 51
42.82036873051739
  0
LINE
  5
269
330
2
100
AcDbEntity
  8
0
100
AcDbLine
 10
3.044890734621789
 20
2.74512562595741
 30
0.0
 11
2.853794150974772
 21
2.74512562595741
 31
0.0
  0
LINE
  5
26A
330
2
100
AcDbEntity
  8
0
100
AcDbLine
 10
3.040733908543079
 20
2.91612562595741
 30
0.0
 11
2.853794150974772
 21
2.916125625957406
 31
0.0
  0
ARC
  5
26B
330
2
100
AcDbEntity
  8
0
100
AcDbCircle
 10
2.945926565087029
 20
3.842260632329825
 30
0.0
 40
0.1292554313189278
100
AcDbArc
 50
319.9646803214859
 51
42.82036873051739
  0
LINE
  5
26C
330
2
100
AcDbEntity
  8
0
100
AcDbLine
 10
3.044890734621789
 20
3.759115820863549
 30
0.0
 11
2.853794150974772
 21
3.759115820863549
 31
0.0
  0
LINE
  5
26D
330
2
100
AcDbEntity
  8
0
100
AcDbLine
 10
3.040733908543079
 20
3.930115820863549
 30
0.0
 11
2.853794150974772
 21
3.930115820863541
 31
0.0
  0
LINE
  5
26E
330
2
100
AcDbEntity
  8
0
100
AcDbLine
 10
3.538449999999991
 20
2.758249999999993
 30
0.0
 11
3.413449999999991
 21
2.758249999999993
 31
0.0
  0
LINE
  5
26F
330
2
100
AcDbEntity
  8
0
100
AcDbLine
 10
3.538449999999991
 20
2.929249999999993
 30
0.0
 11
3.413449999999991
 21
2.929249999999993
 31
0.0
  0
ARC
  5
270
330
2
100
AcDbEntity
  8
0
100
AcDbCircle
 10
3.538449999999991
 20
2.843749999999996
 30
0.0
 40
0.0855
100
AcDbArc
 50
270.0
 51
89.99999999999999
  0
ARC
  5
271
330
2
100
AcDbEntity
  8
0
100
AcDbCircle
 10
3.413449999999991
 20
2.843749999999996
 30
0.0
 40
0.0855
100
AcDbArc
 50
89.99999999999999
 51
270.0
  0
CIRCLE
  5
272
330
2
100
AcDbEntity
  8
0
100
AcDbCircle
 10
4.475950000000009
 20
3.093750000000004
 30
0.0
 40
0.0855
  0
CIRCLE
  5
273
330
2
100
AcDbEntity
  8
0
100
AcDbCircle
 10
3.600949999999998
 20
3.343750000000004
 30
0.0
 40
0.0855
  0
CIRCLE
  5
274
330
2
100
AcDbEntity
  8
0
100
AcDbCircle
 10
3.992454923153464
 20
3.632246880739036
 30
0.0
 40
0.0855
  0
LINE
  5
275
330
2
100
AcDbEntity
  8
0
100
AcDbLine
 10
3.044890734621789
 20
4.759115820863546
 30
0.0
 11
2.853794150974772
 21
4.759115820863546
 31
0.0
  0
ARC
  5
276
330
2
100
AcDbEntity
  8
0
100
AcDbCircle
 10
2.945926565087029
 20
4.842260632329822
 30
0.0
 40
0.1292554313189278
100
AcDbArc
 50
319.9646803214859
 51
42.82036873051739
  0
LINE
  5
277
330
2
100
AcDbEntity
  8
0
100
AcDbLine
 10
3.040733908543079
 20
4.930115820863545
 30
0.0
 11
2.853794150974772
 21
4.930115820863538
 31
0.0
  0
ARC
  5
278
330
2
100
AcDbEntity
  8
0
100
AcDbCircle
 10
3.413449999999995
 20
4.343749999999996
 30
0.0
 40
0.0855
100
AcDbArc
 50
89.99999999999999
 51
270.0
  0
ARC
  5
279
330
2
100
AcDbEntity
  8
0
100
AcDbCircle
 10
3.538449999999995
 20
4.343749999999996
 30
0.0
 40
0.0855
100
AcDbArc
 50
270.0
 51
89.99999999999999
  0
LINE
  5
27A
330
2
100
AcDbEntity
  8
0
100
AcDbLine
 10
3.538449999999995
 20
4.42925
 30
0.0
 11
3.413449999999995
 21
4.42925
 31
0.0
  0
LINE
  5
27B
330
2
100
AcDbEntity
  8
0
100
AcDbLine
 10
3.538449999999995
 20
4.25825
 30
0.0
 11
3.413449999999995
 21
4.25825
 31
0.0
  0
CIRCLE
  5
27C
330
2
100
AcDbEntity
  8
0
100
AcDbCircle
 10
4.163450000000009
 20
4.093750000000004
 30
0.0
 40
0.0855
  0
ARC
  5
27D
330
2
100
AcDbEntity
  8
0
100
AcDbCircle
 10
3.538449999999995
 20
4.843750000000004
 30
0.0
 40
0.0855
100
AcDbArc
 50
270.0
 51
89.99999999999999
  0
ARC
  5
27E
330
2
100
AcDbEntity
  8
0
100
AcDbCircle
 10
3.413449999999995
 20
4.843750000000004
 30
0.0
 40
0.0855
100
AcDbArc
 50
89.99999999999999
 51
270.0
  0
LINE
  5
27F
330
2
100
AcDbEntity
  8
0
100
AcDbLine
 10
3.538449999999995
 20
4.758250000000007
 30
0.0
 11
3.413449999999995
 21
4.758250000000007
 31
0.0
  0
LINE
  5
280
330
2
100
AcDbEntity
  8
0
100
AcDbLine
 10
3.538449999999995
 20
4.929250000000007
 30
0.0
 11
3.413449999999995
 21
4.929250000000007
 31
0.0
  0
CIRCLE
  5
281
330
2
100
AcDbEntity
  8
0
100
AcDbCircle
 10
4.475950000000009
 20
5.093750000000004
 30
0.0
 40
0.0855
  0
CIRCLE
  5
282
330
2
100
AcDbEntity
  8
0
100
AcDbCircle
 10
4.694700000000009
 20
3.71875
 30
0.0
 40
0.0855
  0
LINE
  5
283
330
2
100
AcDbEntity
  8
0
100
AcDbLine
 10
5.439343270801605
 20
4.939335228390402
 30
0.0
 11
5.200066575504974
 21
4.70005853309377
 31
0.0
  0
LINE
  5
284
330
2
100
AcDbEntity
  8
0
100
AcDbLine
 10
5.163454923153286
 20
4.611670185445451
 30
0.0
 11
5.163454923153286
 21
4.072140958453122
 31
0.0
  0
ARC
  5
285
330
2
100
AcDbEntity
  8
0
100
AcDbCircle
 10
5.288454923153293
 20
4.611670185445451
 30
0.0
 40
0.125
100
AcDbArc
 50
134.9999999999999
 51
180.0
  0
CIRCLE
  5
286
330
2
100
AcDbEntity
  8
0
100
AcDbCircle
 10
4.913450000000009
 20
4.343750000000004
 30
0.0
 40
0.0855
  0
CIRCLE
  5
287
330
2
100
AcDbEntity
  8
0
100
AcDbCircle
 10
5.225950000000009
 20
5.343750000000004
 30
0.0
 40
0.0855
  0
ARC
  5
288
330
2
100
AcDbEntity
  8
0
100
AcDbCircle
 10
5.350954923153293
 20
5.027723576038721
 30
0.0
 40
0.125
100
AcDbArc
 50
314.9999999999997
 51
0.0
  0
LINE
  5
289
330
2
100
AcDbEntity
  8
0
100
AcDbLine
 10
-5.475954923153281
 20
9.031249999999996
 30
0.0
 11
-2.750000000000001
 21
9.031249999999996
 31
0.0
  0
ARC
  5
28A
330
2
100
AcDbEntity
  8
0
100
AcDbCircle
 10
-5.288454923153281
 20
8.611670185445444
 30
0.0
 40
0.125
100
AcDbArc
 50
0.0
 51
45.00000000000014
  0
CIRCLE
  5
28B
330
2
100
AcDbEntity
  8
0
100
AcDbCircle
 10
-4.475950000000011
 20
7.093750000000007
 30
0.0
 40
0.0855
  0
LINE
  5
28C
330
2
100
AcDbEntity
  8
0
100
AcDbLine
 10
-5.475954923153281
 20
7.549170185445444
 30
0.0
 11
-5.475954923153281
 21
7.027723576038721
 31
0.0
  0
LINE
  5
28D
330
2
100
AcDbEntity
  8
0
100
AcDbLine
 10
-5.200066575504962
 20
5.876835228390402
 30
0.0
 11
-5.4393432708016
 21
5.637558533093756
 31
0.0
  0
LINE
  5
28E
330
2
100
AcDbEntity
  8
0
100
AcDbLine
 10
-5.4393432708016
 20
6.939335228390402
 30
0.0
 11
-5.200066575504962
 21
6.700058533093763
 31
0.0
  0
ARC
  5
28F
330
2
100
AcDbEntity
  8
0
100
AcDbCircle
 10
-5.350954923153281
 20
5.549170185445444
 30
0.0
 40
0.125
100
AcDbArc
 50
135.0
 51
180.0
  0
LINE
  5
290
330
2
100
AcDbEntity
  8
0
100
AcDbLine
 10
-5.475954923153281
 20
7.027723576038721
 30
0.0
 11
-5.475954923153281
 21
7.031249999999996
 31
0.0
  0
ARC
  5
291
330
2
100
AcDbEntity
  8
0
100
AcDbCircle
 10
-5.350954923153281
 20
7.027723576038721
 30
0.0
 40
0.125
100
AcDbArc
 50
180.0
 51
225.0000000000003
  0
CIRCLE
  5
292
330
2
100
AcDbEntity
  8
0
100
AcDbCircle
 10
-4.913450000000004
 20
6.343750000000018
 30
0.0
 40
0.0855
  0
LINE
  5
293
330
2
100
AcDbEntity
  8
0
100
AcDbLine
 10
-5.163454923153281
 20
6.611670185445444
 30
0.0
 11
-5.163454923153281
 21
5.965223369696641
 31
0.0
  0
CIRCLE
  5
294
330
2
100
AcDbEntity
  8
0
100
AcDbCircle
 10
-4.694700000000004
 20
5.718750000000004
 30
0.0
 40
0.0855
  0
ARC
  5
295
330
2
100
AcDbEntity
  8
0
100
AcDbCircle
 10
-5.288454923153281
 20
5.965223576038721
 30
0.0
 40
0.125
100
AcDbArc
 50
315.0
 51
0.0
  0
CIRCLE
  5
296
330
2
100
AcDbEntity
  8
0
100
AcDbCircle
 10
-4.163449999999998
 20
6.093750000000011
 30
0.0
 40
0.0855
  0
ARC
  5
297
330
2
100
AcDbEntity
  8
0
100
AcDbCircle
 10
-5.288454923153281
 20
6.611670185445444
 30
0.0
 40
0.125
100
AcDbArc
 50
0.0
 51
45.00000000000014
  0
LINE
  5
298
330
2
100
AcDbEntity
  8
0
100
AcDbLine
 10
-5.200066575504962
 20
7.876835228390402
 30
0.0
 11
-5.4393432708016
 21
7.637558533093756
 31
0.0
  0
ARC
  5
299
330
2
100
AcDbEntity
  8
0
100
AcDbCircle
 10
-5.350954923153281
 20
7.549170185445444
 30
0.0
 40
0.125
100
AcDbArc
 50
135.0
 51
180.0
  0
ARC
  5
29A
330
2
100
AcDbEntity
  8
0
100
AcDbCircle
 10
-5.288454923153281
 20
7.965223576038721
 30
0.0
 40
0.125
100
AcDbArc
 50
315.0
 51
0.0
  0
CIRCLE
  5
29B
330
2
100
AcDbEntity
  8
0
100
AcDbCircle
 10
-5.225950000000011
 20
7.343750000000007
 30
0.0
 40
0.0855
  0
LINE
  5
29C
330
2
100
AcDbEntity
  8
0
100
AcDbLine
 10
-5.163454923153281
 20
8.611670185445444
 30
0.0
 11
-5.163454923153281
 21
7.965223369696641
 31
0.0
  0
LINE
  5
29D
330
2
100
AcDbEntity
  8
0
100
AcDbLine
 10
-5.4393432708016
 20
8.939335228390402
 30
0.0
 11
-5.200066575504962
 21
8.700058533093763
 31
0.0
  0
ARC
  5
29E
330
2
100
AcDbEntity
  8
0
100
AcDbCircle
 10
-5.350954923153281
 20
9.027723576038721
 30
0.0
 40
0.125
100
AcDbArc
 50
180.0
 51
225.0000000000003
  0
LINE
  5
29F
330
2
100
AcDbEntity
  8
0
100
AcDbLine
 10
-5.475954923153281
 20
9.027723576038721
 30
0.0
 11
-5.475954923153281
 21
9.031249999999996
 31
0.0
  0
CIRCLE
  5
2A0
330
2
100
AcDbEntity
  8
0
100
AcDbCircle
 10
-4.913450000000011
 20
8.781250000000021
 30
0.0
 40
0.0855
  0
ARC
  5
2A1
330
2
100
AcDbEntity
  8
0
100
AcDbCircle
 10
-3.413449999999991
 20
6.343750000000011
 30
0.0
 40
0.0855
100
AcDbArc
 50
270.0
 51
90.00000000000003
  0
ARC
  5
2A2
330
2
100
AcDbEntity
  8
0
100
AcDbCircle
 10
-3.538449999999991
 20
6.343750000000011
 30
0.0
 40
0.0855
100
AcDbArc
 50
90.00000000000003
 51
270.0
  0
LINE
  5
2A3
330
2
100
AcDbEntity
  8
0
100
AcDbLine
 10
-3.538449999999991
 20
6.258250000000007
 30
0.0
 11
-3.413449999999991
 21
6.258250000000007
 31
0.0
  0
LINE
  5
2A4
330
2
100
AcDbEntity
  8
0
100
AcDbLine
 10
-3.040733908543072
 20
6.305115820863545
 30
0.0
 11
-2.843750000000001
 21
6.305115820863538
 31
0.0
  0
LINE
  5
2A5
330
2
100
AcDbEntity
  8
0
100
AcDbLine
 10
-3.044890734621782
 20
6.134115820863546
 30
0.0
 11
-2.843750000000001
 21
6.134115820863546
 31
0.0
  0
ARC
  5
2A6
330
2
100
AcDbEntity
  8
0
100
AcDbCircle
 10
-2.945926565087022
 20
6.217260632329822
 30
0.0
 40
0.1292554313189278
100
AcDbArc
 50
137.1796312694826
 51
220.0353196785141
  0
LINE
  5
2A7
330
2
100
AcDbEntity
  8
0
100
AcDbLine
 10
-3.538449999999991
 20
6.429250000000007
 30
0.0
 11
-3.413449999999991
 21
6.429250000000007
 31
0.0
  0
CIRCLE
  5
2A8
330
2
100
AcDbEntity
  8
0
100
AcDbCircle
 10
-3.600949999999995
 20
7.593750000000007
 30
0.0
 40
0.0855
  0
LINE
  5
2A9
330
2
100
AcDbEntity
  8
0
100
AcDbLine
 10
-3.040733908543072
 20
7.305115820863545
 30
0.0
 11
-2.843750000000001
 21
7.305115820863538
 31
0.0
  0
LINE
  5
2AA
330
2
100
AcDbEntity
  8
0
100
AcDbLine
 10
-3.044890734621782
 20
7.134115820863546
 30
0.0
 11
-2.843750000000001
 21
7.134115820863546
 31
0.0
  0
ARC
  5
2AB
330
2
100
AcDbEntity
  8
0
100
AcDbCircle
 10
-2.945926565087022
 20
7.217260632329822
 30
0.0
 40
0.1292554313189278
100
AcDbArc
 50
137.1796312694826
 51
220.0353196785141
  0
ARC
  5
2AC
330
2
100
AcDbEntity
  8
0
100
AcDbCircle
 10
-3.413449999999995
 20
8.343750000000014
 30
0.0
 40
0.0855
100
AcDbArc
 50
270.0
 51
90.0
  0
LINE
  5
2AD
330
2
100
AcDbEntity
  8
0
100
AcDbLine
 10
-3.538449999999995
 20
8.258250000000015
 30
0.0
 11
-3.413449999999995
 21
8.258250000000015
 31
0.0
  0
LINE
  5
2AE
330
2
100
AcDbEntity
  8
0
100
AcDbLine
 10
-3.538449999999995
 20
8.429250000000014
 30
0.0
 11
-3.413449999999995
 21
8.429250000000014
 31
0.0
  0
ARC
  5
2AF
330
2
100
AcDbEntity
  8
0
100
AcDbCircle
 10
-3.538449999999995
 20
8.343750000000014
 30
0.0
 40
0.0855
100
AcDbArc
 50
90.0
 51
270.0
  0
ARC
  5
2B0
330
2
100
AcDbEntity
  8
0
100
AcDbCircle
 10
-2.945926565087022
 20
8.217260632329822
 30
0.0
 40
0.1292554313189278
100
AcDbArc
 50
137.1796312694826
 51
220.0353196785141
  0
LINE
  5
2B1
330
2
100
AcDbEntity
  8
0
100
AcDbLine
 10
-3.044890734621782
 20
8.134115820863546
 30
0.0
 11
-2.843750000000001
 21
8.134115820863546
 31
0.0
  0
LINE
  5
2B2
330
2
100
AcDbEntity
  8
0
100
AcDbLine
 10
-3.040733908543072
 20
8.305115820863545
 30
0.0
 11
-2.843750000000001
 21
8.305115820863538
 31
0.0
  0
ARC
  5
2B3
330
2
100
AcDbEntity
  8
0
100
AcDbCircle
 10
5.288454923153293
 20
8.611670185445451
 30
0.0
 40
0.125
100
AcDbArc
 50
134.9999999999999
 51
180.0
  0
CIRCLE
  5
2B4
330
2
100
AcDbEntity
  8
0
100
AcDbCircle
 10
4.475950000000013
 20
7.09375
 30
0.0
 40
0.0855
  0
LINE
  5
2B5
330
2
100
AcDbEntity
  8
0
100
AcDbLine
 10
3.040733908543079
 20
5.930115820863545
 30
0.0
 11
2.853794150974772
 21
5.930115820863538
 31
0.0
  0
ARC
  5
2B6
330
2
100
AcDbEntity
  8
0
100
AcDbCircle
 10
2.945926565087029
 20
5.842260632329822
 30
0.0
 40
0.1292554313189278
100
AcDbArc
 50
319.9646803214859
 51
42.82036873051739
  0
LINE
  5
2B7
330
2
100
AcDbEntity
  8
0
100
AcDbLine
 10
3.044890734621789
 20
5.759115820863546
 30
0.0
 11
2.853794150974772
 21
5.759115820863546
 31
0.0
  0
LINE
  5
2B8
330
2
100
AcDbEntity
  8
0
100
AcDbLine
 10
3.040733908543079
 20
6.930115820863545
 30
0.0
 11
2.853794150974772
 21
6.930115820863538
 31
0.0
  0
ARC
  5
2B9
330
2
100
AcDbEntity
  8
0
100
AcDbCircle
 10
2.945926565087029
 20
6.842260632329822
 30
0.0
 40
0.1292554313189278
100
AcDbArc
 50
319.9646803214859
 51
42.82036873051739
  0
LINE
  5
2BA
330
2
100
AcDbEntity
  8
0
100
AcDbLine
 10
3.044890734621789
 20
6.759115820863546
 30
0.0
 11
2.853794150974772
 21
6.759115820863546
 31
0.0
  0
ARC
  5
2BB
330
2
100
AcDbEntity
  8
0
100
AcDbCircle
 10
3.538449999999995
 20
6.343750000000004
 30
0.0
 40
0.0855
100
AcDbArc
 50
270.0
 51
89.99999999999999
  0
ARC
  5
2BC
330
2
100
AcDbEntity
  8
0
100
AcDbCircle
 10
3.413449999999995
 20
6.343750000000004
 30
0.0
 40
0.0855
100
AcDbArc
 50
89.99999999999999
 51
270.0
  0
LINE
  5
2BD
330
2
100
AcDbEntity
  8
0
100
AcDbLine
 10
3.538449999999995
 20
6.258250000000007
 30
0.0
 11
3.413449999999995
 21
6.258250000000007
 31
0.0
  0
CIRCLE
  5
2BE
330
2
100
AcDbEntity
  8
0
100
AcDbCircle
 10
4.163450000000002
 20
6.093750000000004
 30
0.0
 40
0.0855
  0
LINE
  5
2BF
330
2
100
AcDbEntity
  8
0
100
AcDbLine
 10
3.538449999999995
 20
6.429250000000007
 30
0.0
 11
3.413449999999995
 21
6.429250000000007
 31
0.0
  0
ARC
  5
2C0
330
2
100
AcDbEntity
  8
0
100
AcDbCircle
 10
2.945926565087029
 20
7.842260632329822
 30
0.0
 40
0.1292554313189278
100
AcDbArc
 50
319.9646803214859
 51
42.82036873051739
  0
LINE
  5
2C1
330
2
100
AcDbEntity
  8
0
100
AcDbLine
 10
3.044890734621789
 20
7.759115820863546
 30
0.0
 11
2.853794150974772
 21
7.759115820863546
 31
0.0
  0
LINE
  5
2C2
330
2
100
AcDbEntity
  8
0
100
AcDbLine
 10
3.040733908543079
 20
7.930115820863545
 30
0.0
 11
2.853794150974772
 21
7.930115820863538
 31
0.0
  0
CIRCLE
  5
2C3
330
2
100
AcDbEntity
  8
0
100
AcDbCircle
 10
3.600949999999998
 20
7.59375
 30
0.0
 40
0.0855
  0
LINE
  5
2C4
330
2
100
AcDbEntity
  8
0
100
AcDbLine
 10
3.538449999999998
 20
8.429250000000007
 30
0.0
 11
3.413449999999998
 21
8.429250000000007
 31
0.0
  0
LINE
  5
2C5
330
2
100
AcDbEntity
  8
0
100
AcDbLine
 10
3.538449999999998
 20
8.258250000000007
 30
0.0
 11
3.413449999999998
 21
8.258250000000007
 31
0.0
  0
ARC
  5
2C6
330
2
100
AcDbEntity
  8
0
100
AcDbCircle
 10
3.413449999999998
 20
8.343750000000007
 30
0.0
 40
0.0855
100
AcDbArc
 50
89.99999999999999
 51
270.0
  0
ARC
  5
2C7
330
2
100
AcDbEntity
  8
0
100
AcDbCircle
 10
3.538449999999998
 20
8.343750000000007
 30
0.0
 40
0.0855
100
AcDbArc
 50
270.0
 51
89.99999999999999
  0
LINE
  5
2C8
330
2
100
AcDbEntity
  8
0
100
AcDbLine
 10
5.475954923153293
 20
7.549170185445444
 30
0.0
 11
5.475954923153293
 21
7.027723576038721
 31
0.0
  0
CIRCLE
  5
2C9
330
2
100
AcDbEntity
  8
0
100
AcDbCircle
 10
4.913450000000009
 20
6.343750000000011
 30
0.0
 40
0.0855
  0
LINE
  5
2CA
330
2
100
AcDbEntity
  8
0
100
AcDbLine
 10
5.163454923153293
 20
6.593749999999996
 30
0.0
 11
5.163454923153293
 21
5.965223369696641
 31
0.0
  0
LINE
  5
2CB
330
2
100
AcDbEntity
  8
0
100
AcDbLine
 10
5.163454923153293
 20
5.965223576038721
 30
0.0
 11
5.163454923153293
 21
6.611670185445451
 31
0.0
  0
LINE
  5
2CC
330
2
100
AcDbEntity
  8
0
100
AcDbLine
 10
5.200066575504974
 20
5.876835228390402
 30
0.0
 11
5.439343270801612
 21
5.637558533093763
 31
0.0
  0
CIRCLE
  5
2CD
330
2
100
AcDbEntity
  8
0
100
AcDbCircle
 10
4.694700000000009
 20
5.718750000000004
 30
0.0
 40
0.0855
  0
ARC
  5
2CE
330
2
100
AcDbEntity
  8
0
100
AcDbCircle
 10
5.288454923153293
 20
5.965223576038721
 30
0.0
 40
0.125
100
AcDbArc
 50
180.0
 51
225.0000000000001
  0
ARC
  5
2CF
330
2
100
AcDbEntity
  8
0
100
AcDbCircle
 10
5.350954923153293
 20
5.549170185445444
 30
0.0
 40
0.125
100
AcDbArc
 50
0.0
 51
45.00000000000004
  0
LINE
  5
2D0
330
2
100
AcDbEntity
  8
0
100
AcDbLine
 10
5.439343270801605
 20
6.939335228390402
 30
0.0
 11
5.200066575504974
 21
6.70005853309377
 31
0.0
  0
ARC
  5
2D1
330
2
100
AcDbEntity
  8
0
100
AcDbCircle
 10
5.288454923153293
 20
6.611670185445451
 30
0.0
 40
0.125
100
AcDbArc
 50
134.9999999999999
 51
180.0
  0
LINE
  5
2D2
330
2
100
AcDbEntity
  8
0
100
AcDbLine
 10
5.475954923153293
 20
7.027723576038721
 30
0.0
 11
5.475954923153293
 21
7.031249999999996
 31
0.0
  0
ARC
  5
2D3
330
2
100
AcDbEntity
  8
0
100
AcDbCircle
 10
5.350954923153293
 20
7.027723576038721
 30
0.0
 40
0.125
100
AcDbArc
 50
314.9999999999997
 51
0.0
  0
ARC
  5
2D4
330
2
100
AcDbEntity
  8
0
100
AcDbCircle
 10
5.288454923153293
 20
7.965223576038721
 30
0.0
 40
0.125
100
AcDbArc
 50
180.0
 51
225.0000000000001
  0
CIRCLE
  5
2D5
330
2
100
AcDbEntity
  8
0
100
AcDbCircle
 10
5.225950000000013
 20
7.34375
 30
0.0
 40
0.0855
  0
LINE
  5
2D6
330
2
100
AcDbEntity
  8
0
100
AcDbLine
 10
5.200066575504974
 20
7.876835228390402
 30
0.0
 11
5.439343270801612
 21
7.637558533093763
 31
0.0
  0
ARC
  5
2D7
330
2
100
AcDbEntity
  8
0
100
AcDbCircle
 10
5.350954923153293
 20
7.549170185445444
 30
0.0
 40
0.125
100
AcDbArc
 50
0.0
 51
45.00000000000004
  0
LINE
  5
2D8
330
2
100
AcDbEntity
  8
0
100
AcDbLine
 10
5.163454923153293
 20
7.965223576038721
 30
0.0
 11
5.163454923153293
 21
8.611670185445451
 31
0.0
  0
LINE
  5
2D9
330
2
100
AcDbEntity
  8
0
100
AcDbLine
 10
5.163454923153293
 20
8.593749999999996
 30
0.0
 11
5.163454923153293
 21
7.965223369696641
 31
0.0
  0
LINE
  5
2DA
330
2
100
AcDbEntity
  8
0
100
AcDbLine
 10
2.750000000000001
 20
9.031249999999996
 30
0.0
 11
5.475954923153297
 21
9.031249999999996
 31
0.0
  0
LINE
  5
2DB
330
2
100
AcDbEntity
  8
0
100
AcDbLine
 10
5.439343270801605
 20
8.939335228390402
 30
0.0
 11
5.200066575504974
 21
8.70005853309377
 31
0.0
  0
CIRCLE
  5
2DC
330
2
100
AcDbEntity
  8
0
100
AcDbCircle
 10
4.913450000000013
 20
8.781250000000014
 30
0.0
 40
0.0855
  0
ARC
  5
2DD
330
2
100
AcDbEntity
  8
0
100
AcDbCircle
 10
5.350954923153293
 20
9.027723576038721
 30
0.0
 40
0.125
100
AcDbArc
 50
314.9999999999997
 51
0.0
  0
LINE
  5
2DE
330
2
100
AcDbEntity
  8
0
100
AcDbLine
 10
5.475954923153293
 20
9.027723576038721
 30
0.0
 11
5.475954923153293
 21
9.03125
 31
0.0
  0
LINE
  5
2EE
330
2
100
AcDbEntity
  8
0
100
AcDbLine
 10
-13.23625107124243
 20
5.549170185445451
 30
0.0
 11
-13.23625107124243
 21
5.027723576038721
 31
0.0
  0
ARC
  5
2EF
330
2
100
AcDbEntity
  8
0
100
AcDbCircle
 10
-9.673751071242432
 20
4.072140958453144
 30
0.0
 40
3.250000000000006
100
AcDbArc
 50
180.0
 51
225.0000000000003
  0
LINE
  5
2F0
330
2
100
AcDbEntity
  8
0
100
AcDbLine
 10
-10.64342098535255
 20
0.4456167948506611
 30
0.0
 11
-11.9718481100987
 21
1.774043919596846
 31
0.0
  0
ARC
  5
2F1
330
2
100
AcDbEntity
  8
0
100
AcDbCircle
 10
-11.17375107124063
 20
-0.0847132910384971
 30
0.0
 40
0.7499999999981685
100
AcDbArc
 50
6.485459088332444
 51
45.00000000005765
  0
LINE
  5
2F2
330
2
100
AcDbEntity
  8
0
100
AcDbLine
 10
-13.87054614808916
 20
1.295696794696864
 30
0.0
 11
-13.87054614808916
 21
1.146070401635653
 31
0.0
  0
ARC
  5
2F3
330
2
100
AcDbEntity
  8
0
100
AcDbCircle
 10
-13.6983005003387
 20
1.217527426202059
 30
0.0
 40
0.0855
100
AcDbArc
 50
269.9998349343467
 51
90.00016506565325
  0
ARC
  5
2F4
330
2
100
AcDbEntity
  8
0
100
AcDbCircle
 10
-13.71866793044971
 20
1.217527426202059
 30
0.0
 40
0.0855
100
AcDbArc
 50
269.9998349343467
 51
90.00016506565325
  0
ARC
  5
2F5
330
2
100
AcDbEntity
  8
0
100
AcDbCircle
 10
-13.66654614808915
 20
1.217527426202414
 30
0.0
 40
0.0855
100
AcDbArc
 50
270.0
 51
90.0
  0
LINE
  5
2F6
330
2
100
AcDbEntity
  8
0
100
AcDbLine
 10
-13.66654614808915
 20
1.132027426202415
 30
0.0
 11
-13.85404614808915
 21
1.132027426202415
 31
0.0
  0
LINE
  5
2F7
330
2
100
AcDbEntity
  8
0
100
AcDbLine
 10
-13.66654614808915
 20
1.303027426202414
 30
0.0
 11
-13.85404614808915
 21
1.303027426202414
 31
0.0
  0
LINE
  5
2F8
330
2
100
AcDbEntity
  8
0
100
AcDbLine
 10
-13.87054614808916
 20
2.295214961425527
 30
0.0
 11
-13.87054614808916
 21
2.145588568364316
 31
0.0
  0
ARC
  5
2F9
330
2
100
AcDbEntity
  8
0
100
AcDbCircle
 10
-13.72336810662918
 20
2.217527426202059
 30
0.0
 40
0.0855
100
AcDbArc
 50
269.9998349343467
 51
90.00016506565325
  0
ARC
  5
2FA
330
2
100
AcDbEntity
  8
0
100
AcDbCircle
 10
-13.70300067651817
 20
2.217527426202059
 30
0.0
 40
0.0855
100
AcDbArc
 50
269.9998349343467
 51
90.00016506565325
  0
ARC
  5
2FB
330
2
100
AcDbEntity
  8
0
100
AcDbCircle
 10
-13.66654614808915
 20
2.217527426202414
 30
0.0
 40
0.0855
100
AcDbArc
 50
270.0
 51
90.0
  0
LINE
  5
2FC
330
2
100
AcDbEntity
  8
0
100
AcDbLine
 10
-13.66654614808915
 20
2.303027426202414
 30
0.0
 11
-13.85404614808915
 21
2.303027426202414
 31
0.0
  0
LINE
  5
2FD
330
2
100
AcDbEntity
  8
0
100
AcDbLine
 10
-13.66654614808915
 20
2.132027426202415
 30
0.0
 11
-13.85404614808915
 21
2.132027426202415
 31
0.0
  0
ARC
  5
2FE
330
2
100
AcDbEntity
  8
0
100
AcDbCircle
 10
-13.70300067651825
 20
3.217527426202773
 30
0.0
 40
0.0855
100
AcDbArc
 50
269.9998349343467
 51
90.00016506565325
  0
ARC
  5
2FF
330
2
100
AcDbEntity
  8
0
100
AcDbCircle
 10
-13.72336810662926
 20
3.217527426202773
 30
0.0
 40
0.0855
100
AcDbArc
 50
269.9998349343467
 51
90.00016506565325
  0
LINE
  5
300
330
2
100
AcDbEntity
  8
0
100
AcDbLine
 10
-13.87054614808916
 20
3.27926308839985
 30
0.0
 11
-13.87054614808916
 21
3.129636695338638
 31
0.0
  0
ARC
  5
301
330
2
100
AcDbEntity
  8
0
100
AcDbCircle
 10
-13.66654614808915
 20
3.217527426202414
 30
0.0
 40
0.0855
100
AcDbArc
 50
270.0
 51
90.0
  0
LINE
  5
302
330
2
100
AcDbEntity
  8
0
100
AcDbLine
 10
-13.66654614808915
 20
3.303027426202418
 30
0.0
 11
-13.85404614808915
 21
3.303027426202418
 31
0.0
  0
LINE
  5
303
330
2
100
AcDbEntity
  8
0
100
AcDbLine
 10
-13.66654614808915
 20
3.132027426202418
 30
0.0
 11
-13.85404614808915
 21
3.132027426202418
 31
0.0
  0
LINE
  5
304
330
2
100
AcDbEntity
  8
0
100
AcDbLine
 10
-13.87054614808916
 20
4.295214961425527
 30
0.0
 11
-13.87054614808916
 21
4.145588568364316
 31
0.0
  0
ARC
  5
305
330
2
100
AcDbEntity
  8
0
100
AcDbCircle
 10
-13.66654614808915
 20
4.217527426202414
 30
0.0
 40
0.0855
100
AcDbArc
 50
269.9998349343467
 51
90.00016506565325
  0
LINE
  5
306
330
2
100
AcDbEntity
  8
0
100
AcDbLine
 10
-13.66654614808915
 20
4.30302742620241
 30
0.0
 11
-13.87054614808916
 21
4.30302742620241
 31
0.0
  0
LINE
  5
307
330
2
100
AcDbEntity
  8
0
100
AcDbLine
 10
-13.66654614808915
 20
4.132027426202411
 30
0.0
 11
-13.87054614808916
 21
4.132027426202411
 31
0.0
  0
ARC
  5
308
330
2
100
AcDbEntity
  8
0
100
AcDbCircle
 10
-13.72564747685956
 20
4.217527426202414
 30
0.0
 40
0.0855
100
AcDbArc
 50
269.9998349343467
 51
90.00016506565325
  0
ARC
  5
309
330
2
100
AcDbEntity
  8
0
100
AcDbCircle
 10
-13.70528004674855
 20
4.217527426202414
 30
0.0
 40
0.0855
100
AcDbArc
 50
269.9998349343467
 51
90.00016506565325
  0
ARC
  5
30A
330
2
100
AcDbEntity
  8
0
100
AcDbCircle
 10
-13.66654614808915
 20
4.217527426202414
 30
0.0
 40
0.0855
100
AcDbArc
 50
270.0
 51
90.0
  0
LINE
  5
30B
330
2
100
AcDbEntity
  8
0
100
AcDbLine
 10
-13.66654614808915
 20
4.303027426202418
 30
0.0
 11
-13.85404614808915
 21
4.303027426202418
 31
0.0
  0
LINE
  5
30C
330
2
100
AcDbEntity
  8
0
100
AcDbLine
 10
-13.66654614808915
 20
4.132027426202418
 30
0.0
 11
-13.85404614808915
 21
4.132027426202418
 31
0.0
  0
LINE
  5
30D
330
2
100
AcDbEntity
  8
0
100
AcDbLine
 10
-13.19963941889075
 20
4.939335228390402
 30
0.0
 11
-12.96036272359411
 21
4.700058533093763
 31
0.0
  0
LINE
  5
30E
330
2
100
AcDbEntity
  8
0
100
AcDbLine
 10
-12.92375107124243
 20
4.072140958453115
 30
0.0
 11
-12.92375107124243
 21
4.611670185445444
 31
0.0
  0
ARC
  5
30F
330
2
100
AcDbEntity
  8
0
100
AcDbCircle
 10
-13.04875107124243
 20
4.611670185445444
 30
0.0
 40
0.125
100
AcDbArc
 50
0.000000000000007
 51
45.00000000000016
  0
ARC
  5
310
330
2
100
AcDbEntity
  8
0
100
AcDbCircle
 10
-13.11125107124243
 20
5.027723576038721
 30
0.0
 40
0.125
100
AcDbArc
 50
180.0
 51
225.0000000000003
  0
LINE
  5
311
330
2
100
AcDbEntity
  8
0
100
AcDbLine
 10
-13.87054614808916
 20
5.295214961425524
 30
0.0
 11
-13.87054614808916
 21
5.145588568364312
 31
0.0
  0
ARC
  5
312
330
2
100
AcDbEntity
  8
0
100
AcDbCircle
 10
-13.66654614808915
 20
5.217527426202411
 30
0.0
 40
0.0855
100
AcDbArc
 50
270.0
 51
90.0
  0
LINE
  5
313
330
2
100
AcDbEntity
  8
0
100
AcDbLine
 10
-13.66654614808915
 20
5.132027426202415
 30
0.0
 11
-13.85404614808915
 21
5.132027426202415
 31
0.0
  0
LINE
  5
314
330
2
100
AcDbEntity
  8
0
100
AcDbLine
 10
-13.66654614808915
 20
5.303027426202414
 30
0.0
 11
-13.85404614808915
 21
5.303027426202414
 31
0.0
  0
ARC
  5
315
330
2
100
AcDbEntity
  8
0
100
AcDbCircle
 10
-13.70528004674855
 20
5.217527426202411
 30
0.0
 40
0.0855
100
AcDbArc
 50
269.9998349343467
 51
90.00016506565325
  0
ARC
  5
316
330
2
100
AcDbEntity
  8
0
100
AcDbCircle
 10
-13.72564747685956
 20
5.217527426202411
 30
0.0
 40
0.0855
100
AcDbArc
 50
269.9998349343467
 51
90.00016506565325
  0
LINE
  5
317
330
2
100
AcDbEntity
  8
0
100
AcDbLine
 10
-13.66654614808915
 20
5.132027426202408
 30
0.0
 11
-13.87054614808916
 21
5.132027426202408
 31
0.0
  0
LINE
  5
318
330
2
100
AcDbEntity
  8
0
100
AcDbLine
 10
-13.66654614808915
 20
5.303027426202407
 30
0.0
 11
-13.87054614808916
 21
5.303027426202407
 31
0.0
  0
ARC
  5
319
330
2
100
AcDbEntity
  8
0
100
AcDbCircle
 10
-13.66654614808915
 20
5.217527426202411
 30
0.0
 40
0.0855
100
AcDbArc
 50
269.9998349343467
 51
90.00016506565325
  0
ARC
  5
31A
330
2
100
AcDbEntity
  8
0
100
AcDbCircle
 10
-13.04875107124243
 20
8.611670185445444
 30
0.0
 40
0.125
100
AcDbArc
 50
0.000000000000007
 51
45.00000000000016
  0
LINE
  5
31B
330
2
100
AcDbEntity
  8
0
100
AcDbLine
 10
-13.23625107124243
 20
7.549170185445451
 30
0.0
 11
-13.23625107124243
 21
7.027723576038721
 31
0.0
  0
LINE
  5
31C
330
2
100
AcDbEntity
  8
0
100
AcDbLine
 10
-12.92375107124243
 20
5.965223415289106
 30
0.0
 11
-12.92375107124243
 21
6.611670185445444
 31
0.0
  0
ARC
  5
31D
330
2
100
AcDbEntity
  8
0
100
AcDbCircle
 10
-13.11125107124243
 20
5.549170185445451
 30
0.0
 40
0.125
100
AcDbArc
 50
135.0000000000004
 51
180.0
  0
ARC
  5
31E
330
2
100
AcDbEntity
  8
0
100
AcDbCircle
 10
-13.04875107124243
 20
5.965223576038728
 30
0.0
 40
0.125
100
AcDbArc
 50
314.9999999999999
 51
0.000000000000007
  0
LINE
  5
31F
330
2
100
AcDbEntity
  8
0
100
AcDbLine
 10
-12.96036272359411
 20
5.876835228390409
 30
0.0
 11
-13.19963941889075
 21
5.63755853309377
 31
0.0
  0
ARC
  5
320
330
2
100
AcDbEntity
  8
0
100
AcDbCircle
 10
-13.66654614808915
 20
6.217527426202411
 30
0.0
 40
0.0855
100
AcDbArc
 50
269.9998349343467
 51
90.00016506565325
  0
LINE
  5
321
330
2
100
AcDbEntity
  8
0
100
AcDbLine
 10
-13.66654614808915
 20
6.303027426202407
 30
0.0
 11
-13.87054614808916
 21
6.303027426202407
 31
0.0
  0
LINE
  5
322
330
2
100
AcDbEntity
  8
0
100
AcDbLine
 10
-13.66654614808915
 20
6.132027426202408
 30
0.0
 11
-13.87054614808916
 21
6.132027426202408
 31
0.0
  0
ARC
  5
323
330
2
100
AcDbEntity
  8
0
100
AcDbCircle
 10
-13.72564747685956
 20
6.217527426202411
 30
0.0
 40
0.0855
100
AcDbArc
 50
269.9998349343467
 51
90.00016506565325
  0
ARC
  5
324
330
2
100
AcDbEntity
  8
0
100
AcDbCircle
 10
-13.70528004674855
 20
6.217527426202411
 30
0.0
 40
0.0855
100
AcDbArc
 50
269.9998349343467
 51
90.00016506565325
  0
LINE
  5
325
330
2
100
AcDbEntity
  8
0
100
AcDbLine
 10
-13.66654614808915
 20
6.303027426202414
 30
0.0
 11
-13.85404614808915
 21
6.303027426202414
 31
0.0
  0
LINE
  5
326
330
2
100
AcDbEntity
  8
0
100
AcDbLine
 10
-13.66654614808915
 20
6.132027426202415
 30
0.0
 11
-13.85404614808915
 21
6.132027426202415
 31
0.0
  0
ARC
  5
327
330
2
100
AcDbEntity
  8
0
100
AcDbCircle
 10
-13.66654614808915
 20
6.217527426202411
 30
0.0
 40
0.0855
100
AcDbArc
 50
270.0
 51
90.0
  0
LINE
  5
328
330
2
100
AcDbEntity
  8
0
100
AcDbLine
 10
-13.87054614808916
 20
6.295214961425524
 30
0.0
 11
-13.87054614808916
 21
6.145588568364312
 31
0.0
  0
LINE
  5
329
330
2
100
AcDbEntity
  8
0
100
AcDbLine
 10
-13.23625107124243
 20
7.027723576038721
 30
0.0
 11
-13.23625107124243
 21
7.031249999999996
 31
0.0
  0
ARC
  5
32A
330
2
100
AcDbEntity
  8
0
100
AcDbCircle
 10
-13.11125107124243
 20
7.027723576038721
 30
0.0
 40
0.125
100
AcDbArc
 50
180.0
 51
225.0000000000003
  0
ARC
  5
32B
330
2
100
AcDbEntity
  8
0
100
AcDbCircle
 10
-13.04875107124243
 20
6.611670185445444
 30
0.0
 40
0.125
100
AcDbArc
 50
0.000000000000007
 51
45.00000000000016
  0
LINE
  5
32C
330
2
100
AcDbEntity
  8
0
100
AcDbLine
 10
-13.19963941889075
 20
6.939335228390402
 30
0.0
 11
-12.96036272359411
 21
6.700058533093763
 31
0.0
  0
LINE
  5
32D
330
2
100
AcDbEntity
  8
0
100
AcDbLine
 10
-13.66654614808915
 20
7.132027426202408
 30
0.0
 11
-13.87054614808916
 21
7.132027426202408
 31
0.0
  0
ARC
  5
32E
330
2
100
AcDbEntity
  8
0
100
AcDbCircle
 10
-13.72564747685956
 20
7.217527426202411
 30
0.0
 40
0.0855
100
AcDbArc
 50
269.9998349343467
 51
90.00016506565325
  0
ARC
  5
32F
330
2
100
AcDbEntity
  8
0
100
AcDbCircle
 10
-13.70528004674855
 20
7.217527426202411
 30
0.0
 40
0.0855
100
AcDbArc
 50
269.9998349343467
 51
90.00016506565325
  0
LINE
  5
330
330
2
100
AcDbEntity
  8
0
100
AcDbLine
 10
-13.66654614808915
 20
7.303027426202414
 30
0.0
 11
-13.85404614808915
 21
7.303027426202414
 31
0.0
  0
LINE
  5
331
330
2
100
AcDbEntity
  8
0
100
AcDbLine
 10
-13.66654614808915
 20
7.132027426202415
 30
0.0
 11
-13.85404614808915
 21
7.132027426202415
 31
0.0
  0
ARC
  5
332
330
2
100
AcDbEntity
  8
0
100
AcDbCircle
 10
-13.66654614808915
 20
7.217527426202411
 30
0.0
 40
0.0855
100
AcDbArc
 50
270.0
 51
90.0
  0
LINE
  5
333
330
2
100
AcDbEntity
  8
0
100
AcDbLine
 10
-13.87054614808916
 20
7.295214961425524
 30
0.0
 11
-13.87054614808916
 21
7.145588568364312
 31
0.0
  0
LINE
  5
334
330
2
100
AcDbEntity
  8
0
100
AcDbLine
 10
-13.87054614808916
 20
8.295214961425524
 30
0.0
 11
-13.87054614808916
 21
8.145588568364312
 31
0.0
  0
ARC
  5
335
330
2
100
AcDbEntity
  8
0
100
AcDbCircle
 10
-13.66654614808915
 20
8.217527426202411
 30
0.0
 40
0.0855
100
AcDbArc
 50
270.0
 51
90.0
  0
ARC
  5
336
330
2
100
AcDbEntity
  8
0
100
AcDbCircle
 10
-13.70528004674855
 20
8.217527426202411
 30
0.0
 40
0.0855
100
AcDbArc
 50
269.9998349343467
 51
90.00016506565325
  0
ARC
  5
337
330
2
100
AcDbEntity
  8
0
100
AcDbCircle
 10
-13.72564747685956
 20
8.217527426202411
 30
0.0
 40
0.0855
100
AcDbArc
 50
269.9998349343467
 51
90.00016506565325
  0
ARC
  5
338
330
2
100
AcDbEntity
  8
0
100
AcDbCircle
 10
-13.04875107124243
 20
7.965223576038728
 30
0.0
 40
0.125
100
AcDbArc
 50
314.9999999999999
 51
0.000000000000007
  0
LINE
  5
339
330
2
100
AcDbEntity
  8
0
100
AcDbLine
 10
-12.96036272359411
 20
7.876835228390409
 30
0.0
 11
-13.19963941889075
 21
7.63755853309377
 31
0.0
  0
ARC
  5
33A
330
2
100
AcDbEntity
  8
0
100
AcDbCircle
 10
-13.11125107124243
 20
7.549170185445451
 30
0.0
 40
0.125
100
AcDbArc
 50
135.0000000000004
 51
180.0
  0
LINE
  5
33B
330
2
100
AcDbEntity
  8
0
100
AcDbLine
 10
-13.66654614808915
 20
8.132027426202415
 30
0.0
 11
-13.85404614808915
 21
8.132027426202415
 31
0.0
  0
LINE
  5
33C
330
2
100
AcDbEntity
  8
0
100
AcDbLine
 10
-13.66654614808915
 20
8.132027426202408
 30
0.0
 11
-13.87054614808916
 21
8.132027426202408
 31
0.0
  0
LINE
  5
33D
330
2
100
AcDbEntity
  8
0
100
AcDbLine
 10
-12.92375107124243
 20
7.965223415289106
 30
0.0
 11
-12.92375107124243
 21
8.611670185445444
 31
0.0
  0
LINE
  5
33E
330
2
100
AcDbEntity
  8
0
100
AcDbLine
 10
-13.66654614808915
 20
8.303027426202414
 30
0.0
 11
-13.85404614808915
 21
8.303027426202414
 31
0.0
  0
LINE
  5
33F
330
2
100
AcDbEntity
  8
0
100
AcDbLine
 10
-13.19963941889075
 20
8.939335228390402
 30
0.0
 11
-12.96036272359411
 21
8.700058533093763
 31
0.0
  0
ARC
  5
340
330
2
100
AcDbEntity
  8
0
100
AcDbCircle
 10
-13.11125107124243
 20
9.027723576038721
 30
0.0
 40
0.125
100
AcDbArc
 50
180.0
 51
225.0000000000003
  0
LINE
  5
341
330
2
100
AcDbEntity
  8
0
100
AcDbLine
 10
-13.23625107124243
 20
9.027723576038721
 30
0.0
 11
-13.23625107124243
 21
9.031249999999996
 31
0.0
  0
LINE
  5
342
330
2
100
AcDbEntity
  8
0
100
AcDbLine
 10
-14.69779614808915
 20
0.3840598626191483
 30
0.0
 11
-14.69779614808914
 21
9.031249999999993
 31
0.0
  0
LINE
  5
343
330
2
100
AcDbEntity
  8
0
100
AcDbLine
 10
-14.60404614808915
 20
0.301012868801795
 30
0.0
 11
-14.60404614808914
 21
9.031249999999996
 31
0.0
  0
LINE
  5
344
330
2
100
AcDbEntity
  8
0
100
AcDbLine
 10
-14.42855065637314
 20
0.0
 30
0.0
 11
-10.42855065637314
 21
0.0
 31
0.0
  0
LINE
  5
345
330
2
100
AcDbEntity
  8
0
  6
HIDDEN
100
AcDbLine
 10
-14.46386442643363
 20
0.0937500000000018
 30
0.0
 11
-10.44529321127276
 21
0.09375
 31
0.0
  0
ARC
  5
346
330
2
100
AcDbEntity
  8
0
100
AcDbCircle
 10
-15.14649888840335
 20
-0.216910894435248
 30
0.0
 40
0.75
100
AcDbArc
 50
16.81093668363842
 51
53.25388134808164
  0
LINE
  5
347
330
2
100
AcDbEntity
  8
0
100
AcDbLine
 10
-13.23625107124243
 20
9.031249999999996
 30
0.0
 11
-14.69779614808915
 21
9.031249999999996
 31
0.0
  0
ENDSEC
  0
SECTION
  2
OBJECTS
  0
DICTIONARY
  5
9
330
0
100
AcDbDictionary
281
     1
  3
ACAD_COLOR
350
190
  3
ACAD_GROUP
350
23
  3
ACAD_LAYOUT
350
D
  3
ACAD_MATERIAL
350
18F
  3
ACAD_MLINESTYLE
350
24
  3
ACAD_PLOTSETTINGS
350
25
  3
ACAD_PLOTSTYLENAME
350
8
  3
ACAD_TABLESTYLE
350
191
  3
ACDBHEADERROUNDTRIPXREC
350
362
  3
AcDbVariableDictionary
350
18B
  0
DICTIONARY
  5
3
330
2
100
AcDbDictionary
280
     1
281
     1
  3
ACAD_SORTENTS
360
198
  0
DICTIONARY
  5
190
102
{ACAD_REACTORS
330
9
102
}
330
9
100
AcDbDictionary
281
     1
  0
DICTIONARY
  5
23
102
{ACAD_REACTORS
330
9
102
}
330
9
100
AcDbDictionary
281
     1
  0
DICTIONARY
  5
D
102
{ACAD_REACTORS
330
9
102
}
330
9
100
AcDbDictionary
281
     1
  3
Layout1
350
13
  3
Model
350
C
  0
DICTIONARY
  5
18F
102
{ACAD_REACTORS
330
9
102
}
330
9
100
AcDbDictionary
281
     1
  0
DICTIONARY
  5
24
102
{ACAD_REACTORS
330
9
102
}
330
9
100
AcDbDictionary
281
     1
  3
STANDARD
350
27
  0
DICTIONARY
  5
25
102
{ACAD_REACTORS
330
9
102
}
330
9
100
AcDbDictionary
281
     1
  0
ACDBDICTIONARYWDFLT
  5
8
102
{ACAD_REACTORS
330
9
102
}
330
9
100
AcDbDictionary
281
     1
  3
Normal
350
7
100
AcDbDictionaryWithDefault
340
7
  0
DICTIONARY
  5
191
102
{ACAD_REACTORS
330
9
102
}
330
9
100
AcDbDictionary
281
     1
  3
Standard
350
192
  0
DICTIONARY
  5
362
102
{ACAD_REACTORS
330
9
102
}
330
9
100
AcDbDictionary
281
     1
  3
COLORDICT
350
363
  3
MATERIALDICT
350
364
  0
DICTIONARY
  5
18B
102
{ACAD_REACTORS
330
9
102
}
330
9
100
AcDbDictionary
281
     1
  3
CTABLESTYLE
350
2E5
  3
HIDETEXT
350
361
  0
SORTENTSTABLE
  5
198
102
{ACAD_REACTORS
330
3
102
}
330
3
100
AcDbSortentsTable
330
2
331
1DE
  5
29B
331
1A6
  5
263
331
1A5
  5
262
331
1B9
  5
276
331
288
  5
202
331
20A
  5
2C7
331
1C7
  5
284
331
2AC
  5
226
331
1D6
  5
293
331
29C
  5
216
331
216
  5
2D3
331
1B6
  5
273
331
28F
  5
209
331
1EA
  5
2A7
331
2D9
  5
253
331
202
  5
2BF
331
25A
  5
1D4
331
2DD
  5
257
331
1CE
  5
28B
331
257
  5
1D1
331
264
  5
1DE
331
29F
  5
219
331
263
  5
1DD
331
1D8
  5
295
331
2B1
  5
22B
331
26D
  5
1E7
331
1C3
  5
280
331
2DC
  5
256
331
20B
  5
2C8
331
207
  5
2C4
331
20E
  5
2CB
331
2C7
  5
241
331
1FA
  5
2B7
331
1D2
  5
28F
331
220
  5
2DD
331
270
  5
1EA
331
266
  5
1E0
331
205
  5
2C2
331
1C5
  5
282
331
1F0
  5
2AD
331
1AF
  5
26C
331
24B
  5
1C4
331
1C1
  5
27E
331
22B
  5
1A4
331
2BA
  5
234
331
25F
  5
1D9
331
1A3
  5
260
331
2C1
  5
23B
331
2C0
  5
23A
331
2D0
  5
24A
331
278
  5
1F2
331
289
  5
203
331
2C4
  5
23E
331
1E4
  5
2A1
331
261
  5
1DB
331
2DB
  5
255
331
2C6
  5
240
331
206
  5
2C3
331
2B9
  5
233
331
1AB
  5
268
331
2D8
  5
252
331
294
  5
20E
331
239
  5
1B2
331
1DA
  5
297
331
212
  5
2CF
331
237
  5
1B0
331
1EC
  5
2A9
331
2C9
  5
243
331
2A4
  5
21E
331
277
  5
1F1
331
21F
  5
2DC
331
1E7
  5
2A4
331
27E
  5
1F8
331
1F5
  5
2B2
331
240
  5
1B9
331
2A7
  5
221
331
290
  5
20A
331
2C8
  5
242
331
1C8
  5
285
331
253
  5
1CD
331
19E
  5
25B
331
1CF
  5
28C
331
1D4
  5
291
331
2C3
  5
23D
331
233
  5
1AC
331
27B
  5
1F5
331
2DE
  5
258
331
28C
  5
206
331
1FF
  5
2BC
331
26C
  5
1E6
331
23F
  5
1B8
331
22A
  5
1A3
331
245
  5
1BE
331
244
  5
1BD
331
1CA
  5
287
331
234
  5
1AD
331
1DB
  5
298
331
1CD
  5
28A
331
1F9
  5
2B6
331
23A
  5
1B3
331
1F8
  5
2B5
331
219
  5
2D6
331
1E3
  5
2A0
331
1E1
  5
29E
331
2B4
  5
22E
331
1D1
  5
28E
331
22C
  5
1A5
331
22D
  5
1A6
331
27C
  5
1F6
331
1A4
  5
261
331
26A
  5
1E4
331
276
  5
1F0
331
2CC
  5
246
331
2B3
  5
22D
331
281
  5
1FB
331
293
  5
20D
331
226
  5
19F
331
25C
  5
1D6
331
19F
  5
25C
331
27D
  5
1F7
331
1CC
  5
289
331
1A7
  5
264
331
2BE
  5
238
331
25B
  5
1D5
331
25D
  5
1D7
331
26B
  5
1E5
331
2AE
  5
228
331
204
  5
2C1
331
1DC
  5
299
331
21D
  5
2DA
331
271
  5
1EB
331
25E
  5
1D8
331
21B
  5
2D8
331
235
  5
1AE
331
20C
  5
2C9
331
1B1
  5
26E
331
28A
  5
204
331
201
  5
2BE
331
1A8
  5
265
331
259
  5
1D3
331
1DF
  5
29C
331
24E
  5
1C8
331
28B
  5
205
331
2A1
  5
21B
331
295
  5
20F
331
1B5
  5
272
331
1ED
  5
2AA
331
291
  5
20B
331
2CD
  5
247
331
262
  5
1DC
331
1B4
  5
271
331
24A
  5
1C3
331
1BA
  5
277
331
1F3
  5
2B0
331
284
  5
1FE
331
23E
  5
1B7
331
232
  5
1AB
331
298
  5
212
331
246
  5
1BF
331
26E
  5
1E8
331
1EE
  5
2AB
331
238
  5
1B1
331
2AB
  5
225
331
2BB
  5
235
331
2AD
  5
227
331
299
  5
213
331
22E
  5
1A7
331
2CB
  5
245
331
29D
  5
217
331
2A2
  5
21C
331
1AE
  5
26B
331
1C6
  5
283
331
1BD
  5
27A
331
1FC
  5
2B9
331
1A0
  5
25D
331
1C9
  5
286
331
29E
  5
218
331
28E
  5
208
331
24D
  5
1C6
331
208
  5
2C5
331
1D5
  5
292
331
1F6
  5
2B3
331
215
  5
2D2
331
2A9
  5
223
331
256
  5
1D0
331
286
  5
200
331
2AF
  5
229
331
1A1
  5
25E
331
27F
  5
1F9
331
23D
  5
1B6
331
24C
  5
1C5
331
214
  5
2D1
331
19C
  5
259
331
258
  5
1D2
331
23B
  5
1B4
331
22F
  5
1A8
331
2D6
  5
250
331
223
  5
19C
331
251
  5
1CB
331
274
  5
1EE
331
217
  5
2D4
331
1AD
  5
26A
331
273
  5
1ED
331
1BC
  5
279
331
1F4
  5
2B1
331
2A8
  5
222
331
2AA
  5
224
331
209
  5
2C6
331
28D
  5
207
331
1C0
  5
27D
331
20F
  5
2CC
331
296
  5
210
331
1E6
  5
2A3
331
254
  5
1CE
331
2A5
  5
21F
331
19D
  5
25A
331
2B5
  5
22F
331
221
  5
2DE
331
2B6
  5
230
331
267
  5
1E1
331
1BB
  5
278
331
241
  5
1BA
331
265
  5
1DF
331
242
  5
1BB
331
252
  5
1CC
331
2D1
  5
24B
331
297
  5
211
331
1B7
  5
274
331
1DD
  5
29A
331
2CE
  5
248
331
243
  5
1BC
331
1E9
  5
2A6
331
1BF
  5
27C
331
285
  5
1FF
331
1A2
  5
25F
331
268
  5
1E2
331
260
  5
1DA
331
222
  5
19B
331
213
  5
2D0
331
2A0
  5
21A
331
21E
  5
2DB
331
280
  5
1FA
331
2BC
  5
236
331
1C2
  5
27F
331
283
  5
1FD
331
211
  5
2CE
331
2D2
  5
24C
331
210
  5
2CD
331
230
  5
1A9
331
2D5
  5
24F
331
1FB
  5
2B8
331
236
  5
1AF
331
203
  5
2C0
331
27A
  5
1F4
331
269
  5
1E3
331
2A3
  5
21D
331
227
  5
1A0
331
2D7
  5
251
331
1C4
  5
281
331
2D4
  5
24E
331
1E0
  5
29D
331
275
  5
1EF
331
2B0
  5
22A
331
249
  5
1C2
331
1B2
  5
26F
331
1E2
  5
29F
331
23C
  5
1B5
331
225
  5
19E
331
2B8
  5
232
331
1D9
  5
296
331
1B8
  5
275
331
2BF
  5
239
331
1D0
  5
28D
331
1AC
  5
269
331
2A6
  5
220
331
279
  5
1F3
331
255
  5
1CF
331
29A
  5
214
331
1D3
  5
290
331
1B3
  5
270
331
2C5
  5
23F
331
2B7
  5
231
331
2BD
  5
237
331
248
  5
1C1
331
1BE
  5
27B
331
26F
  5
1E9
331
231
  5
1AA
331
1FD
  5
2BA
331
1AA
  5
267
331
21A
  5
2D7
331
200
  5
2BD
331
282
  5
1FC
331
1CB
  5
288
331
24F
  5
1C9
331
1EF
  5
2AC
331
218
  5
2D5
331
1E8
  5
2A5
331
1F7
  5
2B4
331
247
  5
1C0
331
272
  5
1EC
331
224
  5
19D
331
229
  5
1A2
331
2CA
  5
244
331
2C2
  5
23C
331
1F2
  5
2AF
331
20D
  5
2CA
331
2D3
  5
24D
331
1F1
  5
2AE
331
2CF
  5
249
331
228
  5
1A1
331
21C
  5
2D9
331
250
  5
1CA
331
1FE
  5
2BB
331
29B
  5
215
331
287
  5
201
331
1D7
  5
294
331
2DA
  5
254
331
2B2
  5
22C
331
1A9
  5
266
331
1EB
  5
2A8
331
1B0
  5
26D
331
292
  5
20C
331
1E5
  5
2A2
  0
LAYOUT
  5
13
102
{ACAD_REACTORS
330
D
102
}
102
{ACAD_XDICTIONARY
360
365
102
}
330
D
100
AcDbPlotSettings
  1

  2
HP LaserJet 2100 Series PS
  4

  6

 40
0.0
 41
0.0
 42
0.0
 43
0.0
 44
0.0
 45
0.0
 46
0.0
 47
0.0
 48
0.0
 49
0.0
140
0.0
141
0.0
142
1.0
143
1.0
 70
   688
 72
     0
 73
     0
 74
     5
  7

 75
    16
147
1.0
148
0.0
149
0.0
100
AcDbLayout
  1
Layout1
 70
     0
 71
     1
 10
0.0
 20
0.0
 11
12.0
 21
9.0
 12
0.0
 22
0.0
 32
0.0
 14
1.000000000000000E+20
 24
1.000000000000000E+20
 34
1.000000000000000E+20
 15
-1.000000000000000E+20
 25
-1.000000000000000E+20
 35
-1.000000000000000E+20
146
0.0
 13
0.0
 23
0.0
 33
0.0
 16
1.0
 26
0.0
 36
0.0
 17
0.0
 27
1.0
 37
0.0
 76
     0
330
E
  0
LAYOUT
  5
C
102
{ACAD_REACTORS
330
D
102
}
102
{ACAD_XDICTIONARY
360
367
102
}
330
D
100
AcDbPlotSettings
  1

  2
HP LaserJet 2100 Series PS
  4
Letter
  6

 40
5.365749835968018
 41
5.408084392547607
 42
5.4080810546875
 43
5.365753173828125
 44
215.8999938964844
 45
279.3999938964844
 46
0.0
 47
0.0
 48
0.0
 49
0.0
140
0.0
141
0.0
142
1.0
143
4.964148012307827
 70
 11952
 72
     0
 73
     1
 74
     2
  7

 75
     0
147
0.2014444366929948
148
0.0
149
0.0
100
AcDbLayout
  1
Model
 70
     1
 71
     0
 10
0.0
 20
0.0
 11
12.0
 21
9.0
 12
0.0
 22
0.0
 32
0.0
 14
0.0
 24
0.0
 34
0.0
 15
0.0
 25
0.0
 35
0.0
146
0.0
 13
0.0
 23
0.0
 33
0.0
 16
1.0
 26
0.0
 36
0.0
 17
0.0
 27
1.0
 37
0.0
 76
     0
330
2
  0
MLINESTYLE
  5
27
102
{ACAD_REACTORS
330
24
102
}
330
24
100
AcDbMlineStyle
  2
STANDARD
 70
     0
  3

 62
   256
 51
90.0
 52
90.0
 71
     2
 49
0.5
 62
   256
  6
BYLAYER
 49
-0.5
 62
   256
  6
BYLAYER
  0
ACDBPLACEHOLDER
  5
7
102
{ACAD_REACTORS
330
8
102
}
330
8
  0
ACAD_PROXY_OBJECT
  5
192
102
{ACAD_REACTORS
330
191
102
}
330
191
100
AcDbProxyObject
 90
      499
 91
      549
 95
   983063
 70
     0
 93
     1841
310
4214DD185B99185C9928B81E85EB51B8AE3F2E07A17AD46E2B8FC02B5E8DC0F42B1CFD028000000C1008070000C3001FDFF8000000C1003FBFF000000182007F7FE00000030400FEFFC00000060801FDFF8000000C1003FBFF00000018200000000000000681FA0B0000001820100E000186003FBFF000000182007F7FE000
310
00030400FEFFC00000060801FDFF8000000C1003FBFF000000182007F7FE000000304000AD7A3703D0AC73F4160000003040201C00030C007F7FE00000030400FEFFC00000060801FDFF8000000C1003FBFF000000182007F7FE00000030400FEFFC000000608000
340
16
340
16
340
16
 94
        0
  0
XRECORD
  5
363
102
{ACAD_REACTORS
330
362
102
}
330
362
100
AcDbXrecord
340
190
  0
XRECORD
  5
364
102
{ACAD_REACTORS
330
362
102
}
330
362
100
AcDbXrecord
340
18F
  0
DICTIONARYVAR
  5
2E5
102
{ACAD_REACTORS
330
18B
102
}
330
18B
100
DictionaryVariables
280
     0
  1
STANDARD
  0
DICTIONARYVAR
  5
361
102
{ACAD_REACTORS
330
18B
102
}
330
18B
100
DictionaryVariables
280
     0
  1
0
  0
DICTIONARY
  5
365
330
13
100
AcDbDictionary
280
     1
281
     1
  3
ACAD_XREC_ROUNDTRIP
360
366
  0
DICTIONARY
  5
367
330
C
100
AcDbDictionary
280
     1
281
     1
  3
ACAD_XREC_ROUNDTRIP
360
368
  0
XRECORD
  5
366
102
{ACAD_REACTORS
330
365
102
}
330
365
100
AcDbXrecord
102
SHADEPLOT
 70
     0
102
SHADEPLOTRESLEVEL
 70
     2
102
SHADEPLOTCUSTOMDPI
 70
   300
  0
XRECORD
  5
368
102
{ACAD_REACTORS
330
367
102
}
330
367
100
AcDbXrecord
102
SHADEPLOT
 70
     0
102
SHADEPLOTRESLEVEL
 70
     2
102
SHADEPLOTCUSTOMDPI
 70
   300
  0
ENDSEC
  0
EOF
