  0
SECTION
  2
HEADER
  9
$ACADVER
  1
AC1015
  9
$ACADMAINTVER
 70
     6
  9
$DWGCODEPAGE
  3
ANSI_1252
  9
$INSBASE
 10
0.0
 20
0.0
 30
0.0
  9
$EXTMIN
 10
-13.97672515408885
 20
0.3530274186667839
 30
-0.0000000349181948
  9
$EXTMAX
 10
13.37190833217629
 20
22.28173834444226
 30
0.0000000814935746
  9
$LIMMIN
 10
0.0
 20
0.0
  9
$LIMMAX
 10
42.0
 20
32.0
  9
$ORTHOMODE
 70
     1
  9
$REGENMODE
 70
     1
  9
$FILLMODE
 70
     1
  9
$QTEXTMODE
 70
     0
  9
$MIRRTEXT
 70
     0
  9
$LTSCALE
 40
0.5
  9
$ATTMODE
 70
     1
  9
$TEXTSIZE
 40
0.36
  9
$TRACEWID
 40
0.05
  9
$TEXTSTYLE
  7
STANDARD
  9
$CLAYER
  8
0
  9
$CELTYPE
  6
BYLAYER
  9
$CECOLOR
 62
   256
  9
$CELTSCALE
 40
1.0
  9
$DISPSILH
 70
     0
  9
$DIMSCALE
 40
4.0
  9
$DIMASZ
 40
0.125
  9
$DIMEXO
 40
0.062
  9
$DIMDLI
 40
0.375
  9
$DIMRND
 40
0.0
  9
$DIMDLE
 40
0.0
  9
$DIMEXE
 40
0.08
  9
$DIMTP
 40
0.0
  9
$DIMTM
 40
0.0
  9
$DIMTXT
 40
0.09
  9
$DIMCEN
 40
-0.06
  9
$DIMTSZ
 40
0.0
  9
$DIMTOL
 70
     0
  9
$DIMLIM
 70
     0
  9
$DIMTIH
 70
     1
  9
$DIMTOH
 70
     1
  9
$DIMSE1
 70
     0
  9
$DIMSE2
 70
     0
  9
$DIMTAD
 70
     0
  9
$DIMZIN
 70
     0
  9
$DIMBLK
  1

  9
$DIMASO
 70
     0
  9
$DIMSHO
 70
     0
  9
$DIMPOST
  1

  9
$DIMAPOST
  1

  9
$DIMALT
 70
     0
  9
$DIMALTD
 70
     2
  9
$DIMALTF
 40
25.4
  9
$DIMLFAC
 40
1.0
  9
$DIMTOFL
 70
     0
  9
$DIMTVP
 40
0.0
  9
$DIMTIX
 70
     0
  9
$DIMSOXD
 70
     0
  9
$DIMSAH
 70
     0
  9
$DIMBLK1
  1

  9
$DIMBLK2
  1

  9
$DIMSTYLE
  2
STANDARD
  9
$DIMCLRD
 70
     0
  9
$DIMCLRE
 70
     0
  9
$DIMCLRT
 70
     0
  9
$DIMTFAC
 40
1.0
  9
$DIMGAP
 40
0.09
  9
$DIMJUST
 70
     0
  9
$DIMSD1
 70
     0
  9
$DIMSD2
 70
     0
  9
$DIMTOLJ
 70
     1
  9
$DIMTZIN
 70
     0
  9
$DIMALTZ
 70
     0
  9
$DIMALTTZ
 70
     0
  9
$DIMUPT
 70
     0
  9
$DIMDEC
 70
     4
  9
$DIMTDEC
 70
     4
  9
$DIMALTU
 70
     2
  9
$DIMALTTD
 70
     2
  9
$DIMTXSTY
  7
STANDARD
  9
$DIMAUNIT
 70
     0
  9
$DIMADEC
 70
     0
  9
$DIMALTRND
 40
0.0
  9
$DIMAZIN
 70
     0
  9
$DIMDSEP
 70
    46
  9
$DIMATFIT
 70
     3
  9
$DIMFRAC
 70
     2
  9
$DIMLDRBLK
  1

  9
$DIMLUNIT
 70
     5
  9
$DIMLWD
 70
    -2
  9
$DIMLWE
 70
    -2
  9
$DIMTMOVE
 70
     2
  9
$LUNITS
 70
     2
  9
$LUPREC
 70
     4
  9
$SKETCHINC
 40
0.1
  9
$FILLETRAD
 40
0.0
  9
$AUNITS
 70
     0
  9
$AUPREC
 70
     0
  9
$MENU
  1
SIMPSON
  9
$ELEVATION
 40
0.0
  9
$PELEVATION
 40
0.0
  9
$THICKNESS
 40
0.0
  9
$LIMCHECK
 70
     0
  9
$CHAMFERA
 40
0.0
  9
$CHAMFERB
 40
0.0
  9
$CHAMFERC
 40
0.0
  9
$CHAMFERD
 40
0.0
  9
$SKPOLY
 70
     0
  9
$TDCREATE
 40
2448785.876302315
  9
$TDUCREATE
 40
2448786.209635648
  9
$TDUPDATE
 40
2454165.970625938
  9
$TDUUPDATE
 40
2454166.303959271
  9
$TDINDWG
 40
0.200010544
  9
$TDUSRTIMER
 40
0.200010544
  9
$USRTIMER
 70
     1
  9
$ANGBASE
 50
0.0
  9
$ANGDIR
 70
     0
  9
$PDMODE
 70
     0
  9
$PDSIZE
 40
0.0
  9
$PLINEWID
 40
0.0
  9
$SPLFRAME
 70
     0
  9
$SPLINETYPE
 70
     6
  9
$SPLINESEGS
 70
     8
  9
$HANDSEED
  5
6F1
  9
$SURFTAB1
 70
     6
  9
$SURFTAB2
 70
     6
  9
$SURFTYPE
 70
     6
  9
$SURFU
 70
     6
  9
$SURFV
 70
     6
  9
$UCSBASE
  2

  9
$UCSNAME
  2

  9
$UCSORG
 10
0.0
 20
0.0
 30
0.0
  9
$UCSXDIR
 10
1.0
 20
0.0
 30
0.0
  9
$UCSYDIR
 10
0.0
 20
1.0
 30
0.0
  9
$UCSORTHOREF
  2

  9
$UCSORTHOVIEW
 70
     0
  9
$UCSORGTOP
 10
0.0
 20
0.0
 30
0.0
  9
$UCSORGBOTTOM
 10
0.0
 20
0.0
 30
0.0
  9
$UCSORGLEFT
 10
0.0
 20
0.0
 30
0.0
  9
$UCSORGRIGHT
 10
0.0
 20
0.0
 30
0.0
  9
$UCSORGFRONT
 10
0.0
 20
0.0
 30
0.0
  9
$UCSORGBACK
 10
0.0
 20
0.0
 30
0.0
  9
$PUCSBASE
  2

  9
$PUCSNAME
  2

  9
$PUCSORG
 10
0.0
 20
0.0
 30
0.0
  9
$PUCSXDIR
 10
1.0
 20
0.0
 30
0.0
  9
$PUCSYDIR
 10
0.0
 20
1.0
 30
0.0
  9
$PUCSORTHOREF
  2

  9
$PUCSORTHOVIEW
 70
     0
  9
$PUCSORGTOP
 10
0.0
 20
0.0
 30
0.0
  9
$PUCSORGBOTTOM
 10
0.0
 20
0.0
 30
0.0
  9
$PUCSORGLEFT
 10
0.0
 20
0.0
 30
0.0
  9
$PUCSORGRIGHT
 10
0.0
 20
0.0
 30
0.0
  9
$PUCSORGFRONT
 10
0.0
 20
0.0
 30
0.0
  9
$PUCSORGBACK
 10
0.0
 20
0.0
 30
0.0
  9
$USERI1
 70
     0
  9
$USERI2
 70
     0
  9
$USERI3
 70
     0
  9
$USERI4
 70
     0
  9
$USERI5
 70
     0
  9
$USERR1
 40
0.0
  9
$USERR2
 40
0.0
  9
$USERR3
 40
0.0
  9
$USERR4
 40
0.0
  9
$USERR5
 40
0.0
  9
$WORLDVIEW
 70
     1
  9
$SHADEDGE
 70
     3
  9
$SHADEDIF
 70
    70
  9
$TILEMODE
 70
     1
  9
$MAXACTVP
 70
    16
  9
$PINSBASE
 10
0.0
 20
0.0
 30
0.0
  9
$PLIMCHECK
 70
     0
  9
$PEXTMIN
 10
1.000000000000000E+20
 20
1.000000000000000E+20
 30
1.000000000000000E+20
  9
$PEXTMAX
 10
-1.000000000000000E+20
 20
-1.000000000000000E+20
 30
-1.000000000000000E+20
  9
$PLIMMIN
 10
0.0
 20
0.0
  9
$PLIMMAX
 10
12.0
 20
9.0
  9
$UNITMODE
 70
     0
  9
$VISRETAIN
 70
     0
  9
$PLINEGEN
 70
     0
  9
$PSLTSCALE
 70
     0
  9
$TREEDEPTH
 70
  3020
  9
$CMLSTYLE
  2
STANDARD
  9
$CMLJUST
 70
     0
  9
$CMLSCALE
 40
1.0
  9
$PROXYGRAPHICS
 70
     1
  9
$MEASUREMENT
 70
     0
  9
$CELWEIGHT
370
    -1
  9
$ENDCAPS
280
     0
  9
$JOINSTYLE
280
     0
  9
$LWDISPLAY
290
     0
  9
$INSUNITS
 70
     0
  9
$HYPERLINKBASE
  1

  9
$STYLESHEET
  1

  9
$XEDIT
290
     1
  9
$CEPSNTYPE
380
     0
  9
$PSTYLEMODE
290
     1
  9
$FINGERPRINTGUID
  2
{4A3893A8-8CC7-11D5-BE3F-00508B5FCD51}
  9
$VERSIONGUID
  2
{A6C43CDB-9847-4E2B-82D8-8366DBADBA89}
  9
$EXTNAMES
290
     1
  9
$PSVPSCALE
 40
0.0
  9
$OLESTARTUP
290
     0
  0
ENDSEC
  0
SECTION
  2
CLASSES
  0
CLASS
  1
DICTIONARYVAR
  2
AcDbDictionaryVar
  3
AutoCAD 2000
 90
        0
280
     0
281
     0
  0
CLASS
  1
LWPOLYLINE
  2
AcDbPolyline
  3
AutoCAD 2000
 90
        0
280
     0
281
     1
  0
CLASS
  1
ACDBDICTIONARYWDFLT
  2
AcDbDictionaryWithDefault
  3
AutoCAD 2000
 90
        0
280
     0
281
     0
  0
CLASS
  1
ACDBPLACEHOLDER
  2
AcDbPlaceHolder
  3
ObjectDBX Classes
 90
        0
280
     0
281
     0
  0
CLASS
  1
LAYOUT
  2
AcDbLayout
  3
ObjectDBX Classes
 90
        0
280
     0
281
     0
  0
CLASS
  1
LONG_TRANSACTION
  2
AcDbLongTransaction
  3
ObjectDBX Classes
 90
   -65536
280
     1
281
     0
  0
CLASS
  1
LWPOLYLINE
  2
AcDbPolyline
  3
AutoCAD 2000
 90
        0
280
     0
281
     1
  0
CLASS
  1
HATCH
  2
AcDbHatch
  3
AutoCAD 2000
 90
        0
280
     0
281
     1
  0
CLASS
  1
XRECORD
  2
AcDbXrecord
  3
AutoCAD 2000
 90
        0
280
     0
281
     0
  0
CLASS
  1
LONG_TRANSACTION
  2
AcDbLongTransaction
  3
ObjectDBX Classes
 90
   -65536
280
     1
281
     0
  0
CLASS
  1
LWPOLYLINE
  2
AcDbPolyline
  3
AutoCAD 2000
 90
        0
280
     0
281
     1
  0
CLASS
  1
HATCH
  2
AcDbHatch
  3
AutoCAD 2000
 90
        0
280
     0
281
     1
  0
CLASS
  1
XRECORD
  2
AcDbXrecord
  3
AutoCAD 2000
 90
        0
280
     0
281
     0
  0
CLASS
  1
LONG_TRANSACTION
  2
AcDbLongTransaction
  3
ObjectDBX Classes
 90
   -65536
280
     1
281
     0
  0
CLASS
  1
LWPOLYLINE
  2
AcDbPolyline
  3
AutoCAD 2000
 90
        0
280
     0
281
     1
  0
CLASS
  1
HATCH
  2
AcDbHatch
  3
AutoCAD 2000
 90
        0
280
     0
281
     1
  0
CLASS
  1
XRECORD
  2
AcDbXrecord
  3
AutoCAD 2000
 90
        0
280
     0
281
     0
  0
CLASS
  1
LONG_TRANSACTION
  2
AcDbLongTransaction
  3
ObjectDBX Classes
 90
   -65536
280
     1
281
     0
  0
CLASS
  1
LWPOLYLINE
  2
AcDbPolyline
  3
AutoCAD 2000
 90
        0
280
     0
281
     1
  0
CLASS
  1
HATCH
  2
AcDbHatch
  3
AutoCAD 2000
 90
        0
280
     0
281
     1
  0
CLASS
  1
XRECORD
  2
AcDbXrecord
  3
AutoCAD 2000
 90
        0
280
     0
281
     0
  0
CLASS
  1
LONG_TRANSACTION
  2
AcDbLongTransaction
  3
ObjectDBX Classes
 90
   -65536
280
     1
281
     0
  0
CLASS
  1
LWPOLYLINE
  2
AcDbPolyline
  3
AutoCAD 2000
 90
        0
280
     0
281
     1
  0
CLASS
  1
HATCH
  2
AcDbHatch
  3
AutoCAD 2000
 90
        0
280
     0
281
     1
  0
CLASS
  1
XRECORD
  2
AcDbXrecord
  3
AutoCAD 2000
 90
        0
280
     0
281
     0
  0
CLASS
  1
LONG_TRANSACTION
  2
AcDbLongTransaction
  3
ObjectDBX Classes
 90
   -65536
280
     1
281
     0
  0
CLASS
  1
LWPOLYLINE
  2
AcDbPolyline
  3
AutoCAD 2000
 90
        0
280
     0
281
     1
  0
CLASS
  1
HATCH
  2
AcDbHatch
  3
AutoCAD 2000
 90
        0
280
     0
281
     1
  0
CLASS
  1
XRECORD
  2
AcDbXrecord
  3
AutoCAD 2000
 90
        0
280
     0
281
     0
  0
CLASS
  1
LONG_TRANSACTION
  2
AcDbLongTransaction
  3
ObjectDBX Classes
 90
   -65536
280
     1
281
     0
  0
CLASS
  1
LWPOLYLINE
  2
AcDbPolyline
  3
AutoCAD 2000
 90
        0
280
     0
281
     1
  0
CLASS
  1
HATCH
  2
AcDbHatch
  3
AutoCAD 2000
 90
        0
280
     0
281
     1
  0
CLASS
  1
XRECORD
  2
AcDbXrecord
  3
AutoCAD 2000
 90
        0
280
     0
281
     0
  0
CLASS
  1
LONG_TRANSACTION
  2
AcDbLongTransaction
  3
ObjectDBX Classes
 90
   -65536
280
     1
281
     0
  0
CLASS
  1
LWPOLYLINE
  2
AcDbPolyline
  3
AutoCAD 2000
 90
        0
280
     0
281
     1
  0
CLASS
  1
HATCH
  2
AcDbHatch
  3
AutoCAD 2000
 90
        0
280
     0
281
     1
  0
CLASS
  1
XRECORD
  2
AcDbXrecord
  3
AutoCAD 2000
 90
        0
280
     0
281
     0
  0
CLASS
  1
LONG_TRANSACTION
  2
AcDbLongTransaction
  3
ObjectDBX Classes
 90
   -65536
280
     1
281
     0
  0
CLASS
  1
LWPOLYLINE
  2
AcDbPolyline
  3
AutoCAD 2000
 90
        0
280
     0
281
     1
  0
CLASS
  1
HATCH
  2
AcDbHatch
  3
AutoCAD 2000
 90
        0
280
     0
281
     1
  0
CLASS
  1
XRECORD
  2
AcDbXrecord
  3
AutoCAD 2000
 90
        0
280
     0
281
     0
  0
CLASS
  1
LONG_TRANSACTION
  2
AcDbLongTransaction
  3
ObjectDBX Classes
 90
   -65536
280
     1
281
     0
  0
CLASS
  1
LWPOLYLINE
  2
AcDbPolyline
  3
AutoCAD 2000
 90
        0
280
     0
281
     1
  0
CLASS
  1
HATCH
  2
AcDbHatch
  3
AutoCAD 2000
 90
        0
280
     0
281
     1
  0
CLASS
  1
XRECORD
  2
AcDbXrecord
  3
AutoCAD 2000
 90
        0
280
     0
281
     0
  0
CLASS
  1
LONG_TRANSACTION
  2
AcDbLongTransaction
  3
ObjectDBX Classes
 90
   -65536
280
     1
281
     0
  0
CLASS
  1
LWPOLYLINE
  2
AcDbPolyline
  3
AutoCAD 2000
 90
        0
280
     0
281
     1
  0
CLASS
  1
HATCH
  2
AcDbHatch
  3
AutoCAD 2000
 90
        0
280
     0
281
     1
  0
CLASS
  1
XRECORD
  2
AcDbXrecord
  3
AutoCAD 2000
 90
        0
280
     0
281
     0
  0
CLASS
  1
LONG_TRANSACTION
  2
AcDbLongTransaction
  3
ObjectDBX Classes
 90
   -65536
280
     1
281
     0
  0
CLASS
  1
LWPOLYLINE
  2
AcDbPolyline
  3
AutoCAD 2000
 90
        0
280
     0
281
     1
  0
CLASS
  1
HATCH
  2
AcDbHatch
  3
AutoCAD 2000
 90
        0
280
     0
281
     1
  0
CLASS
  1
XRECORD
  2
AcDbXrecord
  3
AutoCAD 2000
 90
        0
280
     0
281
     0
  0
CLASS
  1
LONG_TRANSACTION
  2
AcDbLongTransaction
  3
ObjectDBX Classes
 90
   -65536
280
     1
281
     0
  0
CLASS
  1
LWPOLYLINE
  2
AcDbPolyline
  3
AutoCAD 2000
 90
        0
280
     0
281
     1
  0
CLASS
  1
HATCH
  2
AcDbHatch
  3
AutoCAD 2000
 90
        0
280
     0
281
     1
  0
CLASS
  1
XRECORD
  2
AcDbXrecord
  3
AutoCAD 2000
 90
        0
280
     0
281
     0
  0
CLASS
  1
TABLESTYLE
  2
AcDbTableStyle
  3
ObjectDBX Classes
 90
     2047
280
     1
281
     0
  0
CLASS
  1
SORTENTSTABLE
  2
AcDbSortentsTable
  3
AutoCAD 2000
 90
        0
280
     0
281
     0
  0
ENDSEC
  0
SECTION
  2
TABLES
  0
TABLE
  2
VPORT
  5
1D
330
0
100
AcDbSymbolTable
 70
     2
  0
VPORT
  5
6E3
330
1D
100
AcDbSymbolTableRecord
100
AcDbViewportTableRecord
  2
*Active
 70
     0
 10
0.0
 20
0.0
 11
1.0
 21
1.0
 12
14.01163742295557
 22
16.0
 13
0.0
 23
0.0
 14
0.063
 24
0.063
 15
0.25
 25
0.25
 16
0.0
 26
0.0
 36
1.0
 17
0.0
 27
0.0
 37
0.0
 40
32.3991683991684
 41
1.814583333333333
 42
50.0
 43
0.0
 44
0.0
 50
0.0
 51
0.0
 71
     0
 72
   100
 73
     1
 74
     1
 75
     0
 76
     0
 77
     0
 78
     0
281
     0
 65
     1
110
0.0
120
0.0
130
0.0
111
1.0
121
0.0
131
0.0
112
0.0
122
1.0
132
0.0
 79
     0
146
0.0
  0
ENDTAB
  0
TABLE
  2
LTYPE
  5
18
330
0
100
AcDbSymbolTable
 70
     2
  0
LTYPE
  5
19
330
18
100
AcDbSymbolTableRecord
100
AcDbLinetypeTableRecord
  2
BYBLOCK
 70
     0
  3

 72
    65
 73
     0
 40
0.0
  0
LTYPE
  5
1A
330
18
100
AcDbSymbolTableRecord
100
AcDbLinetypeTableRecord
  2
BYLAYER
 70
     0
  3

 72
    65
 73
     0
 40
0.0
  0
LTYPE
  5
A
330
18
100
AcDbSymbolTableRecord
100
AcDbLinetypeTableRecord
  2
CONTINUOUS
 70
     0
  3
Solid line
 72
    65
 73
     0
 40
0.0
  0
LTYPE
  5
2EC
330
18
100
AcDbSymbolTableRecord
100
AcDbLinetypeTableRecord
  2
HIDDEN
 70
     0
  3
Hidden __ __ __ __ __ __ __ __ __ __ __ __ __ _
 72
    65
 73
     2
 40
0.375
 49
0.25
 74
     0
 49
-0.125
 74
     0
  0
ENDTAB
  0
TABLE
  2
LAYER
  5
14
330
0
100
AcDbSymbolTable
 70
     1
  0
LAYER
  5
6
330
14
100
AcDbSymbolTableRecord
100
AcDbLayerTableRecord
  2
0
 70
     0
 62
     7
  6
CONTINUOUS
370
    -3
390
7
  0
ENDTAB
  0
TABLE
  2
STYLE
  5
15
330
0
100
AcDbSymbolTable
 70
     1
  0
STYLE
  5
16
330
15
100
AcDbSymbolTableRecord
100
AcDbTextStyleTableRecord
  2
STANDARD
 70
     0
 40
0.0
 41
1.0
 50
0.0
 71
     0
 42
0.36
  3
TXT
  4

  0
ENDTAB
  0
TABLE
  2
VIEW
  5
1B
330
0
100
AcDbSymbolTable
 70
     0
  0
ENDTAB
  0
TABLE
  2
UCS
  5
1C
330
0
100
AcDbSymbolTable
 70
     0
  0
ENDTAB
  0
TABLE
  2
APPID
  5
1F
330
0
100
AcDbSymbolTable
 70
     1
  0
APPID
  5
20
330
1F
100
AcDbSymbolTableRecord
100
AcDbRegAppTableRecord
  2
ACAD
 70
     0
  0
ENDTAB
  0
TABLE
  2
DIMSTYLE
  5
21
330
0
100
AcDbSymbolTable
 70
     1
100
AcDbDimStyleTable
  0
DIMSTYLE
105
28
330
21
100
AcDbSymbolTableRecord
100
AcDbDimStyleTableRecord
  2
STANDARD
 70
     0
  3

  4

340
16
  0
ENDTAB
  0
TABLE
  2
BLOCK_RECORD
  5
1
330
0
100
AcDbSymbolTable
 70
     0
  0
BLOCK_RECORD
  5
2
102
{ACAD_XDICTIONARY
360
3
102
}
330
1
100
AcDbSymbolTableRecord
100
AcDbBlockTableRecord
  2
*MODEL_SPACE
340
C
  0
BLOCK_RECORD
  5
E
330
1
100
AcDbSymbolTableRecord
100
AcDbBlockTableRecord
  2
*PAPER_SPACE
340
13
  0
ENDTAB
  0
ENDSEC
  0
SECTION
  2
BLOCKS
  0
BLOCK
  5
5
330
2
100
AcDbEntity
  8
0
100
AcDbBlockBegin
  2
*MODEL_SPACE
 70
     0
 10
0.0
 20
0.0
 30
0.0
  3
*MODEL_SPACE
  1

  4

  0
ENDBLK
  5
B
330
2
100
AcDbEntity
  8
0
100
AcDbBlockEnd
  0
BLOCK
  5
11
330
E
100
AcDbEntity
 67
     1
  8
0
100
AcDbBlockBegin
  2
*PAPER_SPACE
 70
     0
 10
0.0
 20
0.0
 30
0.0
  3
*PAPER_SPACE
  1

  4

  0
ENDBLK
  5
12
330
E
100
AcDbEntity
 67
     1
  8
0
100
AcDbBlockEnd
  0
ENDSEC
  0
SECTION
  2
ENTITIES
  0
CIRCLE
  5
543
330
2
100
AcDbEntity
  8
0
100
AcDbCircle
 10
-3.902648674719522
 20
5.861926007452965
 30
0.0
 40
0.0855
  0
CIRCLE
  5
544
330
2
100
AcDbEntity
  8
0
100
AcDbCircle
 10
3.299251325280466
 20
5.861926007452965
 30
0.0
 40
0.0855
  0
LINE
  5
545
330
2
100
AcDbEntity
  8
0
100
AcDbLine
 10
5.17425624843376
 20
5.942346192898405
 30
0.0
 11
5.17425624843376
 21
5.420899583491682
 31
0.0
  0
LINE
  5
546
330
2
100
AcDbEntity
  8
0
100
AcDbLine
 10
-5.777653597872813
 20
5.942346192898405
 30
0.0
 11
-5.777653597872813
 21
5.420899583491682
 31
0.0
  0
LINE
  5
547
330
2
100
AcDbEntity
  8
0
100
AcDbLine
 10
-3.051698674719528
 20
0.5806760074529613
 30
0.0
 11
-3.051698674719532
 21
9.424426007452961
 31
0.0
  0
LINE
  5
548
330
2
100
AcDbEntity
  8
0
100
AcDbLine
 10
2.448301325280472
 20
0.5806760074529613
 30
0.0
 11
2.448301325280468
 21
9.424426007452958
 31
0.0
  0
LINE
  5
549
330
2
100
AcDbEntity
  8
0
100
AcDbLine
 10
-3.145448674719532
 20
0.5806760074529613
 30
0.0
 11
-3.145448674719532
 21
9.424426007452961
 31
0.0
  0
LINE
  5
54A
330
2
100
AcDbEntity
  8
0
100
AcDbLine
 10
2.542051325280472
 20
0.5806760074529613
 30
0.0
 11
2.542051325280479
 21
9.424426007452958
 31
0.0
  0
CIRCLE
  5
54B
330
2
100
AcDbEntity
  8
0
100
AcDbCircle
 10
-4.294153597872995
 20
4.025422888191997
 30
0.0
 40
0.0855
  0
LINE
  5
54C
330
2
100
AcDbEntity
  8
0
100
AcDbLine
 10
-4.513250636729101
 20
2.167219927049814
 30
0.0
 11
-3.184823511982931
 21
0.8387928023051643
 31
0.0
  0
ARC
  5
54D
330
2
100
AcDbEntity
  8
0
100
AcDbCircle
 10
-2.215153597872817
 20
4.465316965906084
 30
0.0
 40
3.25
100
AcDbArc
 50
180.0
 51
225.0000000000001
  0
CIRCLE
  5
54E
330
2
100
AcDbEntity
  8
0
100
AcDbCircle
 10
-4.465148674719529
 20
2.736926007452958
 30
0.0
 40
0.0855
  0
LINE
  5
54F
330
2
100
AcDbEntity
  8
0
100
AcDbLine
 10
-5.465153597872813
 20
5.004846192898405
 30
0.0
 11
-5.465153597872813
 21
4.358399377149606
 31
0.0
  0
LINE
  5
550
330
2
100
AcDbEntity
  8
0
100
AcDbLine
 10
-5.465153597872813
 20
4.358399583491686
 30
0.0
 11
-5.465153597872813
 21
4.869122888195044
 31
0.0
  0
CIRCLE
  5
551
330
2
100
AcDbEntity
  8
0
100
AcDbCircle
 10
-4.777648674719529
 20
3.486926007452958
 30
0.0
 40
0.0855
  0
CIRCLE
  5
552
330
2
100
AcDbEntity
  8
0
100
AcDbCircle
 10
-4.996398674719536
 20
4.111926007452961
 30
0.0
 40
0.0855
  0
LINE
  5
553
330
2
100
AcDbEntity
  8
0
100
AcDbLine
 10
-5.741041945521133
 20
5.332511235843363
 30
0.0
 11
-5.501765250224494
 21
5.093234540546725
 31
0.0
  0
ARC
  5
554
330
2
100
AcDbEntity
  8
0
100
AcDbCircle
 10
-5.652653597872813
 20
5.420899583491682
 30
0.0
 40
0.125
100
AcDbArc
 50
180.0
 51
225.0000000000003
  0
LINE
  5
555
330
2
100
AcDbEntity
  8
0
100
AcDbLine
 10
-5.465153597872817
 20
5.004846192898413
 30
0.0
 11
-5.465153597872817
 21
4.465316965906084
 31
0.0
  0
CIRCLE
  5
556
330
2
100
AcDbEntity
  8
0
100
AcDbCircle
 10
-5.215148674719529
 20
4.736926007452965
 30
0.0
 40
0.0855
  0
ARC
  5
557
330
2
100
AcDbEntity
  8
0
100
AcDbCircle
 10
-5.590153597872813
 20
5.004846192898405
 30
0.0
 40
0.125
100
AcDbArc
 50
0.0
 51
45.00000000000013
  0
CIRCLE
  5
558
330
2
100
AcDbEntity
  8
0
100
AcDbCircle
 10
-4.46514867471954
 20
4.486926007452965
 30
0.0
 40
0.0855
  0
CIRCLE
  5
559
330
2
100
AcDbEntity
  8
0
100
AcDbCircle
 10
-4.465148674719529
 20
4.486926007452958
 30
0.0
 40
0.0855
  0
CIRCLE
  5
55A
330
2
100
AcDbEntity
  8
0
100
AcDbCircle
 10
-5.527648674719529
 20
5.736926007452965
 30
0.0
 40
0.0855
  0
CIRCLE
  5
55B
330
2
100
AcDbEntity
  8
0
100
AcDbCircle
 10
-4.777648674719529
 20
5.486926007452965
 30
0.0
 40
0.0855
  0
LINE
  5
55C
330
2
100
AcDbEntity
  8
0
100
AcDbLine
 10
-2.957948674719532
 20
0.3931760074529613
 30
0.0
 11
2.354551325280472
 21
0.3931760074529613
 31
0.0
  0
LINE
  5
55D
330
2
100
AcDbEntity
  8
0
100
AcDbLine
 10
-2.957948674719532
 20
0.4869260074529613
 30
0.0
 11
2.354551325280472
 21
0.4869260074529613
 31
0.0
  0
ARC
  5
55E
330
2
100
AcDbEntity
  8
0
100
AcDbCircle
 10
-2.957948674719532
 20
0.5806760074529613
 30
0.0
 40
0.1875
100
AcDbArc
 50
180.0
 51
270.0
  0
ARC
  5
55F
330
2
100
AcDbEntity
  8
0
100
AcDbCircle
 10
-2.957948674719532
 20
0.5806760074529613
 30
0.0
 40
0.09375
100
AcDbArc
 50
180.0
 51
269.9999999999998
  0
CIRCLE
  5
560
330
2
100
AcDbEntity
  8
0
100
AcDbCircle
 10
-3.902648674719522
 20
2.049426007452958
 30
0.0
 40
0.0855
  0
LINE
  5
561
330
2
100
AcDbEntity
  8
0
100
AcDbLine
 10
-3.346589409341313
 20
1.548456482148861
 30
0.0
 11
-3.155492825694296
 21
1.548456482148861
 31
0.0
  0
ARC
  5
562
330
2
100
AcDbEntity
  8
0
100
AcDbCircle
 10
-3.247625239806553
 20
1.631601293615145
 30
0.0
 40
0.1292554313189278
100
AcDbArc
 50
137.1796312694826
 51
220.0353196785141
  0
LINE
  5
563
330
2
100
AcDbEntity
  8
0
100
AcDbLine
 10
-3.342432583262607
 20
1.719456482148861
 30
0.0
 11
-3.155492825694296
 21
1.719456482148861
 31
0.0
  0
LINE
  5
564
330
2
100
AcDbEntity
  8
0
100
AcDbLine
 10
-3.342432583262607
 20
2.670311438504239
 30
0.0
 11
-3.155492825694296
 21
2.670311438504236
 31
0.0
  0
LINE
  5
565
330
2
100
AcDbEntity
  8
0
100
AcDbLine
 10
-3.346589409341313
 20
2.49931143850424
 30
0.0
 11
-3.155492825694296
 21
2.49931143850424
 31
0.0
  0
ARC
  5
566
330
2
100
AcDbEntity
  8
0
100
AcDbCircle
 10
-3.247625239806553
 20
2.582456249970516
 30
0.0
 40
0.1292554313189278
100
AcDbArc
 50
137.1796312694826
 51
220.0353196785141
  0
ARC
  5
567
330
2
100
AcDbEntity
  8
0
100
AcDbCircle
 10
-3.247625239806553
 20
3.596446444876651
 30
0.0
 40
0.1292554313189278
100
AcDbArc
 50
137.1796312694826
 51
220.0353196785141
  0
CIRCLE
  5
568
330
2
100
AcDbEntity
  8
0
100
AcDbCircle
 10
-3.777648674719522
 20
3.236926007452958
 30
0.0
 40
0.0855
  0
LINE
  5
569
330
2
100
AcDbEntity
  8
0
100
AcDbLine
 10
-3.346589409341313
 20
3.513301633410372
 30
0.0
 11
-3.155492825694296
 21
3.513301633410372
 31
0.0
  0
CIRCLE
  5
56A
330
2
100
AcDbEntity
  8
0
100
AcDbCircle
 10
-3.902648674719522
 20
3.736926007452958
 30
0.0
 40
0.0855
  0
LINE
  5
56B
330
2
100
AcDbEntity
  8
0
100
AcDbLine
 10
-3.342432583262607
 20
3.684301633410371
 30
0.0
 11
-3.155492825694296
 21
3.684301633410367
 31
0.0
  0
CIRCLE
  5
56C
330
2
100
AcDbEntity
  8
0
100
AcDbCircle
 10
-3.777648674719526
 20
4.736926007452965
 30
0.0
 40
0.0855
  0
LINE
  5
56D
330
2
100
AcDbEntity
  8
0
100
AcDbLine
 10
-3.342432583262607
 20
4.698291828316506
 30
0.0
 11
-3.145448674719532
 21
4.698291828316499
 31
0.0
  0
LINE
  5
56E
330
2
100
AcDbEntity
  8
0
100
AcDbLine
 10
-3.346589409341313
 20
4.527291828316507
 30
0.0
 11
-3.145448674719532
 21
4.527291828316507
 31
0.0
  0
ARC
  5
56F
330
2
100
AcDbEntity
  8
0
100
AcDbCircle
 10
-3.247625239806553
 20
4.610436639782783
 30
0.0
 40
0.1292554313189278
100
AcDbArc
 50
137.1796312694826
 51
220.0353196785141
  0
CIRCLE
  5
570
330
2
100
AcDbEntity
  8
0
100
AcDbCircle
 10
-3.777648674719526
 20
5.236926007452972
 30
0.0
 40
0.0855
  0
ARC
  5
571
330
2
100
AcDbEntity
  8
0
100
AcDbCircle
 10
-3.247625239806553
 20
5.610436639782783
 30
0.0
 40
0.1292554313189278
100
AcDbArc
 50
137.1796312694826
 51
220.0353196785141
  0
LINE
  5
572
330
2
100
AcDbEntity
  8
0
100
AcDbLine
 10
-3.346589409341313
 20
5.527291828316507
 30
0.0
 11
-3.145448674719532
 21
5.527291828316507
 31
0.0
  0
LINE
  5
573
330
2
100
AcDbEntity
  8
0
100
AcDbLine
 10
-3.342432583262607
 20
5.698291828316506
 30
0.0
 11
-3.145448674719532
 21
5.698291828316499
 31
0.0
  0
ARC
  5
574
330
2
100
AcDbEntity
  8
0
100
AcDbCircle
 10
1.611756248433753
 20
4.465316965906084
 30
0.0
 40
3.25
100
AcDbArc
 50
314.9999999999999
 51
0.0
  0
CIRCLE
  5
575
330
2
100
AcDbEntity
  8
0
100
AcDbCircle
 10
3.861751325280476
 20
2.736926007452965
 30
0.0
 40
0.0855
  0
LINE
  5
576
330
2
100
AcDbEntity
  8
0
100
AcDbLine
 10
3.909853287290037
 20
2.167219927049814
 30
0.0
 11
2.581426162543867
 21
0.8387928023051643
 31
0.0
  0
ARC
  5
577
330
2
100
AcDbEntity
  8
0
100
AcDbCircle
 10
2.644227890367496
 20
1.256601293615145
 30
0.0
 40
0.1292554313189278
100
AcDbArc
 50
319.9646803214859
 51
42.82036873051744
  0
ARC
  5
578
330
2
100
AcDbEntity
  8
0
100
AcDbCircle
 10
2.354551325280472
 20
0.5806760074529613
 30
0.0
 40
0.1875
100
AcDbArc
 50
270.0
 51
0.0
  0
LINE
  5
579
330
2
100
AcDbEntity
  8
0
100
AcDbLine
 10
2.743192059902256
 20
1.173456482148861
 30
0.0
 11
2.552095476255239
 21
1.173456482148861
 31
0.0
  0
ARC
  5
57A
330
2
100
AcDbEntity
  8
0
100
AcDbCircle
 10
2.354551325280472
 20
0.5806760074529613
 30
0.0
 40
0.09375
100
AcDbArc
 50
270.0
 51
0.0
  0
LINE
  5
57B
330
2
100
AcDbEntity
  8
0
100
AcDbLine
 10
2.739035233823547
 20
1.344456482148861
 30
0.0
 11
2.552095476255239
 21
1.344456482148861
 31
0.0
  0
ARC
  5
57C
330
2
100
AcDbEntity
  8
0
100
AcDbCircle
 10
2.644227890367496
 20
2.207456249970516
 30
0.0
 40
0.1292554313189278
100
AcDbArc
 50
319.9646803214859
 51
42.82036873051744
  0
LINE
  5
57D
330
2
100
AcDbEntity
  8
0
100
AcDbLine
 10
2.743192059902256
 20
2.12431143850424
 30
0.0
 11
2.552095476255239
 21
2.12431143850424
 31
0.0
  0
LINE
  5
57E
330
2
100
AcDbEntity
  8
0
100
AcDbLine
 10
2.739035233823547
 20
2.295311438504239
 30
0.0
 11
2.552095476255239
 21
2.295311438504236
 31
0.0
  0
CIRCLE
  5
57F
330
2
100
AcDbEntity
  8
0
100
AcDbCircle
 10
3.299251325280466
 20
2.049426007452961
 30
0.0
 40
0.0855
  0
ARC
  5
580
330
2
100
AcDbEntity
  8
0
100
AcDbCircle
 10
2.644227890367496
 20
3.221446444876651
 30
0.0
 40
0.1292554313189278
100
AcDbArc
 50
319.9646803214859
 51
42.82036873051744
  0
LINE
  5
581
330
2
100
AcDbEntity
  8
0
100
AcDbLine
 10
2.743192059902256
 20
3.138301633410372
 30
0.0
 11
2.552095476255239
 21
3.138301633410372
 31
0.0
  0
LINE
  5
582
330
2
100
AcDbEntity
  8
0
100
AcDbLine
 10
2.739035233823547
 20
3.309301633410371
 30
0.0
 11
2.552095476255239
 21
3.309301633410367
 31
0.0
  0
ARC
  5
583
330
2
100
AcDbEntity
  8
0
100
AcDbCircle
 10
2.644227890367496
 20
4.235436639782787
 30
0.0
 40
0.1292554313189278
100
AcDbArc
 50
319.9646803214859
 51
42.82036873051744
  0
LINE
  5
584
330
2
100
AcDbEntity
  8
0
100
AcDbLine
 10
2.743192059902256
 20
4.15229182831651
 30
0.0
 11
2.552095476255239
 21
4.15229182831651
 31
0.0
  0
LINE
  5
585
330
2
100
AcDbEntity
  8
0
100
AcDbLine
 10
2.739035233823547
 20
4.32329182831651
 30
0.0
 11
2.552095476255239
 21
4.323291828316503
 31
0.0
  0
CIRCLE
  5
586
330
2
100
AcDbEntity
  8
0
100
AcDbCircle
 10
3.174251325280459
 20
3.236926007452958
 30
0.0
 40
0.0855
  0
CIRCLE
  5
587
330
2
100
AcDbEntity
  8
0
100
AcDbCircle
 10
4.174251325280476
 20
3.486926007452965
 30
0.0
 40
0.0855
  0
CIRCLE
  5
588
330
2
100
AcDbEntity
  8
0
100
AcDbCircle
 10
3.299251325280466
 20
3.736926007452965
 30
0.0
 40
0.0855
  0
CIRCLE
  5
589
330
2
100
AcDbEntity
  8
0
100
AcDbCircle
 10
3.690756248433932
 20
4.025422888191997
 30
0.0
 40
0.0855
  0
LINE
  5
58A
330
2
100
AcDbEntity
  8
0
100
AcDbLine
 10
2.743192059902256
 20
5.152291828316507
 30
0.0
 11
2.552095476255239
 21
5.152291828316507
 31
0.0
  0
ARC
  5
58B
330
2
100
AcDbEntity
  8
0
100
AcDbCircle
 10
2.644227890367496
 20
5.235436639782783
 30
0.0
 40
0.1292554313189278
100
AcDbArc
 50
319.9646803214859
 51
42.82036873051744
  0
LINE
  5
58C
330
2
100
AcDbEntity
  8
0
100
AcDbLine
 10
2.739035233823547
 20
5.323291828316506
 30
0.0
 11
2.552095476255239
 21
5.323291828316499
 31
0.0
  0
CIRCLE
  5
58D
330
2
100
AcDbEntity
  8
0
100
AcDbCircle
 10
3.174251325280462
 20
4.736926007452965
 30
0.0
 40
0.0855
  0
CIRCLE
  5
58E
330
2
100
AcDbEntity
  8
0
100
AcDbCircle
 10
3.861751325280476
 20
4.486926007452965
 30
0.0
 40
0.0855
  0
CIRCLE
  5
58F
330
2
100
AcDbEntity
  8
0
100
AcDbCircle
 10
3.174251325280462
 20
5.236926007452972
 30
0.0
 40
0.0855
  0
CIRCLE
  5
590
330
2
100
AcDbEntity
  8
0
100
AcDbCircle
 10
4.174251325280476
 20
5.486926007452965
 30
0.0
 40
0.0855
  0
CIRCLE
  5
591
330
2
100
AcDbEntity
  8
0
100
AcDbCircle
 10
4.393001325280476
 20
4.111926007452961
 30
0.0
 40
0.0855
  0
LINE
  5
592
330
2
100
AcDbEntity
  8
0
100
AcDbLine
 10
5.137644596082073
 20
5.332511235843363
 30
0.0
 11
4.898367900785441
 21
5.093234540546732
 31
0.0
  0
LINE
  5
593
330
2
100
AcDbEntity
  8
0
100
AcDbLine
 10
4.861756248433753
 20
5.004846192898413
 30
0.0
 11
4.861756248433753
 21
4.465316965906084
 31
0.0
  0
ARC
  5
594
330
2
100
AcDbEntity
  8
0
100
AcDbCircle
 10
4.98675624843376
 20
5.004846192898413
 30
0.0
 40
0.125
100
AcDbArc
 50
134.9999999999999
 51
180.0
  0
CIRCLE
  5
595
330
2
100
AcDbEntity
  8
0
100
AcDbCircle
 10
4.611751325280476
 20
4.736926007452965
 30
0.0
 40
0.0855
  0
CIRCLE
  5
596
330
2
100
AcDbEntity
  8
0
100
AcDbCircle
 10
4.924251325280476
 20
5.736926007452965
 30
0.0
 40
0.0855
  0
ARC
  5
597
330
2
100
AcDbEntity
  8
0
100
AcDbCircle
 10
5.04925624843376
 20
5.420899583491682
 30
0.0
 40
0.125
100
AcDbArc
 50
314.9999999999997
 51
0.0
  0
LINE
  5
598
330
2
100
AcDbEntity
  8
0
100
AcDbLine
 10
-5.777653597872813
 20
9.424426007452958
 30
0.0
 11
-3.051698674719532
 21
9.424426007452958
 31
0.0
  0
LINE
  5
599
330
2
100
AcDbEntity
  8
0
100
AcDbLine
 10
-3.241147442857901
 20
22.24072723931458
 30
0.0
 11
-5.778984493583693
 21
22.24072723931458
 31
0.0
  0
LINE
  5
59A
330
2
100
AcDbEntity
  8
0
100
AcDbLine
 10
-3.241147442857901
 20
22.14697723931458
 30
0.0
 11
-5.778984493583693
 21
22.14697723931458
 31
0.0
  0
ARC
  5
59B
330
2
100
AcDbEntity
  8
0
100
AcDbCircle
 10
-5.590153597872813
 20
9.004846192898405
 30
0.0
 40
0.125
100
AcDbArc
 50
0.0
 51
45.00000000000013
  0
CIRCLE
  5
59C
330
2
100
AcDbEntity
  8
0
100
AcDbCircle
 10
-4.777648674719544
 20
7.486926007452968
 30
0.0
 40
0.0855
  0
LINE
  5
59D
330
2
100
AcDbEntity
  8
0
100
AcDbLine
 10
-5.777653597872813
 20
7.942346192898405
 30
0.0
 11
-5.777653597872813
 21
7.420899583491682
 31
0.0
  0
LINE
  5
59E
330
2
100
AcDbEntity
  8
0
100
AcDbLine
 10
-5.501765250224494
 20
6.270011235843363
 30
0.0
 11
-5.741041945521133
 21
6.030734540546717
 31
0.0
  0
LINE
  5
59F
330
2
100
AcDbEntity
  8
0
100
AcDbLine
 10
-5.741041945521133
 20
7.332511235843363
 30
0.0
 11
-5.501765250224494
 21
7.093234540546725
 31
0.0
  0
ARC
  5
5A0
330
2
100
AcDbEntity
  8
0
100
AcDbCircle
 10
-5.652653597872813
 20
5.942346192898405
 30
0.0
 40
0.125
100
AcDbArc
 50
134.9999999999999
 51
180.0
  0
LINE
  5
5A1
330
2
100
AcDbEntity
  8
0
100
AcDbLine
 10
-5.777653597872813
 20
7.420899583491682
 30
0.0
 11
-5.777653597872813
 21
7.424426007452958
 31
0.0
  0
ARC
  5
5A2
330
2
100
AcDbEntity
  8
0
100
AcDbCircle
 10
-5.652653597872813
 20
7.420899583491682
 30
0.0
 40
0.125
100
AcDbArc
 50
180.0
 51
225.0000000000003
  0
CIRCLE
  5
5A3
330
2
100
AcDbEntity
  8
0
100
AcDbCircle
 10
-5.215148674719536
 20
6.736926007452979
 30
0.0
 40
0.0855
  0
LINE
  5
5A4
330
2
100
AcDbEntity
  8
0
100
AcDbLine
 10
-5.465153597872813
 20
7.004846192898405
 30
0.0
 11
-5.465153597872813
 21
6.358399377149603
 31
0.0
  0
CIRCLE
  5
5A5
330
2
100
AcDbEntity
  8
0
100
AcDbCircle
 10
-4.996398674719536
 20
6.111926007452965
 30
0.0
 40
0.0855
  0
ARC
  5
5A6
330
2
100
AcDbEntity
  8
0
100
AcDbCircle
 10
-5.590153597872813
 20
6.358399583491682
 30
0.0
 40
0.125
100
AcDbArc
 50
314.9999999999999
 51
0.0
  0
CIRCLE
  5
5A7
330
2
100
AcDbEntity
  8
0
100
AcDbCircle
 10
-4.465148674719529
 20
6.486926007452972
 30
0.0
 40
0.0855
  0
ARC
  5
5A8
330
2
100
AcDbEntity
  8
0
100
AcDbCircle
 10
-5.590153597872813
 20
7.004846192898405
 30
0.0
 40
0.125
100
AcDbArc
 50
0.0
 51
45.00000000000013
  0
LINE
  5
5A9
330
2
100
AcDbEntity
  8
0
100
AcDbLine
 10
-5.501765250224494
 20
8.270011235843363
 30
0.0
 11
-5.741041945521133
 21
8.030734540546717
 31
0.0
  0
ARC
  5
5AA
330
2
100
AcDbEntity
  8
0
100
AcDbCircle
 10
-5.652653597872813
 20
7.942346192898405
 30
0.0
 40
0.125
100
AcDbArc
 50
134.9999999999999
 51
180.0
  0
ARC
  5
5AB
330
2
100
AcDbEntity
  8
0
100
AcDbCircle
 10
-5.590153597872813
 20
8.358399583491682
 30
0.0
 40
0.125
100
AcDbArc
 50
314.9999999999999
 51
0.0
  0
CIRCLE
  5
5AC
330
2
100
AcDbEntity
  8
0
100
AcDbCircle
 10
-5.527648674719544
 20
7.736926007452968
 30
0.0
 40
0.0855
  0
LINE
  5
5AD
330
2
100
AcDbEntity
  8
0
100
AcDbLine
 10
-5.465153597872813
 20
9.004846192898405
 30
0.0
 11
-5.465153597872813
 21
8.358399377149603
 31
0.0
  0
LINE
  5
5AE
330
2
100
AcDbEntity
  8
0
100
AcDbLine
 10
-5.741041945521133
 20
9.332511235843363
 30
0.0
 11
-5.501765250224494
 21
9.093234540546725
 31
0.0
  0
ARC
  5
5AF
330
2
100
AcDbEntity
  8
0
100
AcDbCircle
 10
-5.652653597872813
 20
9.420899583491682
 30
0.0
 40
0.125
100
AcDbArc
 50
180.0
 51
225.0000000000003
  0
LINE
  5
5B0
330
2
100
AcDbEntity
  8
0
100
AcDbLine
 10
-5.777653597872813
 20
9.420899583491682
 30
0.0
 11
-5.777653597872813
 21
9.424426007452958
 31
0.0
  0
CIRCLE
  5
5B1
330
2
100
AcDbEntity
  8
0
100
AcDbCircle
 10
-5.215148674719544
 20
9.174426007452983
 30
0.0
 40
0.0855
  0
LINE
  5
5B2
330
2
100
AcDbEntity
  8
0
100
AcDbLine
 10
-5.778984493583693
 20
22.24072723931458
 30
0.0
 11
-5.778984493583693
 21
22.14697723931458
 31
0.0
  0
LINE
  5
5B4
330
2
100
AcDbEntity
  8
0
100
AcDbLine
 10
-3.147397442857901
 20
22.05322723931458
 30
0.0
 11
-3.147397442857901
 21
18.02197723931458
 31
0.0
  0
LINE
  5
5B5
330
2
100
AcDbEntity
  8
0
100
AcDbLine
 10
2.525173818201505
 20
22.05322723931458
 30
0.0
 11
2.525173818201505
 21
18.02197723931458
 31
0.0
  0
LINE
  5
5B6
330
2
100
AcDbEntity
  8
0
100
AcDbLine
 10
-3.053647442857901
 20
22.05322723931458
 30
0.0
 11
-3.053647442857901
 21
18.02197723931458
 31
0.0
  0
LINE
  5
5B7
330
2
100
AcDbEntity
  8
0
100
AcDbLine
 10
2.431423818201505
 20
22.05322723931458
 30
0.0
 11
2.431423818201505
 21
18.02197723931458
 31
0.0
  0
CIRCLE
  5
5B8
330
2
100
AcDbEntity
  8
0
100
AcDbCircle
 10
-3.777648674719526
 20
6.736926007452972
 30
0.0
 40
0.0855
  0
LINE
  5
5B9
330
2
100
AcDbEntity
  8
0
100
AcDbLine
 10
-3.342432583262607
 20
6.698291828316506
 30
0.0
 11
-3.145448674719532
 21
6.698291828316499
 31
0.0
  0
LINE
  5
5BA
330
2
100
AcDbEntity
  8
0
100
AcDbLine
 10
-3.346589409341313
 20
6.527291828316507
 30
0.0
 11
-3.145448674719532
 21
6.527291828316507
 31
0.0
  0
ARC
  5
5BB
330
2
100
AcDbEntity
  8
0
100
AcDbCircle
 10
-3.247625239806553
 20
6.610436639782783
 30
0.0
 40
0.1292554313189278
100
AcDbArc
 50
137.1796312694826
 51
220.0353196785141
  0
CIRCLE
  5
5BC
330
2
100
AcDbEntity
  8
0
100
AcDbCircle
 10
-3.902648674719529
 20
7.986926007452968
 30
0.0
 40
0.0855
  0
LINE
  5
5BD
330
2
100
AcDbEntity
  8
0
100
AcDbLine
 10
-3.342432583262607
 20
7.698291828316506
 30
0.0
 11
-3.145448674719532
 21
7.698291828316499
 31
0.0
  0
LINE
  5
5BE
330
2
100
AcDbEntity
  8
0
100
AcDbLine
 10
-3.346589409341313
 20
7.527291828316507
 30
0.0
 11
-3.145448674719532
 21
7.527291828316507
 31
0.0
  0
ARC
  5
5BF
330
2
100
AcDbEntity
  8
0
100
AcDbCircle
 10
-3.247625239806553
 20
7.610436639782783
 30
0.0
 40
0.1292554313189278
100
AcDbArc
 50
137.1796312694826
 51
220.0353196785141
  0
CIRCLE
  5
5C0
330
2
100
AcDbEntity
  8
0
100
AcDbCircle
 10
-3.777648674719522
 20
8.736926007452968
 30
0.0
 40
0.0855
  0
ARC
  5
5C1
330
2
100
AcDbEntity
  8
0
100
AcDbCircle
 10
-3.247625239806553
 20
8.610436639782783
 30
0.0
 40
0.1292554313189278
100
AcDbArc
 50
137.1796312694826
 51
220.0353196785141
  0
LINE
  5
5C2
330
2
100
AcDbEntity
  8
0
100
AcDbLine
 10
-3.346589409341313
 20
8.527291828316507
 30
0.0
 11
-3.145448674719532
 21
8.527291828316507
 31
0.0
  0
LINE
  5
5C3
330
2
100
AcDbEntity
  8
0
100
AcDbLine
 10
-3.342432583262607
 20
8.698291828316506
 30
0.0
 11
-3.145448674719532
 21
8.698291828316499
 31
0.0
  0
ARC
  5
5C4
330
2
100
AcDbEntity
  8
0
100
AcDbCircle
 10
4.98675624843376
 20
9.004846192898413
 30
0.0
 40
0.125
100
AcDbArc
 50
134.9999999999999
 51
180.0
  0
CIRCLE
  5
5C5
330
2
100
AcDbEntity
  8
0
100
AcDbCircle
 10
4.17425132528048
 20
7.486926007452961
 30
0.0
 40
0.0855
  0
LINE
  5
5C6
330
2
100
AcDbEntity
  8
0
100
AcDbLine
 10
2.739035233823547
 20
6.323291828316506
 30
0.0
 11
2.552095476255239
 21
6.323291828316499
 31
0.0
  0
ARC
  5
5C7
330
2
100
AcDbEntity
  8
0
100
AcDbCircle
 10
2.644227890367496
 20
6.235436639782783
 30
0.0
 40
0.1292554313189278
100
AcDbArc
 50
319.9646803214859
 51
42.82036873051744
  0
LINE
  5
5C8
330
2
100
AcDbEntity
  8
0
100
AcDbLine
 10
2.743192059902256
 20
6.152291828316507
 30
0.0
 11
2.552095476255239
 21
6.152291828316507
 31
0.0
  0
LINE
  5
5C9
330
2
100
AcDbEntity
  8
0
100
AcDbLine
 10
2.739035233823547
 20
7.323291828316506
 30
0.0
 11
2.552095476255239
 21
7.323291828316499
 31
0.0
  0
ARC
  5
5CA
330
2
100
AcDbEntity
  8
0
100
AcDbCircle
 10
2.644227890367496
 20
7.235436639782783
 30
0.0
 40
0.1292554313189278
100
AcDbArc
 50
319.9646803214859
 51
42.82036873051744
  0
LINE
  5
5CB
330
2
100
AcDbEntity
  8
0
100
AcDbLine
 10
2.743192059902256
 20
7.152291828316507
 30
0.0
 11
2.552095476255239
 21
7.152291828316507
 31
0.0
  0
CIRCLE
  5
5CC
330
2
100
AcDbEntity
  8
0
100
AcDbCircle
 10
3.174251325280462
 20
6.736926007452972
 30
0.0
 40
0.0855
  0
CIRCLE
  5
5CD
330
2
100
AcDbEntity
  8
0
100
AcDbCircle
 10
3.861751325280469
 20
6.486926007452965
 30
0.0
 40
0.0855
  0
ARC
  5
5CE
330
2
100
AcDbEntity
  8
0
100
AcDbCircle
 10
2.644227890367496
 20
8.235436639782783
 30
0.0
 40
0.1292554313189278
100
AcDbArc
 50
319.9646803214859
 51
42.82036873051744
  0
LINE
  5
5CF
330
2
100
AcDbEntity
  8
0
100
AcDbLine
 10
2.743192059902256
 20
8.152291828316507
 30
0.0
 11
2.552095476255239
 21
8.152291828316507
 31
0.0
  0
LINE
  5
5D0
330
2
100
AcDbEntity
  8
0
100
AcDbLine
 10
2.739035233823547
 20
8.323291828316506
 30
0.0
 11
2.552095476255239
 21
8.323291828316499
 31
0.0
  0
CIRCLE
  5
5D1
330
2
100
AcDbEntity
  8
0
100
AcDbCircle
 10
3.299251325280466
 20
7.986926007452961
 30
0.0
 40
0.0855
  0
CIRCLE
  5
5D2
330
2
100
AcDbEntity
  8
0
100
AcDbCircle
 10
3.174251325280459
 20
8.736926007452968
 30
0.0
 40
0.0855
  0
LINE
  5
5D3
330
2
100
AcDbEntity
  8
0
100
AcDbLine
 10
5.17425624843376
 20
7.942346192898405
 30
0.0
 11
5.17425624843376
 21
7.420899583491682
 31
0.0
  0
CIRCLE
  5
5D4
330
2
100
AcDbEntity
  8
0
100
AcDbCircle
 10
4.611751325280476
 20
6.736926007452972
 30
0.0
 40
0.0855
  0
LINE
  5
5D5
330
2
100
AcDbEntity
  8
0
100
AcDbLine
 10
4.86175624843376
 20
6.986926007452958
 30
0.0
 11
4.86175624843376
 21
6.358399377149603
 31
0.0
  0
LINE
  5
5D6
330
2
100
AcDbEntity
  8
0
100
AcDbLine
 10
4.86175624843376
 20
6.358399583491682
 30
0.0
 11
4.86175624843376
 21
7.004846192898413
 31
0.0
  0
LINE
  5
5D7
330
2
100
AcDbEntity
  8
0
100
AcDbLine
 10
4.898367900785441
 20
6.270011235843363
 30
0.0
 11
5.13764459608208
 21
6.030734540546725
 31
0.0
  0
CIRCLE
  5
5D8
330
2
100
AcDbEntity
  8
0
100
AcDbCircle
 10
4.393001325280476
 20
6.111926007452965
 30
0.0
 40
0.0855
  0
ARC
  5
5D9
330
2
100
AcDbEntity
  8
0
100
AcDbCircle
 10
4.98675624843376
 20
6.358399583491682
 30
0.0
 40
0.125
100
AcDbArc
 50
180.0
 51
225.0000000000001
  0
ARC
  5
5DA
330
2
100
AcDbEntity
  8
0
100
AcDbCircle
 10
5.04925624843376
 20
5.942346192898405
 30
0.0
 40
0.125
100
AcDbArc
 50
0.0
 51
45.00000000000005
  0
LINE
  5
5DB
330
2
100
AcDbEntity
  8
0
100
AcDbLine
 10
5.137644596082073
 20
7.332511235843363
 30
0.0
 11
4.898367900785441
 21
7.093234540546732
 31
0.0
  0
ARC
  5
5DC
330
2
100
AcDbEntity
  8
0
100
AcDbCircle
 10
4.98675624843376
 20
7.004846192898413
 30
0.0
 40
0.125
100
AcDbArc
 50
134.9999999999999
 51
180.0
  0
LINE
  5
5DD
330
2
100
AcDbEntity
  8
0
100
AcDbLine
 10
5.17425624843376
 20
7.420899583491682
 30
0.0
 11
5.17425624843376
 21
7.424426007452958
 31
0.0
  0
ARC
  5
5DE
330
2
100
AcDbEntity
  8
0
100
AcDbCircle
 10
5.04925624843376
 20
7.420899583491682
 30
0.0
 40
0.125
100
AcDbArc
 50
314.9999999999997
 51
0.0
  0
ARC
  5
5DF
330
2
100
AcDbEntity
  8
0
100
AcDbCircle
 10
4.98675624843376
 20
8.358399583491682
 30
0.0
 40
0.125
100
AcDbArc
 50
180.0
 51
225.0000000000001
  0
CIRCLE
  5
5E0
330
2
100
AcDbEntity
  8
0
100
AcDbCircle
 10
4.92425132528048
 20
7.736926007452961
 30
0.0
 40
0.0855
  0
LINE
  5
5E1
330
2
100
AcDbEntity
  8
0
100
AcDbLine
 10
4.898367900785441
 20
8.270011235843363
 30
0.0
 11
5.13764459608208
 21
8.030734540546725
 31
0.0
  0
ARC
  5
5E2
330
2
100
AcDbEntity
  8
0
100
AcDbCircle
 10
5.04925624843376
 20
7.942346192898405
 30
0.0
 40
0.125
100
AcDbArc
 50
0.0
 51
45.00000000000005
  0
LINE
  5
5E3
330
2
100
AcDbEntity
  8
0
100
AcDbLine
 10
4.86175624843376
 20
8.358399583491682
 30
0.0
 11
4.86175624843376
 21
9.004846192898413
 31
0.0
  0
LINE
  5
5E4
330
2
100
AcDbEntity
  8
0
100
AcDbLine
 10
4.86175624843376
 20
8.986926007452958
 30
0.0
 11
4.86175624843376
 21
8.358399377149603
 31
0.0
  0
LINE
  5
5E5
330
2
100
AcDbEntity
  8
0
100
AcDbLine
 10
2.448301325280468
 20
9.424426007452958
 30
0.0
 11
5.174256248433764
 21
9.424426007452958
 31
0.0
  0
LINE
  5
5E9
330
2
100
AcDbEntity
  8
0
100
AcDbLine
 10
5.137644596082073
 20
9.332511235843363
 30
0.0
 11
4.898367900785441
 21
9.093234540546732
 31
0.0
  0
CIRCLE
  5
5EA
330
2
100
AcDbEntity
  8
0
100
AcDbCircle
 10
4.61175132528048
 20
9.174426007452976
 30
0.0
 40
0.0855
  0
ARC
  5
5EB
330
2
100
AcDbEntity
  8
0
100
AcDbCircle
 10
5.04925624843376
 20
9.420899583491682
 30
0.0
 40
0.125
100
AcDbArc
 50
314.9999999999997
 51
0.0
  0
LINE
  5
5EC
330
2
100
AcDbEntity
  8
0
100
AcDbLine
 10
5.17425624843376
 20
9.420899583491682
 30
0.0
 11
5.17425624843376
 21
9.424426007452961
 31
0.0
  0
LINE
  5
5ED
330
2
100
AcDbEntity
  8
0
100
AcDbLine
 10
-2.373611812325834
 20
18.02197723931459
 30
0.0
 11
1.751388187671779
 21
18.02197723931458
 31
0.0
  0
ARC
  5
5EE
330
2
100
AcDbEntity
  8
0
100
AcDbCircle
 10
-2.788111812325841
 20
18.02197723931459
 30
0.0
 40
0.0855
100
AcDbArc
 50
89.9999999999998
 51
179.998568838672
  0
POINT
  5
5EF
330
2
100
AcDbEntity
  8
0
  6
ByBlock
 62
     0
100
AcDbPoint
 10
-2.873611812325674
 20
18.02763019638136
 30
0.0
  0
LINE
  5
5F0
330
2
100
AcDbEntity
  8
0
100
AcDbLine
 10
-3.147397442857901
 20
18.02197723931458
 30
0.0
 11
-2.873611623992545
 21
18.0219772393146
 31
0.0
  0
ARC
  5
5F1
330
2
100
AcDbEntity
  8
0
100
AcDbCircle
 10
-2.459111812325833
 20
18.02197723931459
 30
0.0
 40
0.0855
100
AcDbArc
 50
359.9999999999988
 51
90.00000000000102
  0
LINE
  5
5F2
330
2
100
AcDbEntity
  8
0
100
AcDbLine
 10
-2.788111812325841
 20
18.1074772393146
 30
0.0
 11
-2.459111812325833
 21
18.1074772393146
 31
0.0
  0
LINE
  5
5F5
330
2
100
AcDbEntity
  8
0
100
AcDbLine
 10
1.836888187671779
 20
18.1074772393146
 30
0.0
 11
2.165888187671786
 21
18.1074772393146
 31
0.0
  0
ARC
  5
5F6
330
2
100
AcDbEntity
  8
0
100
AcDbCircle
 10
1.836888187671779
 20
18.02197723931459
 30
0.0
 40
0.0855
100
AcDbArc
 50
89.9999999999998
 51
180.0000000000013
  0
LINE
  5
5F7
330
2
100
AcDbEntity
  8
0
100
AcDbLine
 10
2.251387999336153
 20
18.02197723931459
 30
0.0
 11
2.525173818201505
 21
18.02197723931458
 31
0.0
  0
ARC
  5
5F8
330
2
100
AcDbEntity
  8
0
100
AcDbCircle
 10
2.165888187671786
 20
18.02197723931459
 30
0.0
 40
0.0855
100
AcDbArc
 50
0.0014311613280441
 51
90.00000000000102
  0
LINE
  5
5F9
330
2
100
AcDbEntity
  8
0
100
AcDbLine
 10
-2.373652610809984
 20
22.0219772393146
 30
0.0
 11
1.751428986155929
 21
22.02197723931459
 31
0.0
  0
LINE
  5
5FA
330
2
100
AcDbEntity
  8
0
100
AcDbLine
 10
-3.141185917362485
 20
21.50719246517825
 30
0.0
 11
-3.478031876890583
 21
21.35222415237183
 31
0.0
  0
LINE
  5
5FB
330
2
100
AcDbEntity
  8
0
100
AcDbLine
 10
-3.478031876890583
 20
21.35222415237183
 30
0.0
 11
-3.432596840489119
 21
21.308220804291
 31
0.0
  0
LINE
  5
5FC
330
2
100
AcDbEntity
  8
0
100
AcDbLine
 10
-3.432596840489119
 20
21.308220804291
 30
0.0
 11
-3.141185917362485
 21
21.4402308485335
 31
0.0
  0
LINE
  5
5FD
330
2
100
AcDbEntity
  8
0
100
AcDbLine
 10
-0.3111118123270273
 20
18.90106197973169
 30
0.0
 11
-0.4320270719099248
 21
19.02197723931459
 31
0.0
  0
LINE
  5
5FE
330
2
100
AcDbEntity
  8
0
100
AcDbLine
 10
-0.4320270719099248
 20
19.02197723931459
 30
0.0
 11
-0.3111118123270273
 21
19.14289249889749
 31
0.0
  0
LINE
  5
5FF
330
2
100
AcDbEntity
  8
0
100
AcDbLine
 10
-0.1901965527441298
 20
19.02197723931459
 30
0.0
 11
-0.3111118123270273
 21
19.14289249889749
 31
0.0
  0
LINE
  5
600
330
2
100
AcDbEntity
  8
0
100
AcDbLine
 10
-0.3111118123270273
 20
18.90106197973169
 30
0.0
 11
-0.1901965527441298
 21
19.02197723931459
 31
0.0
  0
ARC
  5
601
330
2
100
AcDbEntity
  8
0
100
AcDbCircle
 10
-2.788111812325841
 20
22.02461823841974
 30
0.0
 40
0.0855
100
AcDbArc
 50
180.0014311613279
 51
270.0
  0
POINT
  5
602
330
2
100
AcDbEntity
  8
0
  6
ByBlock
 62
     0
100
AcDbPoint
 10
-2.873611812325674
 20
22.01896528135297
 30
0.0
  0
LINE
  5
603
330
2
100
AcDbEntity
  8
0
100
AcDbLine
 10
-3.053647442857901
 20
22.02461823841974
 30
0.0
 11
-2.873611623992545
 21
22.02461823841973
 31
0.0
  0
ARC
  5
604
330
2
100
AcDbEntity
  8
0
100
AcDbCircle
 10
-3.241147442857901
 20
22.05322723931458
 30
0.0
 40
0.09375
100
AcDbArc
 50
0.0
 51
90.0
  0
ARC
  5
605
330
2
100
AcDbEntity
  8
0
100
AcDbCircle
 10
-3.241147442857901
 20
22.05322723931458
 30
0.0
 40
0.1875
100
AcDbArc
 50
0.0
 51
90.0
  0
LINE
  5
606
330
2
100
AcDbEntity
  8
0
100
AcDbLine
 10
-2.788111812325841
 20
21.93911823841973
 30
0.0
 11
-2.459111812325833
 21
21.93911823841973
 31
0.0
  0
ARC
  5
607
330
2
100
AcDbEntity
  8
0
100
AcDbCircle
 10
-2.459111812325833
 20
22.02461823841974
 30
0.0
 40
0.0855
100
AcDbArc
 50
269.9999999999988
 51
0.0000000000012213
  0
LINE
  5
608
330
2
100
AcDbEntity
  8
0
100
AcDbLine
 10
2.874901141224772
 20
21.35222415237183
 30
0.0
 11
2.829466104823307
 21
21.308220804291
 31
0.0
  0
LINE
  5
609
330
2
100
AcDbEntity
  8
0
100
AcDbLine
 10
2.538055181696674
 20
21.50719246517825
 30
0.0
 11
2.874901141224772
 21
21.35222415237183
 31
0.0
  0
LINE
  5
60A
330
2
100
AcDbEntity
  8
0
100
AcDbLine
 10
2.829466104823307
 20
21.308220804291
 30
0.0
 11
2.538055181696674
 21
21.4402308485335
 31
0.0
  0
LINE
  5
60B
330
2
100
AcDbEntity
  8
0
100
AcDbLine
 10
2.618923818201505
 20
22.24072723931458
 30
0.0
 11
5.143587144144636
 21
22.24072723931458
 31
0.0
  0
LINE
  5
60C
330
2
100
AcDbEntity
  8
0
100
AcDbLine
 10
2.618923818201505
 20
22.14697723931458
 30
0.0
 11
5.143587144144636
 21
22.14697723931458
 31
0.0
  0
LINE
  5
60D
330
2
100
AcDbEntity
  8
0
100
AcDbLine
 10
1.836888187671779
 20
21.93911823841973
 30
0.0
 11
2.165888187671786
 21
21.93911823841973
 31
0.0
  0
ARC
  5
60E
330
2
100
AcDbEntity
  8
0
100
AcDbCircle
 10
1.836888187671779
 20
22.02461823841974
 30
0.0
 40
0.0855
100
AcDbArc
 50
179.9999999999988
 51
270.0
  0
ARC
  5
60F
330
2
100
AcDbEntity
  8
0
100
AcDbCircle
 10
2.165888187671786
 20
22.02461823841974
 30
0.0
 40
0.0855
100
AcDbArc
 50
269.9999999999988
 51
359.9985688386719
  0
LINE
  5
610
330
2
100
AcDbEntity
  8
0
100
AcDbLine
 10
2.251387999336153
 20
22.02461823841974
 30
0.0
 11
2.431423818201505
 21
22.02461823841975
 31
0.0
  0
ARC
  5
611
330
2
100
AcDbEntity
  8
0
100
AcDbCircle
 10
2.618923818201505
 20
22.05322723931458
 30
0.0
 40
0.1875
100
AcDbArc
 50
90.0
 51
180.0
  0
ARC
  5
612
330
2
100
AcDbEntity
  8
0
100
AcDbCircle
 10
2.618923818201505
 20
22.05322723931458
 30
0.0
 40
0.09375
100
AcDbArc
 50
90.0
 51
180.0
  0
LINE
  5
613
330
2
100
AcDbEntity
  8
0
100
AcDbLine
 10
5.143587144144636
 20
22.24072723931458
 30
0.0
 11
5.143587144144636
 21
22.14697723931458
 31
0.0
  0
LINE
  5
614
330
2
100
AcDbEntity
  8
0
100
AcDbLine
 10
11.90836659666185
 20
5.942346192898413
 30
0.0
 11
11.90836659666185
 21
5.420899583491682
 31
0.0
  0
LINE
  5
615
330
2
100
AcDbEntity
  8
0
100
AcDbLine
 10
13.36991167350857
 20
0.7772358700721096
 30
0.0
 11
13.36991167350856
 21
9.424426007452954
 31
0.0
  0
LINE
  5
616
330
2
100
AcDbEntity
  8
0
100
AcDbLine
 10
13.27616167350857
 20
0.6941888762547563
 30
0.0
 11
13.27616167350856
 21
9.424426007452958
 31
0.0
  0
ARC
  5
617
330
2
100
AcDbEntity
  8
0
100
AcDbCircle
 10
8.34586659666185
 20
4.465316965906105
 30
0.0
 40
3.250000000000006
100
AcDbArc
 50
314.9999999999997
 51
0.0
  0
LINE
  5
618
330
2
100
AcDbEntity
  8
0
100
AcDbLine
 10
13.10066618179256
 20
0.3931760074529613
 30
0.0
 11
9.100666181792555
 21
0.3931760074529613
 31
0.0
  0
LINE
  5
619
330
2
100
AcDbEntity
  8
0
  6
HIDDEN
100
AcDbLine
 10
13.13597995185305
 20
0.4869260074529631
 30
0.0
 11
9.117408736692177
 21
0.4869260074529613
 31
0.0
  0
LINE
  5
61A
330
2
100
AcDbEntity
  8
0
100
AcDbLine
 10
9.315536510771963
 20
0.8387928023036224
 30
0.0
 11
10.64396363551812
 21
2.167219927049807
 31
0.0
  0
ARC
  5
61B
330
2
100
AcDbEntity
  8
0
100
AcDbCircle
 10
9.845866596660045
 20
0.3084627164144642
 30
0.0
 40
0.7499999999981685
100
AcDbArc
 50
134.9999999999423
 51
173.5145409116676
  0
LINE
  5
61C
330
2
100
AcDbEntity
  8
0
100
AcDbLine
 10
12.54266167350858
 20
1.315095375947411
 30
0.0
 11
12.54266167350858
 21
1.1654689828862
 31
0.0
  0
ARC
  5
61D
330
2
100
AcDbEntity
  8
0
100
AcDbCircle
 10
12.37041602575812
 20
1.236926007452606
 30
0.0
 40
0.0855
100
AcDbArc
 50
89.99983493434672
 51
270.0001650656533
  0
ARC
  5
61E
330
2
100
AcDbEntity
  8
0
100
AcDbCircle
 10
12.39078345586913
 20
1.236926007452606
 30
0.0
 40
0.0855
100
AcDbArc
 50
89.99983493434672
 51
270.0001650656533
  0
ARC
  5
61F
330
2
100
AcDbEntity
  8
0
100
AcDbCircle
 10
12.33866167350857
 20
1.236926007452961
 30
0.0
 40
0.0855
100
AcDbArc
 50
90.0
 51
270.0
  0
LINE
  5
620
330
2
100
AcDbEntity
  8
0
100
AcDbLine
 10
12.33866167350857
 20
1.151426007452962
 30
0.0
 11
12.52616167350857
 21
1.151426007452962
 31
0.0
  0
ARC
  5
621
330
2
100
AcDbEntity
  8
0
100
AcDbCircle
 10
13.81861441382277
 20
0.1762651130177133
 30
0.0
 40
0.75
100
AcDbArc
 50
126.7461186519183
 51
163.1890633163615
  0
LINE
  5
622
330
2
100
AcDbEntity
  8
0
100
AcDbLine
 10
12.33866167350857
 20
1.322426007452961
 30
0.0
 11
12.52616167350857
 21
1.322426007452961
 31
0.0
  0
LINE
  5
623
330
2
100
AcDbEntity
  8
0
100
AcDbLine
 10
12.54266167350858
 20
2.314613542676074
 30
0.0
 11
12.54266167350858
 21
2.164987149614863
 31
0.0
  0
ARC
  5
624
330
2
100
AcDbEntity
  8
0
100
AcDbCircle
 10
12.3954836320486
 20
2.236926007452606
 30
0.0
 40
0.0855
100
AcDbArc
 50
89.99983493434672
 51
270.0001650656533
  0
ARC
  5
625
330
2
100
AcDbEntity
  8
0
100
AcDbCircle
 10
12.37511620193759
 20
2.236926007452606
 30
0.0
 40
0.0855
100
AcDbArc
 50
89.99983493434672
 51
270.0001650656533
  0
ARC
  5
626
330
2
100
AcDbEntity
  8
0
100
AcDbCircle
 10
12.33866167350857
 20
2.236926007452961
 30
0.0
 40
0.0855
100
AcDbArc
 50
90.0
 51
270.0
  0
LINE
  5
627
330
2
100
AcDbEntity
  8
0
100
AcDbLine
 10
12.33866167350857
 20
2.322426007452961
 30
0.0
 11
12.52616167350857
 21
2.322426007452961
 31
0.0
  0
LINE
  5
628
330
2
100
AcDbEntity
  8
0
100
AcDbLine
 10
12.33866167350857
 20
2.151426007452962
 30
0.0
 11
12.52616167350857
 21
2.151426007452962
 31
0.0
  0
ARC
  5
629
330
2
100
AcDbEntity
  8
0
100
AcDbCircle
 10
12.37511620193767
 20
3.23692600745332
 30
0.0
 40
0.0855
100
AcDbArc
 50
89.99983493434672
 51
270.0001650656533
  0
ARC
  5
62A
330
2
100
AcDbEntity
  8
0
100
AcDbCircle
 10
12.39548363204868
 20
3.23692600745332
 30
0.0
 40
0.0855
100
AcDbArc
 50
89.99983493434672
 51
270.0001650656533
  0
LINE
  5
62B
330
2
100
AcDbEntity
  8
0
100
AcDbLine
 10
12.54266167350858
 20
3.298661669650397
 30
0.0
 11
12.54266167350858
 21
3.149035276589185
 31
0.0
  0
ARC
  5
62C
330
2
100
AcDbEntity
  8
0
100
AcDbCircle
 10
12.33866167350857
 20
3.236926007452961
 30
0.0
 40
0.0855
100
AcDbArc
 50
90.0
 51
270.0
  0
LINE
  5
62D
330
2
100
AcDbEntity
  8
0
100
AcDbLine
 10
12.33866167350857
 20
3.322426007452965
 30
0.0
 11
12.52616167350857
 21
3.322426007452965
 31
0.0
  0
LINE
  5
62E
330
2
100
AcDbEntity
  8
0
100
AcDbLine
 10
12.33866167350857
 20
3.151426007452965
 30
0.0
 11
12.52616167350857
 21
3.151426007452965
 31
0.0
  0
LINE
  5
62F
330
2
100
AcDbEntity
  8
0
100
AcDbLine
 10
12.54266167350858
 20
4.314613542676074
 30
0.0
 11
12.54266167350858
 21
4.164987149614863
 31
0.0
  0
ARC
  5
630
330
2
100
AcDbEntity
  8
0
100
AcDbCircle
 10
12.33866167350857
 20
4.236926007452961
 30
0.0
 40
0.0855
100
AcDbArc
 50
89.99983493434672
 51
270.0001650656533
  0
LINE
  5
631
330
2
100
AcDbEntity
  8
0
100
AcDbLine
 10
12.33866167350857
 20
4.322426007452958
 30
0.0
 11
12.54266167350858
 21
4.322426007452958
 31
0.0
  0
LINE
  5
632
330
2
100
AcDbEntity
  8
0
100
AcDbLine
 10
12.33866167350857
 20
4.151426007452958
 30
0.0
 11
12.54266167350858
 21
4.151426007452958
 31
0.0
  0
ARC
  5
633
330
2
100
AcDbEntity
  8
0
100
AcDbCircle
 10
12.39776300227898
 20
4.236926007452961
 30
0.0
 40
0.0855
100
AcDbArc
 50
89.99983493434672
 51
270.0001650656533
  0
ARC
  5
634
330
2
100
AcDbEntity
  8
0
100
AcDbCircle
 10
12.37739557216797
 20
4.236926007452961
 30
0.0
 40
0.0855
100
AcDbArc
 50
89.99983493434672
 51
270.0001650656533
  0
ARC
  5
635
330
2
100
AcDbEntity
  8
0
100
AcDbCircle
 10
12.33866167350857
 20
4.236926007452961
 30
0.0
 40
0.0855
100
AcDbArc
 50
90.0
 51
270.0
  0
LINE
  5
636
330
2
100
AcDbEntity
  8
0
100
AcDbLine
 10
12.33866167350857
 20
4.322426007452965
 30
0.0
 11
12.52616167350857
 21
4.322426007452965
 31
0.0
  0
LINE
  5
637
330
2
100
AcDbEntity
  8
0
100
AcDbLine
 10
12.33866167350857
 20
4.151426007452965
 30
0.0
 11
12.52616167350857
 21
4.151426007452965
 31
0.0
  0
LINE
  5
638
330
2
100
AcDbEntity
  8
0
100
AcDbLine
 10
11.87175494431017
 20
5.332511235843363
 30
0.0
 11
11.63247824901353
 21
5.093234540546725
 31
0.0
  0
LINE
  5
639
330
2
100
AcDbEntity
  8
0
100
AcDbLine
 10
11.59586659666185
 20
4.465316965906077
 30
0.0
 11
11.59586659666185
 21
5.004846192898405
 31
0.0
  0
ARC
  5
63A
330
2
100
AcDbEntity
  8
0
100
AcDbCircle
 10
11.72086659666185
 20
5.004846192898405
 30
0.0
 40
0.125
100
AcDbArc
 50
134.9999999999999
 51
180.0
  0
ARC
  5
63B
330
2
100
AcDbEntity
  8
0
100
AcDbCircle
 10
11.78336659666185
 20
5.420899583491682
 30
0.0
 40
0.125
100
AcDbArc
 50
314.9999999999997
 51
0.0
  0
LINE
  5
63C
330
2
100
AcDbEntity
  8
0
100
AcDbLine
 10
12.54266167350858
 20
5.314613542676071
 30
0.0
 11
12.54266167350858
 21
5.164987149614859
 31
0.0
  0
ARC
  5
63D
330
2
100
AcDbEntity
  8
0
100
AcDbCircle
 10
12.33866167350857
 20
5.236926007452958
 30
0.0
 40
0.0855
100
AcDbArc
 50
90.0
 51
270.0
  0
LINE
  5
63E
330
2
100
AcDbEntity
  8
0
100
AcDbLine
 10
12.33866167350857
 20
5.151426007452962
 30
0.0
 11
12.52616167350857
 21
5.151426007452962
 31
0.0
  0
LINE
  5
63F
330
2
100
AcDbEntity
  8
0
100
AcDbLine
 10
12.33866167350857
 20
5.322426007452961
 30
0.0
 11
12.52616167350857
 21
5.322426007452961
 31
0.0
  0
ARC
  5
640
330
2
100
AcDbEntity
  8
0
100
AcDbCircle
 10
12.37739557216797
 20
5.236926007452958
 30
0.0
 40
0.0855
100
AcDbArc
 50
89.99983493434672
 51
270.0001650656533
  0
ARC
  5
641
330
2
100
AcDbEntity
  8
0
100
AcDbCircle
 10
12.39776300227898
 20
5.236926007452958
 30
0.0
 40
0.0855
100
AcDbArc
 50
89.99983493434672
 51
270.0001650656533
  0
LINE
  5
642
330
2
100
AcDbEntity
  8
0
100
AcDbLine
 10
12.33866167350857
 20
5.151426007452955
 30
0.0
 11
12.54266167350858
 21
5.151426007452955
 31
0.0
  0
LINE
  5
643
330
2
100
AcDbEntity
  8
0
100
AcDbLine
 10
12.33866167350857
 20
5.322426007452954
 30
0.0
 11
12.54266167350858
 21
5.322426007452954
 31
0.0
  0
ARC
  5
644
330
2
100
AcDbEntity
  8
0
100
AcDbCircle
 10
12.33866167350857
 20
5.236926007452958
 30
0.0
 40
0.0855
100
AcDbArc
 50
89.99983493434672
 51
270.0001650656533
  0
ARC
  5
645
330
2
100
AcDbEntity
  8
0
100
AcDbCircle
 10
11.72086659666185
 20
9.004846192898405
 30
0.0
 40
0.125
100
AcDbArc
 50
134.9999999999999
 51
180.0
  0
LINE
  5
646
330
2
100
AcDbEntity
  8
0
100
AcDbLine
 10
11.90836659666185
 20
7.942346192898413
 30
0.0
 11
11.90836659666185
 21
7.420899583491682
 31
0.0
  0
LINE
  5
647
330
2
100
AcDbEntity
  8
0
100
AcDbLine
 10
11.59586659666185
 20
6.358399422742068
 30
0.0
 11
11.59586659666185
 21
7.004846192898405
 31
0.0
  0
ARC
  5
648
330
2
100
AcDbEntity
  8
0
100
AcDbCircle
 10
11.78336659666185
 20
5.942346192898413
 30
0.0
 40
0.125
100
AcDbArc
 50
0.0
 51
44.99999999999959
  0
ARC
  5
649
330
2
100
AcDbEntity
  8
0
100
AcDbCircle
 10
11.72086659666185
 20
6.358399583491689
 30
0.0
 40
0.125
100
AcDbArc
 50
180.0
 51
225.0000000000001
  0
LINE
  5
64A
330
2
100
AcDbEntity
  8
0
100
AcDbLine
 10
11.63247824901353
 20
6.27001123584337
 30
0.0
 11
11.87175494431017
 21
6.030734540546732
 31
0.0
  0
ARC
  5
64B
330
2
100
AcDbEntity
  8
0
100
AcDbCircle
 10
12.33866167350857
 20
6.236926007452958
 30
0.0
 40
0.0855
100
AcDbArc
 50
89.99983493434672
 51
270.0001650656533
  0
LINE
  5
64C
330
2
100
AcDbEntity
  8
0
100
AcDbLine
 10
12.33866167350857
 20
6.322426007452954
 30
0.0
 11
12.54266167350858
 21
6.322426007452954
 31
0.0
  0
LINE
  5
64D
330
2
100
AcDbEntity
  8
0
100
AcDbLine
 10
12.33866167350857
 20
6.151426007452955
 30
0.0
 11
12.54266167350858
 21
6.151426007452955
 31
0.0
  0
ARC
  5
64E
330
2
100
AcDbEntity
  8
0
100
AcDbCircle
 10
12.39776300227898
 20
6.236926007452958
 30
0.0
 40
0.0855
100
AcDbArc
 50
89.99983493434672
 51
270.0001650656533
  0
ARC
  5
64F
330
2
100
AcDbEntity
  8
0
100
AcDbCircle
 10
12.37739557216797
 20
6.236926007452958
 30
0.0
 40
0.0855
100
AcDbArc
 50
89.99983493434672
 51
270.0001650656533
  0
LINE
  5
650
330
2
100
AcDbEntity
  8
0
100
AcDbLine
 10
12.33866167350857
 20
6.322426007452961
 30
0.0
 11
12.52616167350857
 21
6.322426007452961
 31
0.0
  0
LINE
  5
651
330
2
100
AcDbEntity
  8
0
100
AcDbLine
 10
12.33866167350857
 20
6.151426007452962
 30
0.0
 11
12.52616167350857
 21
6.151426007452962
 31
0.0
  0
ARC
  5
652
330
2
100
AcDbEntity
  8
0
100
AcDbCircle
 10
12.33866167350857
 20
6.236926007452958
 30
0.0
 40
0.0855
100
AcDbArc
 50
90.0
 51
270.0
  0
LINE
  5
653
330
2
100
AcDbEntity
  8
0
100
AcDbLine
 10
12.54266167350858
 20
6.314613542676071
 30
0.0
 11
12.54266167350858
 21
6.164987149614859
 31
0.0
  0
LINE
  5
654
330
2
100
AcDbEntity
  8
0
100
AcDbLine
 10
11.90836659666185
 20
7.420899583491682
 30
0.0
 11
11.90836659666185
 21
7.424426007452958
 31
0.0
  0
ARC
  5
655
330
2
100
AcDbEntity
  8
0
100
AcDbCircle
 10
11.78336659666185
 20
7.420899583491682
 30
0.0
 40
0.125
100
AcDbArc
 50
314.9999999999997
 51
0.0
  0
ARC
  5
656
330
2
100
AcDbEntity
  8
0
100
AcDbCircle
 10
11.72086659666185
 20
7.004846192898405
 30
0.0
 40
0.125
100
AcDbArc
 50
134.9999999999999
 51
180.0
  0
LINE
  5
657
330
2
100
AcDbEntity
  8
0
100
AcDbLine
 10
11.87175494431017
 20
7.332511235843363
 30
0.0
 11
11.63247824901353
 21
7.093234540546725
 31
0.0
  0
LINE
  5
658
330
2
100
AcDbEntity
  8
0
100
AcDbLine
 10
12.33866167350857
 20
7.151426007452955
 30
0.0
 11
12.54266167350858
 21
7.151426007452955
 31
0.0
  0
ARC
  5
659
330
2
100
AcDbEntity
  8
0
100
AcDbCircle
 10
12.39776300227898
 20
7.236926007452958
 30
0.0
 40
0.0855
100
AcDbArc
 50
89.99983493434672
 51
270.0001650656533
  0
ARC
  5
65A
330
2
100
AcDbEntity
  8
0
100
AcDbCircle
 10
12.37739557216797
 20
7.236926007452958
 30
0.0
 40
0.0855
100
AcDbArc
 50
89.99983493434672
 51
270.0001650656533
  0
LINE
  5
65B
330
2
100
AcDbEntity
  8
0
100
AcDbLine
 10
12.33866167350857
 20
7.322426007452961
 30
0.0
 11
12.52616167350857
 21
7.322426007452961
 31
0.0
  0
LINE
  5
65C
330
2
100
AcDbEntity
  8
0
100
AcDbLine
 10
12.33866167350857
 20
7.151426007452962
 30
0.0
 11
12.52616167350857
 21
7.151426007452962
 31
0.0
  0
ARC
  5
65D
330
2
100
AcDbEntity
  8
0
100
AcDbCircle
 10
12.33866167350857
 20
7.236926007452958
 30
0.0
 40
0.0855
100
AcDbArc
 50
90.0
 51
270.0
  0
LINE
  5
65E
330
2
100
AcDbEntity
  8
0
100
AcDbLine
 10
12.54266167350858
 20
7.314613542676071
 30
0.0
 11
12.54266167350858
 21
7.164987149614859
 31
0.0
  0
LINE
  5
65F
330
2
100
AcDbEntity
  8
0
100
AcDbLine
 10
12.54266167350858
 20
8.314613542676071
 30
0.0
 11
12.54266167350858
 21
8.164987149614859
 31
0.0
  0
ARC
  5
660
330
2
100
AcDbEntity
  8
0
100
AcDbCircle
 10
12.33866167350857
 20
8.236926007452958
 30
0.0
 40
0.0855
100
AcDbArc
 50
90.0
 51
270.0
  0
ARC
  5
661
330
2
100
AcDbEntity
  8
0
100
AcDbCircle
 10
12.37739557216797
 20
8.236926007452958
 30
0.0
 40
0.0855
100
AcDbArc
 50
89.99983493434672
 51
270.0001650656533
  0
ARC
  5
662
330
2
100
AcDbEntity
  8
0
100
AcDbCircle
 10
12.39776300227898
 20
8.236926007452958
 30
0.0
 40
0.0855
100
AcDbArc
 50
89.99983493434672
 51
270.0001650656533
  0
ARC
  5
663
330
2
100
AcDbEntity
  8
0
100
AcDbCircle
 10
11.72086659666185
 20
8.358399583491689
 30
0.0
 40
0.125
100
AcDbArc
 50
180.0
 51
225.0000000000001
  0
LINE
  5
664
330
2
100
AcDbEntity
  8
0
100
AcDbLine
 10
11.63247824901353
 20
8.27001123584337
 30
0.0
 11
11.87175494431017
 21
8.030734540546732
 31
0.0
  0
ARC
  5
665
330
2
100
AcDbEntity
  8
0
100
AcDbCircle
 10
11.78336659666185
 20
7.942346192898413
 30
0.0
 40
0.125
100
AcDbArc
 50
0.0
 51
44.99999999999959
  0
LINE
  5
666
330
2
100
AcDbEntity
  8
0
100
AcDbLine
 10
12.33866167350857
 20
8.151426007452962
 30
0.0
 11
12.52616167350857
 21
8.151426007452962
 31
0.0
  0
LINE
  5
667
330
2
100
AcDbEntity
  8
0
100
AcDbLine
 10
12.33866167350857
 20
8.151426007452955
 30
0.0
 11
12.54266167350858
 21
8.151426007452955
 31
0.0
  0
LINE
  5
668
330
2
100
AcDbEntity
  8
0
100
AcDbLine
 10
11.59586659666185
 20
8.358399422742068
 30
0.0
 11
11.59586659666185
 21
9.004846192898405
 31
0.0
  0
LINE
  5
669
330
2
100
AcDbEntity
  8
0
100
AcDbLine
 10
12.33866167350857
 20
8.322426007452961
 30
0.0
 11
12.52616167350857
 21
8.322426007452961
 31
0.0
  0
LINE
  5
66A
330
2
100
AcDbEntity
  8
0
100
AcDbLine
 10
11.90836659666185
 20
9.424426007452958
 30
0.0
 11
13.36991167350857
 21
9.424426007452958
 31
0.0
  0
LINE
  5
66B
330
2
100
AcDbEntity
  8
0
100
AcDbLine
 10
11.87175494431017
 20
9.332511235843363
 30
0.0
 11
11.63247824901353
 21
9.093234540546725
 31
0.0
  0
ARC
  5
66C
330
2
100
AcDbEntity
  8
0
100
AcDbCircle
 10
11.78336659666185
 20
9.420899583491682
 30
0.0
 40
0.125
100
AcDbArc
 50
314.9999999999997
 51
0.0
  0
LINE
  5
66D
330
2
100
AcDbEntity
  8
0
100
AcDbLine
 10
11.90836659666185
 20
9.420899583491682
 30
0.0
 11
11.90836659666185
 21
9.424426007452958
 31
0.0
  0
LINE
  5
671
330
2
100
AcDbEntity
  8
0
100
AcDbLine
 10
-12.51176394610091
 20
5.942346192898413
 30
0.0
 11
-12.51176394610091
 21
5.420899583491682
 31
0.0
  0
LINE
  5
672
330
2
100
AcDbEntity
  8
0
100
AcDbLine
 10
-13.97330902294763
 20
0.7772358700721096
 30
0.0
 11
-13.97330902294762
 21
9.424426007452954
 31
0.0
  0
LINE
  5
673
330
2
100
AcDbEntity
  8
0
100
AcDbLine
 10
-13.87955902294763
 20
0.6941888762547563
 30
0.0
 11
-13.87955902294762
 21
9.424426007452958
 31
0.0
  0
ARC
  5
674
330
2
100
AcDbEntity
  8
0
100
AcDbCircle
 10
-8.94926394610091
 20
4.465316965906105
 30
0.0
 40
3.250000000000006
100
AcDbArc
 50
180.0
 51
225.0000000000004
  0
LINE
  5
675
330
2
100
AcDbEntity
  8
0
100
AcDbLine
 10
-13.70406353123162
 20
0.3931760074529613
 30
0.0
 11
-9.704063531231615
 21
0.3931760074529613
 31
0.0
  0
LINE
  5
676
330
2
100
AcDbEntity
  8
0
  6
HIDDEN
100
AcDbLine
 10
-13.73937730129211
 20
0.4869260074529631
 30
0.0
 11
-9.720806086131237
 21
0.4869260074529613
 31
0.0
  0
LINE
  5
677
330
2
100
AcDbEntity
  8
0
100
AcDbLine
 10
-9.918933860211023
 20
0.8387928023036224
 30
0.0
 11
-11.24736098495718
 21
2.167219927049807
 31
0.0
  0
ARC
  5
678
330
2
100
AcDbEntity
  8
0
100
AcDbCircle
 10
-10.44926394609911
 20
0.3084627164144642
 30
0.0
 40
0.7499999999981685
100
AcDbArc
 50
6.485459088332418
 51
45.0000000000577
  0
LINE
  5
679
330
2
100
AcDbEntity
  8
0
100
AcDbLine
 10
-13.14605902294764
 20
1.688872802149826
 30
0.0
 11
-13.14605902294764
 21
1.539246409088614
 31
0.0
  0
ARC
  5
67A
330
2
100
AcDbEntity
  8
0
100
AcDbCircle
 10
-12.97381337519718
 20
1.61070343365502
 30
0.0
 40
0.0855
100
AcDbArc
 50
269.9998349343467
 51
90.00016506565328
  0
ARC
  5
67B
330
2
100
AcDbEntity
  8
0
100
AcDbCircle
 10
-12.99418080530819
 20
1.61070343365502
 30
0.0
 40
0.0855
100
AcDbArc
 50
269.9998349343467
 51
90.00016506565328
  0
ARC
  5
67C
330
2
100
AcDbEntity
  8
0
100
AcDbCircle
 10
-12.94205902294763
 20
1.610703433655376
 30
0.0
 40
0.0855
100
AcDbArc
 50
270.0
 51
90.0
  0
LINE
  5
67D
330
2
100
AcDbEntity
  8
0
100
AcDbLine
 10
-12.94205902294763
 20
1.525203433655376
 30
0.0
 11
-13.12955902294763
 21
1.525203433655376
 31
0.0
  0
ARC
  5
67E
330
2
100
AcDbEntity
  8
0
100
AcDbCircle
 10
-14.42201176326183
 20
0.1762651130177133
 30
0.0
 40
0.75
100
AcDbArc
 50
16.81093668363846
 51
53.25388134808166
  0
LINE
  5
67F
330
2
100
AcDbEntity
  8
0
100
AcDbLine
 10
-12.94205902294763
 20
1.696203433655375
 30
0.0
 11
-13.12955902294763
 21
1.696203433655375
 31
0.0
  0
LINE
  5
680
330
2
100
AcDbEntity
  8
0
100
AcDbLine
 10
-13.14605902294764
 20
2.688390968878489
 30
0.0
 11
-13.14605902294764
 21
2.538764575817277
 31
0.0
  0
ARC
  5
681
330
2
100
AcDbEntity
  8
0
100
AcDbCircle
 10
-12.99888098148766
 20
2.61070343365502
 30
0.0
 40
0.0855
100
AcDbArc
 50
269.9998349343467
 51
90.00016506565328
  0
ARC
  5
682
330
2
100
AcDbEntity
  8
0
100
AcDbCircle
 10
-12.97851355137665
 20
2.61070343365502
 30
0.0
 40
0.0855
100
AcDbArc
 50
269.9998349343467
 51
90.00016506565328
  0
ARC
  5
683
330
2
100
AcDbEntity
  8
0
100
AcDbCircle
 10
-12.94205902294763
 20
2.610703433655376
 30
0.0
 40
0.0855
100
AcDbArc
 50
270.0
 51
90.0
  0
LINE
  5
684
330
2
100
AcDbEntity
  8
0
100
AcDbLine
 10
-12.94205902294763
 20
2.696203433655375
 30
0.0
 11
-13.12955902294763
 21
2.696203433655375
 31
0.0
  0
LINE
  5
685
330
2
100
AcDbEntity
  8
0
100
AcDbLine
 10
-12.94205902294763
 20
2.525203433655376
 30
0.0
 11
-13.12955902294763
 21
2.525203433655376
 31
0.0
  0
ARC
  5
686
330
2
100
AcDbEntity
  8
0
100
AcDbCircle
 10
-12.97851355137673
 20
3.610703433655734
 30
0.0
 40
0.0855
100
AcDbArc
 50
269.9998349343467
 51
90.00016506565328
  0
ARC
  5
687
330
2
100
AcDbEntity
  8
0
100
AcDbCircle
 10
-12.99888098148774
 20
3.610703433655734
 30
0.0
 40
0.0855
100
AcDbArc
 50
269.9998349343467
 51
90.00016506565328
  0
LINE
  5
688
330
2
100
AcDbEntity
  8
0
100
AcDbLine
 10
-13.14605902294764
 20
3.672439095852811
 30
0.0
 11
-13.14605902294764
 21
3.522812702791599
 31
0.0
  0
ARC
  5
689
330
2
100
AcDbEntity
  8
0
100
AcDbCircle
 10
-12.94205902294763
 20
3.610703433655376
 30
0.0
 40
0.0855
100
AcDbArc
 50
270.0
 51
90.0
  0
LINE
  5
68A
330
2
100
AcDbEntity
  8
0
100
AcDbLine
 10
-12.94205902294763
 20
3.696203433655379
 30
0.0
 11
-13.12955902294763
 21
3.696203433655379
 31
0.0
  0
LINE
  5
68B
330
2
100
AcDbEntity
  8
0
100
AcDbLine
 10
-12.94205902294763
 20
3.52520343365538
 30
0.0
 11
-13.12955902294763
 21
3.52520343365538
 31
0.0
  0
LINE
  5
68C
330
2
100
AcDbEntity
  8
0
100
AcDbLine
 10
-13.14605902294764
 20
4.688390968878489
 30
0.0
 11
-13.14605902294764
 21
4.538764575817277
 31
0.0
  0
ARC
  5
68D
330
2
100
AcDbEntity
  8
0
100
AcDbCircle
 10
-12.94205902294763
 20
4.610703433655376
 30
0.0
 40
0.0855
100
AcDbArc
 50
269.9998349343467
 51
90.00016506565328
  0
LINE
  5
68E
330
2
100
AcDbEntity
  8
0
100
AcDbLine
 10
-12.94205902294763
 20
4.696203433655372
 30
0.0
 11
-13.14605902294764
 21
4.696203433655372
 31
0.0
  0
LINE
  5
68F
330
2
100
AcDbEntity
  8
0
100
AcDbLine
 10
-12.94205902294763
 20
4.525203433655372
 30
0.0
 11
-13.14605902294764
 21
4.525203433655372
 31
0.0
  0
ARC
  5
690
330
2
100
AcDbEntity
  8
0
100
AcDbCircle
 10
-13.00116035171804
 20
4.610703433655376
 30
0.0
 40
0.0855
100
AcDbArc
 50
269.9998349343467
 51
90.00016506565328
  0
ARC
  5
691
330
2
100
AcDbEntity
  8
0
100
AcDbCircle
 10
-12.98079292160703
 20
4.610703433655376
 30
0.0
 40
0.0855
100
AcDbArc
 50
269.9998349343467
 51
90.00016506565328
  0
ARC
  5
692
330
2
100
AcDbEntity
  8
0
100
AcDbCircle
 10
-12.94205902294763
 20
4.610703433655376
 30
0.0
 40
0.0855
100
AcDbArc
 50
270.0
 51
90.0
  0
LINE
  5
693
330
2
100
AcDbEntity
  8
0
100
AcDbLine
 10
-12.94205902294763
 20
4.696203433655379
 30
0.0
 11
-13.12955902294763
 21
4.696203433655379
 31
0.0
  0
LINE
  5
694
330
2
100
AcDbEntity
  8
0
100
AcDbLine
 10
-12.94205902294763
 20
4.52520343365538
 30
0.0
 11
-13.12955902294763
 21
4.52520343365538
 31
0.0
  0
LINE
  5
695
330
2
100
AcDbEntity
  8
0
100
AcDbLine
 10
-12.47515229374923
 20
5.332511235843363
 30
0.0
 11
-12.23587559845259
 21
5.093234540546725
 31
0.0
  0
LINE
  5
696
330
2
100
AcDbEntity
  8
0
100
AcDbLine
 10
-12.19926394610091
 20
4.465316965906077
 30
0.0
 11
-12.19926394610091
 21
5.004846192898405
 31
0.0
  0
ARC
  5
697
330
2
100
AcDbEntity
  8
0
100
AcDbCircle
 10
-12.32426394610091
 20
5.004846192898405
 30
0.0
 40
0.125
100
AcDbArc
 50
0.000000000000007
 51
45.00000000000013
  0
ARC
  5
698
330
2
100
AcDbEntity
  8
0
100
AcDbCircle
 10
-12.38676394610091
 20
5.420899583491682
 30
0.0
 40
0.125
100
AcDbArc
 50
180.0
 51
225.0000000000004
  0
LINE
  5
699
330
2
100
AcDbEntity
  8
0
100
AcDbLine
 10
-13.14605902294764
 20
5.688390968878485
 30
0.0
 11
-13.14605902294764
 21
5.538764575817273
 31
0.0
  0
ARC
  5
69A
330
2
100
AcDbEntity
  8
0
100
AcDbCircle
 10
-12.94205902294763
 20
5.610703433655372
 30
0.0
 40
0.0855
100
AcDbArc
 50
270.0
 51
90.0
  0
LINE
  5
69B
330
2
100
AcDbEntity
  8
0
100
AcDbLine
 10
-12.94205902294763
 20
5.525203433655376
 30
0.0
 11
-13.12955902294763
 21
5.525203433655376
 31
0.0
  0
LINE
  5
69C
330
2
100
AcDbEntity
  8
0
100
AcDbLine
 10
-12.94205902294763
 20
5.696203433655375
 30
0.0
 11
-13.12955902294763
 21
5.696203433655375
 31
0.0
  0
ARC
  5
69D
330
2
100
AcDbEntity
  8
0
100
AcDbCircle
 10
-12.98079292160703
 20
5.610703433655372
 30
0.0
 40
0.0855
100
AcDbArc
 50
269.9998349343467
 51
90.00016506565328
  0
ARC
  5
69E
330
2
100
AcDbEntity
  8
0
100
AcDbCircle
 10
-13.00116035171804
 20
5.610703433655372
 30
0.0
 40
0.0855
100
AcDbArc
 50
269.9998349343467
 51
90.00016506565328
  0
LINE
  5
69F
330
2
100
AcDbEntity
  8
0
100
AcDbLine
 10
-12.94205902294763
 20
5.525203433655369
 30
0.0
 11
-13.14605902294764
 21
5.525203433655369
 31
0.0
  0
LINE
  5
6A0
330
2
100
AcDbEntity
  8
0
100
AcDbLine
 10
-12.94205902294763
 20
5.696203433655368
 30
0.0
 11
-13.14605902294764
 21
5.696203433655368
 31
0.0
  0
ARC
  5
6A1
330
2
100
AcDbEntity
  8
0
100
AcDbCircle
 10
-12.94205902294763
 20
5.610703433655372
 30
0.0
 40
0.0855
100
AcDbArc
 50
269.9998349343467
 51
90.00016506565328
  0
ARC
  5
6A2
330
2
100
AcDbEntity
  8
0
100
AcDbCircle
 10
-12.32426394610091
 20
9.004846192898405
 30
0.0
 40
0.125
100
AcDbArc
 50
0.000000000000007
 51
45.00000000000013
  0
LINE
  5
6A3
330
2
100
AcDbEntity
  8
0
100
AcDbLine
 10
-12.51176394610091
 20
7.942346192898413
 30
0.0
 11
-12.51176394610091
 21
7.420899583491682
 31
0.0
  0
LINE
  5
6A4
330
2
100
AcDbEntity
  8
0
100
AcDbLine
 10
-12.19926394610091
 20
6.358399422742068
 30
0.0
 11
-12.19926394610091
 21
7.004846192898405
 31
0.0
  0
ARC
  5
6A5
330
2
100
AcDbEntity
  8
0
100
AcDbCircle
 10
-12.38676394610091
 20
5.942346192898413
 30
0.0
 40
0.125
100
AcDbArc
 50
135.0000000000004
 51
180.0
  0
ARC
  5
6A6
330
2
100
AcDbEntity
  8
0
100
AcDbCircle
 10
-12.32426394610091
 20
6.358399583491689
 30
0.0
 40
0.125
100
AcDbArc
 50
314.9999999999999
 51
0.000000000000007
  0
LINE
  5
6A7
330
2
100
AcDbEntity
  8
0
100
AcDbLine
 10
-12.23587559845259
 20
6.27001123584337
 30
0.0
 11
-12.47515229374923
 21
6.030734540546732
 31
0.0
  0
ARC
  5
6A8
330
2
100
AcDbEntity
  8
0
100
AcDbCircle
 10
-12.94205902294763
 20
6.610703433655372
 30
0.0
 40
0.0855
100
AcDbArc
 50
269.9998349343467
 51
90.00016506565328
  0
LINE
  5
6A9
330
2
100
AcDbEntity
  8
0
100
AcDbLine
 10
-12.94205902294763
 20
6.696203433655368
 30
0.0
 11
-13.14605902294764
 21
6.696203433655368
 31
0.0
  0
LINE
  5
6AA
330
2
100
AcDbEntity
  8
0
100
AcDbLine
 10
-12.94205902294763
 20
6.525203433655369
 30
0.0
 11
-13.14605902294764
 21
6.525203433655369
 31
0.0
  0
ARC
  5
6AB
330
2
100
AcDbEntity
  8
0
100
AcDbCircle
 10
-13.00116035171804
 20
6.610703433655372
 30
0.0
 40
0.0855
100
AcDbArc
 50
269.9998349343467
 51
90.00016506565328
  0
ARC
  5
6AC
330
2
100
AcDbEntity
  8
0
100
AcDbCircle
 10
-12.98079292160703
 20
6.610703433655372
 30
0.0
 40
0.0855
100
AcDbArc
 50
269.9998349343467
 51
90.00016506565328
  0
LINE
  5
6AD
330
2
100
AcDbEntity
  8
0
100
AcDbLine
 10
-12.94205902294763
 20
6.696203433655375
 30
0.0
 11
-13.12955902294763
 21
6.696203433655375
 31
0.0
  0
LINE
  5
6AE
330
2
100
AcDbEntity
  8
0
100
AcDbLine
 10
-12.94205902294763
 20
6.525203433655376
 30
0.0
 11
-13.12955902294763
 21
6.525203433655376
 31
0.0
  0
ARC
  5
6AF
330
2
100
AcDbEntity
  8
0
100
AcDbCircle
 10
-12.94205902294763
 20
6.610703433655372
 30
0.0
 40
0.0855
100
AcDbArc
 50
270.0
 51
90.0
  0
LINE
  5
6B0
330
2
100
AcDbEntity
  8
0
100
AcDbLine
 10
-13.14605902294764
 20
6.688390968878485
 30
0.0
 11
-13.14605902294764
 21
6.538764575817273
 31
0.0
  0
LINE
  5
6B1
330
2
100
AcDbEntity
  8
0
100
AcDbLine
 10
-12.51176394610091
 20
7.420899583491682
 30
0.0
 11
-12.51176394610091
 21
7.424426007452958
 31
0.0
  0
ARC
  5
6B2
330
2
100
AcDbEntity
  8
0
100
AcDbCircle
 10
-12.38676394610091
 20
7.420899583491682
 30
0.0
 40
0.125
100
AcDbArc
 50
180.0
 51
225.0000000000004
  0
ARC
  5
6B3
330
2
100
AcDbEntity
  8
0
100
AcDbCircle
 10
-12.32426394610091
 20
7.004846192898405
 30
0.0
 40
0.125
100
AcDbArc
 50
0.000000000000007
 51
45.00000000000013
  0
LINE
  5
6B4
330
2
100
AcDbEntity
  8
0
100
AcDbLine
 10
-12.47515229374923
 20
7.332511235843363
 30
0.0
 11
-12.23587559845259
 21
7.093234540546725
 31
0.0
  0
LINE
  5
6B5
330
2
100
AcDbEntity
  8
0
100
AcDbLine
 10
-12.94205902294763
 20
7.525203433655369
 30
0.0
 11
-13.14605902294764
 21
7.525203433655369
 31
0.0
  0
ARC
  5
6B6
330
2
100
AcDbEntity
  8
0
100
AcDbCircle
 10
-13.00116035171804
 20
7.610703433655372
 30
0.0
 40
0.0855
100
AcDbArc
 50
269.9998349343467
 51
90.00016506565328
  0
ARC
  5
6B7
330
2
100
AcDbEntity
  8
0
100
AcDbCircle
 10
-12.98079292160703
 20
7.610703433655372
 30
0.0
 40
0.0855
100
AcDbArc
 50
269.9998349343467
 51
90.00016506565328
  0
LINE
  5
6B8
330
2
100
AcDbEntity
  8
0
100
AcDbLine
 10
-12.94205902294763
 20
7.696203433655375
 30
0.0
 11
-13.12955902294763
 21
7.696203433655375
 31
0.0
  0
LINE
  5
6B9
330
2
100
AcDbEntity
  8
0
100
AcDbLine
 10
-12.94205902294763
 20
7.525203433655376
 30
0.0
 11
-13.12955902294763
 21
7.525203433655376
 31
0.0
  0
ARC
  5
6BA
330
2
100
AcDbEntity
  8
0
100
AcDbCircle
 10
-12.94205902294763
 20
7.610703433655372
 30
0.0
 40
0.0855
100
AcDbArc
 50
270.0
 51
90.0
  0
LINE
  5
6BB
330
2
100
AcDbEntity
  8
0
100
AcDbLine
 10
-13.14605902294764
 20
7.688390968878485
 30
0.0
 11
-13.14605902294764
 21
7.538764575817273
 31
0.0
  0
LINE
  5
6BC
330
2
100
AcDbEntity
  8
0
100
AcDbLine
 10
-13.14605902294764
 20
8.688390968878485
 30
0.0
 11
-13.14605902294764
 21
8.538764575817273
 31
0.0
  0
ARC
  5
6BD
330
2
100
AcDbEntity
  8
0
100
AcDbCircle
 10
-12.94205902294763
 20
8.610703433655372
 30
0.0
 40
0.0855
100
AcDbArc
 50
270.0
 51
90.0
  0
ARC
  5
6BE
330
2
100
AcDbEntity
  8
0
100
AcDbCircle
 10
-12.98079292160703
 20
8.610703433655372
 30
0.0
 40
0.0855
100
AcDbArc
 50
269.9998349343467
 51
90.00016506565328
  0
ARC
  5
6BF
330
2
100
AcDbEntity
  8
0
100
AcDbCircle
 10
-13.00116035171804
 20
8.610703433655372
 30
0.0
 40
0.0855
100
AcDbArc
 50
269.9998349343467
 51
90.00016506565328
  0
ARC
  5
6C0
330
2
100
AcDbEntity
  8
0
100
AcDbCircle
 10
-12.32426394610091
 20
8.358399583491689
 30
0.0
 40
0.125
100
AcDbArc
 50
314.9999999999999
 51
0.000000000000007
  0
LINE
  5
6C1
330
2
100
AcDbEntity
  8
0
100
AcDbLine
 10
-12.23587559845259
 20
8.27001123584337
 30
0.0
 11
-12.47515229374923
 21
8.030734540546732
 31
0.0
  0
ARC
  5
6C2
330
2
100
AcDbEntity
  8
0
100
AcDbCircle
 10
-12.38676394610091
 20
7.942346192898413
 30
0.0
 40
0.125
100
AcDbArc
 50
135.0000000000004
 51
180.0
  0
LINE
  5
6C3
330
2
100
AcDbEntity
  8
0
100
AcDbLine
 10
-12.94205902294763
 20
8.525203433655376
 30
0.0
 11
-13.12955902294763
 21
8.525203433655376
 31
0.0
  0
LINE
  5
6C4
330
2
100
AcDbEntity
  8
0
100
AcDbLine
 10
-12.94205902294763
 20
8.525203433655369
 30
0.0
 11
-13.14605902294764
 21
8.525203433655369
 31
0.0
  0
LINE
  5
6C5
330
2
100
AcDbEntity
  8
0
100
AcDbLine
 10
-12.19926394610091
 20
8.358399422742068
 30
0.0
 11
-12.19926394610091
 21
9.004846192898405
 31
0.0
  0
LINE
  5
6C6
330
2
100
AcDbEntity
  8
0
100
AcDbLine
 10
-12.94205902294763
 20
8.696203433655375
 30
0.0
 11
-13.12955902294763
 21
8.696203433655375
 31
0.0
  0
LINE
  5
6C7
330
2
100
AcDbEntity
  8
0
100
AcDbLine
 10
-12.51176394610091
 20
9.424426007452958
 30
0.0
 11
-13.97330902294763
 21
9.424426007452958
 31
0.0
  0
LINE
  5
6C8
330
2
100
AcDbEntity
  8
0
100
AcDbLine
 10
-12.47515229374923
 20
9.332511235843363
 30
0.0
 11
-12.23587559845259
 21
9.093234540546725
 31
0.0
  0
ARC
  5
6C9
330
2
100
AcDbEntity
  8
0
100
AcDbCircle
 10
-12.38676394610091
 20
9.420899583491682
 30
0.0
 40
0.125
100
AcDbArc
 50
180.0
 51
225.0000000000004
  0
LINE
  5
6CA
330
2
100
AcDbEntity
  8
0
100
AcDbLine
 10
-12.51176394610091
 20
9.420899583491682
 30
0.0
 11
-12.51176394610091
 21
9.424426007452958
 31
0.0
  0
ENDSEC
  0
SECTION
  2
OBJECTS
  0
DICTIONARY
  5
9
330
0
100
AcDbDictionary
281
     1
  3
ACAD_COLOR
350
191
  3
ACAD_GROUP
350
23
  3
ACAD_LAYOUT
350
D
  3
ACAD_MATERIAL
350
190
  3
ACAD_MLINESTYLE
350
24
  3
ACAD_PLOTSETTINGS
350
25
  3
ACAD_PLOTSTYLENAME
350
8
  3
ACAD_TABLESTYLE
350
192
  3
ACDBHEADERROUNDTRIPXREC
350
6EA
  3
AcDbVariableDictionary
350
18C
  0
DICTIONARY
  5
3
330
2
100
AcDbDictionary
280
     1
281
     1
  3
ACAD_SORTENTS
360
199
  0
DICTIONARY
  5
191
102
{ACAD_REACTORS
330
9
102
}
330
9
100
AcDbDictionary
281
     1
  0
DICTIONARY
  5
23
102
{ACAD_REACTORS
330
9
102
}
330
9
100
AcDbDictionary
281
     1
  0
DICTIONARY
  5
D
102
{ACAD_REACTORS
330
9
102
}
330
9
100
AcDbDictionary
281
     1
  3
Layout1
350
13
  3
Model
350
C
  0
DICTIONARY
  5
190
102
{ACAD_REACTORS
330
9
102
}
330
9
100
AcDbDictionary
281
     1
  0
DICTIONARY
  5
24
102
{ACAD_REACTORS
330
9
102
}
330
9
100
AcDbDictionary
281
     1
  3
STANDARD
350
27
  0
DICTIONARY
  5
25
102
{ACAD_REACTORS
330
9
102
}
330
9
100
AcDbDictionary
281
     1
  0
ACDBDICTIONARYWDFLT
  5
8
102
{ACAD_REACTORS
330
9
102
}
330
9
100
AcDbDictionary
281
     1
  3
Normal
350
7
100
AcDbDictionaryWithDefault
340
7
  0
DICTIONARY
  5
192
102
{ACAD_REACTORS
330
9
102
}
330
9
100
AcDbDictionary
281
     1
  3
Standard
350
193
  0
DICTIONARY
  5
6EA
102
{ACAD_REACTORS
330
9
102
}
330
9
100
AcDbDictionary
281
     1
  3
COLORDICT
350
6EB
  3
MATERIALDICT
350
6EC
  0
DICTIONARY
  5
18C
102
{ACAD_REACTORS
330
9
102
}
330
9
100
AcDbDictionary
281
     1
  3
CTABLESTYLE
350
2E7
  3
HIDETEXT
350
6E9
  0
SORTENTSTABLE
  5
199
102
{ACAD_REACTORS
330
3
102
}
330
3
100
AcDbSortentsTable
330
2
  0
LAYOUT
  5
13
102
{ACAD_REACTORS
330
D
102
}
102
{ACAD_XDICTIONARY
360
6ED
102
}
330
D
100
AcDbPlotSettings
  1

  2
HP LaserJet 2100 Series PS
  4

  6

 40
0.0
 41
0.0
 42
0.0
 43
0.0
 44
0.0
 45
0.0
 46
0.0
 47
0.0
 48
0.0
 49
0.0
140
0.0
141
0.0
142
1.0
143
1.0
 70
   688
 72
     0
 73
     0
 74
     5
  7

 75
    16
147
1.0
148
0.0
149
0.0
100
AcDbLayout
  1
Layout1
 70
     0
 71
     1
 10
0.0
 20
0.0
 11
12.0
 21
9.0
 12
0.0
 22
0.0
 32
0.0
 14
1.000000000000000E+20
 24
1.000000000000000E+20
 34
1.000000000000000E+20
 15
-1.000000000000000E+20
 25
-1.000000000000000E+20
 35
-1.000000000000000E+20
146
0.0
 13
0.0
 23
0.0
 33
0.0
 16
1.0
 26
0.0
 36
0.0
 17
0.0
 27
1.0
 37
0.0
 76
     0
330
E
  0
LAYOUT
  5
C
102
{ACAD_REACTORS
330
D
102
}
102
{ACAD_XDICTIONARY
360
6EF
102
}
330
D
100
AcDbPlotSettings
  1

  2
HP LaserJet 2100 Series PS
  4
Letter
  6

 40
5.365749835968018
 41
5.408084392547607
 42
5.4080810546875
 43
5.365753173828125
 44
215.8999938964844
 45
279.3999938964844
 46
0.0
 47
0.0
 48
0.0
 49
0.0
140
0.0
141
0.0
142
1.0
143
3.971318409846261
 70
 11952
 72
     0
 73
     1
 74
     2
  7

 75
     0
147
0.2518055458662435
148
0.0
149
0.0
100
AcDbLayout
  1
Model
 70
     1
 71
     0
 10
0.0
 20
0.0
 11
12.0
 21
9.0
 12
0.0
 22
0.0
 32
0.0
 14
0.0
 24
0.0
 34
0.0
 15
0.0
 25
0.0
 35
0.0
146
0.0
 13
0.0
 23
0.0
 33
0.0
 16
1.0
 26
0.0
 36
0.0
 17
0.0
 27
1.0
 37
0.0
 76
     0
330
2
  0
MLINESTYLE
  5
27
102
{ACAD_REACTORS
330
24
102
}
330
24
100
AcDbMlineStyle
  2
STANDARD
 70
     0
  3

 62
   256
 51
90.0
 52
90.0
 71
     2
 49
0.5
 62
   256
  6
BYLAYER
 49
-0.5
 62
   256
  6
BYLAYER
  0
ACDBPLACEHOLDER
  5
7
102
{ACAD_REACTORS
330
8
102
}
330
8
  0
ACAD_PROXY_OBJECT
  5
193
102
{ACAD_REACTORS
330
192
102
}
330
192
100
AcDbProxyObject
 90
      499
 91
      557
 95
   983063
 70
     0
 93
     1841
310
4214DD185B99185C9928B81E85EB51B8AE3F2E07A17AD46E2B8FC02B5E8DC0F42B1CFD028000000C1008070000C3001FDFF8000000C1003FBFF000000182007F7FE00000030400FEFFC00000060801FDFF8000000C1003FBFF00000018200000000000000681FA0B0000001820100E000186003FBFF000000182007F7FE000
310
00030400FEFFC00000060801FDFF8000000C1003FBFF000000182007F7FE000000304000AD7A3703D0AC73F4160000003040201C00030C007F7FE00000030400FEFFC00000060801FDFF8000000C1003FBFF000000182007F7FE00000030400FEFFC000000608000
340
16
340
16
340
16
 94
        0
  0
XRECORD
  5
6EB
102
{ACAD_REACTORS
330
6EA
102
}
330
6EA
100
AcDbXrecord
340
191
  0
XRECORD
  5
6EC
102
{ACAD_REACTORS
330
6EA
102
}
330
6EA
100
AcDbXrecord
340
190
  0
DICTIONARYVAR
  5
2E7
102
{ACAD_REACTORS
330
18C
102
}
330
18C
100
DictionaryVariables
280
     0
  1
STANDARD
  0
DICTIONARYVAR
  5
6E9
102
{ACAD_REACTORS
330
18C
102
}
330
18C
100
DictionaryVariables
280
     0
  1
0
  0
DICTIONARY
  5
6ED
330
13
100
AcDbDictionary
280
     1
281
     1
  3
ACAD_XREC_ROUNDTRIP
360
6EE
  0
DICTIONARY
  5
6EF
330
C
100
AcDbDictionary
280
     1
281
     1
  3
ACAD_XREC_ROUNDTRIP
360
6F0
  0
XRECORD
  5
6EE
102
{ACAD_REACTORS
330
6ED
102
}
330
6ED
100
AcDbXrecord
102
SHADEPLOT
 70
     0
102
SHADEPLOTRESLEVEL
 70
     2
102
SHADEPLOTCUSTOMDPI
 70
   300
  0
XRECORD
  5
6F0
102
{ACAD_REACTORS
330
6EF
102
}
330
6EF
100
AcDbXrecord
102
SHADEPLOT
 70
     0
102
SHADEPLOTRESLEVEL
 70
     2
102
SHADEPLOTCUSTOMDPI
 70
   300
  0
ENDSEC
  0
EOF
