  0
SECTION
  2
HEADER
  9
$ACADVER
  1
AC1015
  9
$ACADMAINTVER
 70
     6
  9
$DWGCODEPAGE
  3
ANSI_1252
  9
$INSBASE
 10
0.0
 20
0.0
 30
0.0
  9
$EXTMIN
 10
-14.51721980071001
 20
-0.0395499018874261
 30
-0.0000000000112498
  9
$EXTMAX
 10
14.51837470970692
 20
22.49173448828333
 30
0.0000000000002956
  9
$LIMMIN
 10
0.0
 20
0.0
  9
$LIMMAX
 10
42.0
 20
32.0
  9
$ORTHOMODE
 70
     1
  9
$REGENMODE
 70
     1
  9
$FILLMODE
 70
     1
  9
$QTEXTMODE
 70
     0
  9
$MIRRTEXT
 70
     1
  9
$LTSCALE
 40
0.5
  9
$ATTMODE
 70
     1
  9
$TEXTSIZE
 40
0.36
  9
$TRACEWID
 40
0.05
  9
$TEXTSTYLE
  7
STANDARD
  9
$CLAYER
  8
0
  9
$CELTYPE
  6
BYLAYER
  9
$CECOLOR
 62
   256
  9
$CELTSCALE
 40
1.0
  9
$DISPSILH
 70
     0
  9
$DIMSCALE
 40
4.0
  9
$DIMASZ
 40
0.125
  9
$DIMEXO
 40
0.062
  9
$DIMDLI
 40
0.375
  9
$DIMRND
 40
0.0
  9
$DIMDLE
 40
0.0
  9
$DIMEXE
 40
0.08
  9
$DIMTP
 40
0.0
  9
$DIMTM
 40
0.0
  9
$DIMTXT
 40
0.09
  9
$DIMCEN
 40
-0.06
  9
$DIMTSZ
 40
0.0
  9
$DIMTOL
 70
     0
  9
$DIMLIM
 70
     0
  9
$DIMTIH
 70
     1
  9
$DIMTOH
 70
     1
  9
$DIMSE1
 70
     0
  9
$DIMSE2
 70
     0
  9
$DIMTAD
 70
     0
  9
$DIMZIN
 70
     0
  9
$DIMBLK
  1

  9
$DIMASO
 70
     0
  9
$DIMSHO
 70
     0
  9
$DIMPOST
  1

  9
$DIMAPOST
  1

  9
$DIMALT
 70
     0
  9
$DIMALTD
 70
     2
  9
$DIMALTF
 40
25.4
  9
$DIMLFAC
 40
1.0
  9
$DIMTOFL
 70
     0
  9
$DIMTVP
 40
0.0
  9
$DIMTIX
 70
     0
  9
$DIMSOXD
 70
     0
  9
$DIMSAH
 70
     0
  9
$DIMBLK1
  1

  9
$DIMBLK2
  1

  9
$DIMSTYLE
  2
STANDARD
  9
$DIMCLRD
 70
     0
  9
$DIMCLRE
 70
     0
  9
$DIMCLRT
 70
     0
  9
$DIMTFAC
 40
1.0
  9
$DIMGAP
 40
0.09
  9
$DIMJUST
 70
     0
  9
$DIMSD1
 70
     0
  9
$DIMSD2
 70
     0
  9
$DIMTOLJ
 70
     1
  9
$DIMTZIN
 70
     0
  9
$DIMALTZ
 70
     0
  9
$DIMALTTZ
 70
     0
  9
$DIMUPT
 70
     0
  9
$DIMDEC
 70
     4
  9
$DIMTDEC
 70
     4
  9
$DIMALTU
 70
     2
  9
$DIMALTTD
 70
     2
  9
$DIMTXSTY
  7
STANDARD
  9
$DIMAUNIT
 70
     0
  9
$DIMADEC
 70
     0
  9
$DIMALTRND
 40
0.0
  9
$DIMAZIN
 70
     0
  9
$DIMDSEP
 70
    46
  9
$DIMATFIT
 70
     3
  9
$DIMFRAC
 70
     2
  9
$DIMLDRBLK
  1

  9
$DIMLUNIT
 70
     5
  9
$DIMLWD
 70
    -2
  9
$DIMLWE
 70
    -2
  9
$DIMTMOVE
 70
     2
  9
$LUNITS
 70
     2
  9
$LUPREC
 70
     4
  9
$SKETCHINC
 40
0.1
  9
$FILLETRAD
 40
0.0
  9
$AUNITS
 70
     0
  9
$AUPREC
 70
     0
  9
$MENU
  1
SIMPSON
  9
$ELEVATION
 40
0.0
  9
$PELEVATION
 40
0.0
  9
$THICKNESS
 40
0.0
  9
$LIMCHECK
 70
     0
  9
$CHAMFERA
 40
0.0
  9
$CHAMFERB
 40
0.0
  9
$CHAMFERC
 40
0.0
  9
$CHAMFERD
 40
0.0
  9
$SKPOLY
 70
     0
  9
$TDCREATE
 40
2448785.79968206
  9
$TDUCREATE
 40
2448786.133015394
  9
$TDUPDATE
 40
2454165.971677558
  9
$TDUUPDATE
 40
2454166.305010891
  9
$TDINDWG
 40
0.1375932292
  9
$TDUSRTIMER
 40
0.1375932292
  9
$USRTIMER
 70
     1
  9
$ANGBASE
 50
0.0
  9
$ANGDIR
 70
     0
  9
$PDMODE
 70
     0
  9
$PDSIZE
 40
0.0
  9
$PLINEWID
 40
0.0
  9
$SPLFRAME
 70
     0
  9
$SPLINETYPE
 70
     6
  9
$SPLINESEGS
 70
     8
  9
$HANDSEED
  5
6D6
  9
$SURFTAB1
 70
     6
  9
$SURFTAB2
 70
     6
  9
$SURFTYPE
 70
     6
  9
$SURFU
 70
     6
  9
$SURFV
 70
     6
  9
$UCSBASE
  2

  9
$UCSNAME
  2

  9
$UCSORG
 10
0.0
 20
0.0
 30
0.0
  9
$UCSXDIR
 10
1.0
 20
0.0
 30
0.0
  9
$UCSYDIR
 10
0.0
 20
1.0
 30
0.0
  9
$UCSORTHOREF
  2

  9
$UCSORTHOVIEW
 70
     0
  9
$UCSORGTOP
 10
0.0
 20
0.0
 30
0.0
  9
$UCSORGBOTTOM
 10
0.0
 20
0.0
 30
0.0
  9
$UCSORGLEFT
 10
0.0
 20
0.0
 30
0.0
  9
$UCSORGRIGHT
 10
0.0
 20
0.0
 30
0.0
  9
$UCSORGFRONT
 10
0.0
 20
0.0
 30
0.0
  9
$UCSORGBACK
 10
0.0
 20
0.0
 30
0.0
  9
$PUCSBASE
  2

  9
$PUCSNAME
  2

  9
$PUCSORG
 10
0.0
 20
0.0
 30
0.0
  9
$PUCSXDIR
 10
1.0
 20
0.0
 30
0.0
  9
$PUCSYDIR
 10
0.0
 20
1.0
 30
0.0
  9
$PUCSORTHOREF
  2

  9
$PUCSORTHOVIEW
 70
     0
  9
$PUCSORGTOP
 10
0.0
 20
0.0
 30
0.0
  9
$PUCSORGBOTTOM
 10
0.0
 20
0.0
 30
0.0
  9
$PUCSORGLEFT
 10
0.0
 20
0.0
 30
0.0
  9
$PUCSORGRIGHT
 10
0.0
 20
0.0
 30
0.0
  9
$PUCSORGFRONT
 10
0.0
 20
0.0
 30
0.0
  9
$PUCSORGBACK
 10
0.0
 20
0.0
 30
0.0
  9
$USERI1
 70
     0
  9
$USERI2
 70
     0
  9
$USERI3
 70
     0
  9
$USERI4
 70
     0
  9
$USERI5
 70
     0
  9
$USERR1
 40
0.0
  9
$USERR2
 40
0.0
  9
$USERR3
 40
0.0
  9
$USERR4
 40
0.0
  9
$USERR5
 40
0.0
  9
$WORLDVIEW
 70
     1
  9
$SHADEDGE
 70
     3
  9
$SHADEDIF
 70
    70
  9
$TILEMODE
 70
     1
  9
$MAXACTVP
 70
    16
  9
$PINSBASE
 10
0.0
 20
0.0
 30
0.0
  9
$PLIMCHECK
 70
     0
  9
$PEXTMIN
 10
1.000000000000000E+20
 20
1.000000000000000E+20
 30
1.000000000000000E+20
  9
$PEXTMAX
 10
-1.000000000000000E+20
 20
-1.000000000000000E+20
 30
-1.000000000000000E+20
  9
$PLIMMIN
 10
0.0
 20
0.0
  9
$PLIMMAX
 10
12.0
 20
9.0
  9
$UNITMODE
 70
     0
  9
$VISRETAIN
 70
     0
  9
$PLINEGEN
 70
     0
  9
$PSLTSCALE
 70
     0
  9
$TREEDEPTH
 70
  3020
  9
$CMLSTYLE
  2
STANDARD
  9
$CMLJUST
 70
     0
  9
$CMLSCALE
 40
1.0
  9
$PROXYGRAPHICS
 70
     1
  9
$MEASUREMENT
 70
     0
  9
$CELWEIGHT
370
    -1
  9
$ENDCAPS
280
     0
  9
$JOINSTYLE
280
     0
  9
$LWDISPLAY
290
     0
  9
$INSUNITS
 70
     0
  9
$HYPERLINKBASE
  1

  9
$STYLESHEET
  1

  9
$XEDIT
290
     1
  9
$CEPSNTYPE
380
     0
  9
$PSTYLEMODE
290
     1
  9
$FINGERPRINTGUID
  2
{1DCC1D27-8D6F-11D5-BE3F-00508B5FCD51}
  9
$VERSIONGUID
  2
{E04BB4C4-8C11-49B9-BBD9-CF3E4EE24F42}
  9
$EXTNAMES
290
     1
  9
$PSVPSCALE
 40
0.0
  9
$OLESTARTUP
290
     0
  0
ENDSEC
  0
SECTION
  2
CLASSES
  0
CLASS
  1
DICTIONARYVAR
  2
AcDbDictionaryVar
  3
AutoCAD 2000
 90
        0
280
     0
281
     0
  0
CLASS
  1
LWPOLYLINE
  2
AcDbPolyline
  3
AutoCAD 2000
 90
        0
280
     0
281
     1
  0
CLASS
  1
ACDBDICTIONARYWDFLT
  2
AcDbDictionaryWithDefault
  3
AutoCAD 2000
 90
        0
280
     0
281
     0
  0
CLASS
  1
ACDBPLACEHOLDER
  2
AcDbPlaceHolder
  3
ObjectDBX Classes
 90
        0
280
     0
281
     0
  0
CLASS
  1
LAYOUT
  2
AcDbLayout
  3
ObjectDBX Classes
 90
        0
280
     0
281
     0
  0
CLASS
  1
LONG_TRANSACTION
  2
AcDbLongTransaction
  3
ObjectDBX Classes
 90
   -65536
280
     1
281
     0
  0
CLASS
  1
LWPOLYLINE
  2
AcDbPolyline
  3
AutoCAD 2000
 90
        0
280
     0
281
     1
  0
CLASS
  1
HATCH
  2
AcDbHatch
  3
AutoCAD 2000
 90
        0
280
     0
281
     1
  0
CLASS
  1
XRECORD
  2
AcDbXrecord
  3
AutoCAD 2000
 90
        0
280
     0
281
     0
  0
CLASS
  1
LONG_TRANSACTION
  2
AcDbLongTransaction
  3
ObjectDBX Classes
 90
   -65536
280
     1
281
     0
  0
CLASS
  1
LWPOLYLINE
  2
AcDbPolyline
  3
AutoCAD 2000
 90
        0
280
     0
281
     1
  0
CLASS
  1
HATCH
  2
AcDbHatch
  3
AutoCAD 2000
 90
        0
280
     0
281
     1
  0
CLASS
  1
XRECORD
  2
AcDbXrecord
  3
AutoCAD 2000
 90
        0
280
     0
281
     0
  0
CLASS
  1
LONG_TRANSACTION
  2
AcDbLongTransaction
  3
ObjectDBX Classes
 90
   -65536
280
     1
281
     0
  0
CLASS
  1
LWPOLYLINE
  2
AcDbPolyline
  3
AutoCAD 2000
 90
        0
280
     0
281
     1
  0
CLASS
  1
HATCH
  2
AcDbHatch
  3
AutoCAD 2000
 90
        0
280
     0
281
     1
  0
CLASS
  1
XRECORD
  2
AcDbXrecord
  3
AutoCAD 2000
 90
        0
280
     0
281
     0
  0
CLASS
  1
LONG_TRANSACTION
  2
AcDbLongTransaction
  3
ObjectDBX Classes
 90
   -65536
280
     1
281
     0
  0
CLASS
  1
LWPOLYLINE
  2
AcDbPolyline
  3
AutoCAD 2000
 90
        0
280
     0
281
     1
  0
CLASS
  1
HATCH
  2
AcDbHatch
  3
AutoCAD 2000
 90
        0
280
     0
281
     1
  0
CLASS
  1
XRECORD
  2
AcDbXrecord
  3
AutoCAD 2000
 90
        0
280
     0
281
     0
  0
CLASS
  1
LONG_TRANSACTION
  2
AcDbLongTransaction
  3
ObjectDBX Classes
 90
   -65536
280
     1
281
     0
  0
CLASS
  1
LWPOLYLINE
  2
AcDbPolyline
  3
AutoCAD 2000
 90
        0
280
     0
281
     1
  0
CLASS
  1
HATCH
  2
AcDbHatch
  3
AutoCAD 2000
 90
        0
280
     0
281
     1
  0
CLASS
  1
XRECORD
  2
AcDbXrecord
  3
AutoCAD 2000
 90
        0
280
     0
281
     0
  0
CLASS
  1
LONG_TRANSACTION
  2
AcDbLongTransaction
  3
ObjectDBX Classes
 90
   -65536
280
     1
281
     0
  0
CLASS
  1
LWPOLYLINE
  2
AcDbPolyline
  3
AutoCAD 2000
 90
        0
280
     0
281
     1
  0
CLASS
  1
HATCH
  2
AcDbHatch
  3
AutoCAD 2000
 90
        0
280
     0
281
     1
  0
CLASS
  1
XRECORD
  2
AcDbXrecord
  3
AutoCAD 2000
 90
        0
280
     0
281
     0
  0
CLASS
  1
LONG_TRANSACTION
  2
AcDbLongTransaction
  3
ObjectDBX Classes
 90
   -65536
280
     1
281
     0
  0
CLASS
  1
LWPOLYLINE
  2
AcDbPolyline
  3
AutoCAD 2000
 90
        0
280
     0
281
     1
  0
CLASS
  1
HATCH
  2
AcDbHatch
  3
AutoCAD 2000
 90
        0
280
     0
281
     1
  0
CLASS
  1
XRECORD
  2
AcDbXrecord
  3
AutoCAD 2000
 90
        0
280
     0
281
     0
  0
CLASS
  1
LONG_TRANSACTION
  2
AcDbLongTransaction
  3
ObjectDBX Classes
 90
   -65536
280
     1
281
     0
  0
CLASS
  1
LWPOLYLINE
  2
AcDbPolyline
  3
AutoCAD 2000
 90
        0
280
     0
281
     1
  0
CLASS
  1
HATCH
  2
AcDbHatch
  3
AutoCAD 2000
 90
        0
280
     0
281
     1
  0
CLASS
  1
XRECORD
  2
AcDbXrecord
  3
AutoCAD 2000
 90
        0
280
     0
281
     0
  0
CLASS
  1
LONG_TRANSACTION
  2
AcDbLongTransaction
  3
ObjectDBX Classes
 90
   -65536
280
     1
281
     0
  0
CLASS
  1
LWPOLYLINE
  2
AcDbPolyline
  3
AutoCAD 2000
 90
        0
280
     0
281
     1
  0
CLASS
  1
HATCH
  2
AcDbHatch
  3
AutoCAD 2000
 90
        0
280
     0
281
     1
  0
CLASS
  1
XRECORD
  2
AcDbXrecord
  3
AutoCAD 2000
 90
        0
280
     0
281
     0
  0
CLASS
  1
TABLESTYLE
  2
AcDbTableStyle
  3
ObjectDBX Classes
 90
     2047
280
     1
281
     0
  0
CLASS
  1
SORTENTSTABLE
  2
AcDbSortentsTable
  3
AutoCAD 2000
 90
        0
280
     0
281
     0
  0
ENDSEC
  0
SECTION
  2
TABLES
  0
TABLE
  2
VPORT
  5
1D
330
0
100
AcDbSymbolTable
 70
     3
  0
VPORT
  5
6C8
330
1D
100
AcDbSymbolTableRecord
100
AcDbViewportTableRecord
  2
*Active
 70
     0
 10
0.0
 20
0.0
 11
1.0
 21
1.0
 12
10.83537740544768
 22
14.42584617320888
 13
0.0
 23
0.0
 14
0.063
 24
0.063
 15
0.25
 25
0.25
 16
0.0
 26
0.0
 36
1.0
 17
0.0
 27
0.0
 37
0.0
 40
32.43921170361752
 41
1.814583333333333
 42
50.0
 43
0.0
 44
0.0
 50
0.0
 51
0.0
 71
     0
 72
   100
 73
     1
 74
     1
 75
     0
 76
     0
 77
     0
 78
     0
281
     0
 65
     1
110
0.0
120
0.0
130
0.0
111
1.0
121
0.0
131
0.0
112
0.0
122
1.0
132
0.0
 79
     0
146
0.0
  0
ENDTAB
  0
TABLE
  2
LTYPE
  5
18
330
0
100
AcDbSymbolTable
 70
     3
  0
LTYPE
  5
19
330
18
100
AcDbSymbolTableRecord
100
AcDbLinetypeTableRecord
  2
BYBLOCK
 70
     0
  3

 72
    65
 73
     0
 40
0.0
  0
LTYPE
  5
1A
330
18
100
AcDbSymbolTableRecord
100
AcDbLinetypeTableRecord
  2
BYLAYER
 70
     0
  3

 72
    65
 73
     0
 40
0.0
  0
LTYPE
  5
A
330
18
100
AcDbSymbolTableRecord
100
AcDbLinetypeTableRecord
  2
CONTINUOUS
 70
     0
  3
Solid line
 72
    65
 73
     0
 40
0.0
  0
LTYPE
  5
190
330
18
100
AcDbSymbolTableRecord
100
AcDbLinetypeTableRecord
  2
DASHED
 70
     0
  3
__ __ __ __ __ __ __ __ __ __ __ __ __ __ __
 72
    65
 73
     2
 40
0.75
 49
0.5
 74
     0
 49
-0.25
 74
     0
  0
ENDTAB
  0
TABLE
  2
LAYER
  5
14
330
0
100
AcDbSymbolTable
 70
     6
  0
LAYER
  5
6
330
14
100
AcDbSymbolTableRecord
100
AcDbLayerTableRecord
  2
0
 70
     0
 62
     7
  6
CONTINUOUS
370
    -3
390
7
  0
ENDTAB
  0
TABLE
  2
STYLE
  5
15
330
0
100
AcDbSymbolTable
 70
     1
  0
STYLE
  5
16
330
15
100
AcDbSymbolTableRecord
100
AcDbTextStyleTableRecord
  2
STANDARD
 70
     0
 40
0.0
 41
1.0
 50
0.0
 71
     0
 42
0.36
  3
TXT
  4

  0
ENDTAB
  0
TABLE
  2
VIEW
  5
1B
330
0
100
AcDbSymbolTable
 70
     0
  0
ENDTAB
  0
TABLE
  2
UCS
  5
1C
330
0
100
AcDbSymbolTable
 70
     0
  0
ENDTAB
  0
TABLE
  2
APPID
  5
1F
330
0
100
AcDbSymbolTable
 70
     1
  0
APPID
  5
20
330
1F
100
AcDbSymbolTableRecord
100
AcDbRegAppTableRecord
  2
ACAD
 70
     0
  0
ENDTAB
  0
TABLE
  2
DIMSTYLE
  5
21
330
0
100
AcDbSymbolTable
 70
     1
100
AcDbDimStyleTable
  0
DIMSTYLE
105
28
330
21
100
AcDbSymbolTableRecord
100
AcDbDimStyleTableRecord
  2
STANDARD
 70
     0
  3

  4

340
16
  0
ENDTAB
  0
TABLE
  2
BLOCK_RECORD
  5
1
330
0
100
AcDbSymbolTable
 70
     2
  0
BLOCK_RECORD
  5
2
102
{ACAD_XDICTIONARY
360
3
102
}
330
1
100
AcDbSymbolTableRecord
100
AcDbBlockTableRecord
  2
*MODEL_SPACE
340
C
  0
BLOCK_RECORD
  5
E
330
1
100
AcDbSymbolTableRecord
100
AcDbBlockTableRecord
  2
*PAPER_SPACE
340
13
  0
ENDTAB
  0
ENDSEC
  0
SECTION
  2
BLOCKS
  0
BLOCK
  5
5
330
2
100
AcDbEntity
  8
0
100
AcDbBlockBegin
  2
*MODEL_SPACE
 70
     0
 10
0.0
 20
0.0
 30
0.0
  3
*MODEL_SPACE
  1

  4

  0
ENDBLK
  5
B
330
2
100
AcDbEntity
  8
0
100
AcDbBlockEnd
  0
BLOCK
  5
11
330
E
100
AcDbEntity
 67
     1
  8
0
100
AcDbBlockBegin
  2
*PAPER_SPACE
 70
     0
 10
0.0
 20
0.0
 30
0.0
  3
*PAPER_SPACE
  1

  4

  0
ENDBLK
  5
12
330
E
100
AcDbEntity
 67
     1
  8
0
100
AcDbBlockEnd
  0
ENDSEC
  0
SECTION
  2
ENTITIES
  0
LINE
  5
1FD
330
2
100
AcDbEntity
  8
0
100
AcDbLine
 10
13.05324001405921
 20
5.674170185445451
 30
0.0
 11
13.05324001405921
 21
5.027723576038728
 31
0.0
  0
LINE
  5
1FE
330
2
100
AcDbEntity
  8
0
  6
Continuous
100
AcDbLine
 10
14.42103509090592
 20
0.3325529292419986
 30
0.0
 11
14.42103509090592
 21
6.593750000000004
 31
0.0
  0
LINE
  5
1FF
330
2
100
AcDbEntity
  8
0
  6
Continuous
100
AcDbLine
 10
14.51478509090592
 20
0.4066565610497506
 30
0.0
 11
14.51478509090591
 21
12.59375
 31
0.0
  0
ARC
  5
200
330
2
100
AcDbEntity
  8
0
100
AcDbCircle
 10
14.931514773626
 20
-0.2169108944352409
 30
0.0
 40
0.75
100
AcDbArc
 50
123.7547785580847
 51
163.1890633163619
  0
ARC
  5
201
330
2
100
AcDbEntity
  8
0
100
AcDbCircle
 10
10.99074001405931
 20
-0.0847132910377439
 30
0.0
 40
0.7500000000000752
100
AcDbArc
 50
135.0000000000016
 51
173.5145409117416
  0
LINE
  5
202
330
2
100
AcDbEntity
  8
0
  6
Continuous
100
AcDbLine
 10
14.21356654159579
 20
0.0
 30
0.0
 11
10.2455395991898
 21
0.0
 31
0.0
  0
LINE
  5
203
330
2
100
AcDbEntity
  8
0
  6
DASHED
100
AcDbLine
 10
14.24888031165627
 20
0.09375
 30
0.0
 11
10.26228215408928
 21
0.09375
 31
0.0
  0
ARC
  5
205
330
2
100
AcDbEntity
  8
0
100
AcDbCircle
 10
9.490740014059206
 20
4.072140958454661
 30
0.0
 40
3.25
100
AcDbArc
 50
314.9999999999994
 51
0.0
  0
LINE
  5
206
330
2
100
AcDbEntity
  8
0
100
AcDbLine
 10
11.78883705291549
 20
1.774043919598334
 30
0.0
 11
10.46040992816932
 21
0.4456167948521781
 31
0.0
  0
LINE
  5
20E
330
2
100
AcDbEntity
  8
0
100
AcDbLine
 10
12.74074001405921
 20
4.072140958454661
 30
0.0
 11
12.74074001405921
 21
4.611670185445455
 31
0.0
  0
LINE
  5
217
330
2
100
AcDbEntity
  8
0
100
AcDbLine
 10
13.01662836170753
 20
4.939335228390409
 30
0.0
 11
12.77735166641089
 21
4.70005853309377
 31
0.0
  0
ARC
  5
218
330
2
100
AcDbEntity
  8
0
100
AcDbCircle
 10
12.86574001405921
 20
4.611670185445451
 30
0.0
 40
0.125
100
AcDbArc
 50
134.9999999999999
 51
180.0
  0
ARC
  5
219
330
2
100
AcDbEntity
  8
0
100
AcDbCircle
 10
12.92824001405921
 20
5.027723576038728
 30
0.0
 40
0.125
100
AcDbArc
 50
314.9999999999998
 51
0.0
  0
LINE
  5
21B
330
2
100
AcDbEntity
  8
0
100
AcDbLine
 10
12.74074001405921
 20
10.09022357603873
 30
0.0
 11
12.74074001405921
 21
10.59375
 31
0.0
  0
LINE
  5
21C
330
2
100
AcDbEntity
  8
0
100
AcDbLine
 10
12.74074001405921
 20
10.59375
 30
0.0
 11
12.74074001405921
 21
10.09022331999445
 31
0.0
  0
LINE
  5
21D
330
2
100
AcDbEntity
  8
0
100
AcDbLine
 10
14.42103509090592
 20
12.59375
 30
0.0
 11
14.42103509090592
 21
6.293749999999999
 31
0.0
  0
LINE
  5
21F
330
2
100
AcDbEntity
  8
0
100
AcDbLine
 10
12.77735166641089
 20
8.001835228390409
 30
0.0
 11
13.01662836170753
 21
7.76255853309377
 31
0.0
  0
ARC
  5
220
330
2
100
AcDbEntity
  8
0
100
AcDbCircle
 10
12.86574001405921
 20
6.611670185445451
 30
0.0
 40
0.125
100
AcDbArc
 50
134.9999999999999
 51
180.0
  0
ARC
  5
223
330
2
100
AcDbEntity
  8
0
100
AcDbCircle
 10
12.86574001405921
 20
6.090223576038728
 30
0.0
 40
0.125
100
AcDbArc
 50
180.0
 51
225.0000000000001
  0
LINE
  5
224
330
2
100
AcDbEntity
  8
0
100
AcDbLine
 10
12.77735166641089
 20
6.001835228390409
 30
0.0
 11
13.01662836170753
 21
5.76255853309377
 31
0.0
  0
ARC
  5
225
330
2
100
AcDbEntity
  8
0
100
AcDbCircle
 10
12.92824001405921
 20
5.674170185445451
 30
0.0
 40
0.125
100
AcDbArc
 50
0.0
 51
45.0000000000001
  0
LINE
  5
229
330
2
100
AcDbEntity
  8
0
100
AcDbLine
 10
12.74074001405921
 20
6.593750000000004
 30
0.0
 11
12.74074001405921
 21
6.090223319994454
 31
0.0
  0
LINE
  5
22A
330
2
100
AcDbEntity
  8
0
100
AcDbLine
 10
12.74074001405921
 20
6.090223576038728
 30
0.0
 11
12.74074001405921
 21
6.593750000000004
 31
0.0
  0
LINE
  5
22E
330
2
100
AcDbEntity
  8
0
100
AcDbLine
 10
13.05324001405921
 20
7.674170185445451
 30
0.0
 11
13.05324001405921
 21
7.027723576038728
 31
0.0
  0
ARC
  5
22F
330
2
100
AcDbEntity
  8
0
100
AcDbCircle
 10
12.92824001405921
 20
7.027723576038728
 30
0.0
 40
0.125
100
AcDbArc
 50
314.9999999999998
 51
0.0
  0
LINE
  5
230
330
2
100
AcDbEntity
  8
0
100
AcDbLine
 10
13.01662836170753
 20
6.939335228390409
 30
0.0
 11
12.77735166641089
 21
6.70005853309377
 31
0.0
  0
ARC
  5
234
330
2
100
AcDbEntity
  8
0
100
AcDbCircle
 10
12.92824001405921
 20
7.674170185445451
 30
0.0
 40
0.125
100
AcDbArc
 50
0.0
 51
45.0000000000001
  0
LINE
  5
235
330
2
100
AcDbEntity
  8
0
100
AcDbLine
 10
13.05324001405921
 20
9.674170185445451
 30
0.0
 11
13.05324001405921
 21
9.027723576038728
 31
0.0
  0
LINE
  5
239
330
2
100
AcDbEntity
  8
0
100
AcDbLine
 10
12.74074001405921
 20
8.090223576038728
 30
0.0
 11
12.74074001405921
 21
8.593750000000004
 31
0.0
  0
LINE
  5
23A
330
2
100
AcDbEntity
  8
0
100
AcDbLine
 10
12.74074001405921
 20
8.593750000000004
 30
0.0
 11
12.74074001405921
 21
8.090223319994454
 31
0.0
  0
ARC
  5
23B
330
2
100
AcDbEntity
  8
0
100
AcDbCircle
 10
12.86574001405921
 20
8.090223576038728
 30
0.0
 40
0.125
100
AcDbArc
 50
180.0
 51
225.0000000000001
  0
ARC
  5
23C
330
2
100
AcDbEntity
  8
0
100
AcDbCircle
 10
12.92824001405921
 20
9.027723576038728
 30
0.0
 40
0.125
100
AcDbArc
 50
314.9999999999998
 51
0.0
  0
LINE
  5
23D
330
2
100
AcDbEntity
  8
0
100
AcDbLine
 10
13.01662836170753
 20
8.939335228390409
 30
0.0
 11
12.77735166641089
 21
8.70005853309377
 31
0.0
  0
ARC
  5
23E
330
2
100
AcDbEntity
  8
0
100
AcDbCircle
 10
12.86574001405921
 20
8.611670185445451
 30
0.0
 40
0.125
100
AcDbArc
 50
134.9999999999999
 51
180.0
  0
ARC
  5
246
330
2
100
AcDbEntity
  8
0
100
AcDbCircle
 10
12.92824001405921
 20
9.674170185445451
 30
0.0
 40
0.125
100
AcDbArc
 50
0.0
 51
45.0000000000001
  0
ARC
  5
247
330
2
100
AcDbEntity
  8
0
100
AcDbCircle
 10
12.86574001405921
 20
10.09022357603873
 30
0.0
 40
0.125
100
AcDbArc
 50
180.0
 51
225.0000000000001
  0
LINE
  5
248
330
2
100
AcDbEntity
  8
0
100
AcDbLine
 10
12.77735166641089
 20
10.00183522839041
 30
0.0
 11
13.01662836170753
 21
9.76255853309377
 31
0.0
  0
LINE
  5
24A
330
2
100
AcDbEntity
  8
0
100
AcDbLine
 10
13.05324001405921
 20
11.67417018544545
 30
0.0
 11
13.05324001405921
 21
11.02772357603873
 31
0.0
  0
ARC
  5
24D
330
2
100
AcDbEntity
  8
0
100
AcDbCircle
 10
12.92824001405921
 20
11.02772357603873
 30
0.0
 40
0.125
100
AcDbArc
 50
314.9999999999998
 51
0.0
  0
LINE
  5
24E
330
2
100
AcDbEntity
  8
0
100
AcDbLine
 10
13.01662836170753
 20
10.93933522839041
 30
0.0
 11
12.77735166641089
 21
10.70005853309377
 31
0.0
  0
ARC
  5
24F
330
2
100
AcDbEntity
  8
0
100
AcDbCircle
 10
12.86574001405921
 20
10.61167018544545
 30
0.0
 40
0.125
100
AcDbArc
 50
134.9999999999999
 51
180.0
  0
LINE
  5
253
330
2
100
AcDbEntity
  8
0
100
AcDbLine
 10
12.74074001405921
 20
12.59375
 30
0.0
 11
14.51478509090592
 21
12.59375
 31
0.0
  0
LINE
  5
254
330
2
100
AcDbEntity
  8
0
100
AcDbLine
 10
12.74074001405921
 20
12.59375
 30
0.0
 11
12.74074001405921
 21
12.09022331999445
 31
0.0
  0
LINE
  5
255
330
2
100
AcDbEntity
  8
0
100
AcDbLine
 10
12.74074001405921
 20
12.09022357603873
 30
0.0
 11
12.74074001405921
 21
12.59375
 31
0.0
  0
ARC
  5
256
330
2
100
AcDbEntity
  8
0
100
AcDbCircle
 10
12.86574001405921
 20
12.09022357603873
 30
0.0
 40
0.125
100
AcDbArc
 50
180.0
 51
225.0000000000001
  0
ARC
  5
257
330
2
100
AcDbEntity
  8
0
100
AcDbCircle
 10
12.92824001405921
 20
11.67417018544545
 30
0.0
 40
0.125
100
AcDbArc
 50
0.0
 51
45.0000000000001
  0
LINE
  5
258
330
2
100
AcDbEntity
  8
0
100
AcDbLine
 10
12.77735166641089
 20
12.00183522839041
 30
0.0
 11
13.01662836170753
 21
11.76255853309377
 31
0.0
  0
LINE
  5
259
330
2
100
AcDbEntity
  8
0
  6
Continuous
100
AcDbLine
 10
-2.915662948999999
 20
22.45104864279012
 30
0.0
 11
-5.453499999999997
 21
22.45104864279012
 31
0.0
  0
LINE
  5
25A
330
2
100
AcDbEntity
  8
0
  6
Continuous
100
AcDbLine
 10
-2.915662948999999
 20
22.35729864279012
 30
0.0
 11
-5.453499999999997
 21
22.35729864279012
 31
0.0
  0
LINE
  5
25B
330
2
100
AcDbEntity
  8
0
  6
Continuous
100
AcDbLine
 10
-2.821912948999999
 20
22.26354864279012
 30
0.0
 11
-2.821912948999999
 21
18.23229864279012
 31
0.0
  0
LINE
  5
25C
330
2
100
AcDbEntity
  8
0
  6
Continuous
100
AcDbLine
 10
2.803086674000004
 20
22.26354864279012
 30
0.0
 11
2.803086674000007
 21
18.23229864279012
 31
0.0
  0
LINE
  5
25D
330
2
100
AcDbEntity
  8
0
  6
Continuous
100
AcDbLine
 10
-2.728162948999999
 20
22.26354864279012
 30
0.0
 11
-2.728162948999999
 21
18.23229864279012
 31
0.0
  0
LINE
  5
25E
330
2
100
AcDbEntity
  8
0
  6
Continuous
100
AcDbLine
 10
2.709336674000004
 20
22.26354864279012
 30
0.0
 11
2.709336674000007
 21
18.23229864279012
 31
0.0
  0
LINE
  5
260
330
2
100
AcDbEntity
  8
0
100
AcDbLine
 10
-2.821912948999999
 20
18.23229864279012
 30
0.0
 11
-2.544381061981928
 21
18.23229864279012
 31
0.0
  0
LINE
  5
261
330
2
100
AcDbEntity
  8
0
100
AcDbLine
 10
2.52555478698237
 20
18.23229864279012
 30
0.0
 11
2.803086674000007
 21
18.23229864279012
 31
0.0
  0
LINE
  5
262
330
2
100
AcDbEntity
  8
0
  6
Continuous
100
AcDbLine
 10
2.896836674000004
 20
22.45104864279012
 30
0.0
 11
5.421500000000003
 21
22.45104864279012
 31
0.0
  0
LINE
  5
263
330
2
100
AcDbEntity
  8
0
  6
Continuous
100
AcDbLine
 10
2.896836674000004
 20
22.35729864279012
 30
0.0
 11
5.421500000000003
 21
22.35729864279012
 31
0.0
  0
LINE
  5
265
330
2
100
AcDbEntity
  8
0
100
AcDbLine
 10
-2.544378053234984
 20
22.23229864279012
 30
0.0
 11
-2.728162948999999
 21
22.23229864279012
 31
0.0
  0
ARC
  5
266
330
2
100
AcDbEntity
  8
0
  6
Continuous
100
AcDbCircle
 10
-2.915662948999999
 20
22.26354864279012
 30
0.0
 40
0.09375
100
AcDbArc
 50
0.0
 51
90.0
  0
ARC
  5
267
330
2
100
AcDbEntity
  8
0
  6
Continuous
100
AcDbCircle
 10
-2.915662948999999
 20
22.26354864279012
 30
0.0
 40
0.1875
100
AcDbArc
 50
0.0
 51
90.0
  0
LINE
  5
268
330
2
100
AcDbEntity
  8
0
100
AcDbLine
 10
2.525551778234669
 20
22.23229864279012
 30
0.0
 11
2.709336674000007
 21
22.23229864279012
 31
0.0
  0
ARC
  5
269
330
2
100
AcDbEntity
  8
0
  6
Continuous
100
AcDbCircle
 10
2.896836674000004
 20
22.26354864279012
 30
0.0
 40
0.1875
100
AcDbArc
 50
90.0
 51
180.0
  0
ARC
  5
26A
330
2
100
AcDbEntity
  8
0
  6
Continuous
100
AcDbCircle
 10
2.896836674000004
 20
22.26354864279012
 30
0.0
 40
0.09375
100
AcDbArc
 50
90.0
 51
180.0
  0
CIRCLE
  5
26C
330
2
100
AcDbEntity
  8
0
100
AcDbCircle
 10
5.202164180999994
 20
5.34375
 30
0.0
 40
0.0855
  0
CIRCLE
  5
26D
330
2
100
AcDbEntity
  8
0
100
AcDbCircle
 10
3.577164180999987
 20
5.46875
 30
0.0
 40
0.0855
  0
CIRCLE
  5
26E
330
2
100
AcDbEntity
  8
0
100
AcDbCircle
 10
-5.202164180999993
 20
5.351673725000001
 30
0.0
 40
0.0855
  0
LINE
  5
270
330
2
100
AcDbEntity
  8
0
100
AcDbLine
 10
5.452169104153282
 20
5.674170185445444
 30
0.0
 11
5.452169104153282
 21
5.027723576038724
 31
0.0
  0
LINE
  5
271
330
2
100
AcDbEntity
  8
0
100
AcDbLine
 10
-5.452169104153277
 20
5.682093910445442
 30
0.0
 11
-5.452169104153277
 21
5.035647301038726
 31
0.0
  0
LINE
  5
272
330
2
100
AcDbEntity
  8
0
100
AcDbLine
 10
-5.452169104153277
 20
5.682093910445442
 30
0.0
 11
-5.452169104153277
 21
5.035647301038726
 31
0.0
  0
LINE
  5
273
330
2
100
AcDbEntity
  8
0
  6
Continuous
100
AcDbLine
 10
-2.726214180999997
 20
0.1875
 30
0.0
 11
-2.726214180999997
 21
12.601673725
 31
0.0
  0
LINE
  5
274
330
2
100
AcDbEntity
  8
0
  6
Continuous
100
AcDbLine
 10
2.726214181000001
 20
0.1875
 30
0.0
 11
2.726214181000001
 21
12.59375
 31
0.0
  0
LINE
  5
275
330
2
100
AcDbEntity
  8
0
  6
Continuous
100
AcDbLine
 10
-2.819964180999997
 20
0.1875
 30
0.0
 11
-2.819964180999997
 21
12.601673725
 31
0.0
  0
LINE
  5
276
330
2
100
AcDbEntity
  8
0
  6
Continuous
100
AcDbLine
 10
2.819964181000001
 20
0.1875
 30
0.0
 11
2.819964181000001
 21
12.59375
 31
0.0
  0
ARC
  5
277
330
2
100
AcDbEntity
  8
0
100
AcDbCircle
 10
-1.882464180999803
 20
4.064894077929949
 30
0.0
 40
3.25
100
AcDbArc
 50
180.0
 51
225.0000000000006
  0
LINE
  5
278
330
2
100
AcDbEntity
  8
0
100
AcDbLine
 10
-5.13246418099981
 20
4.064894077929949
 30
0.0
 11
-5.13246418099981
 21
4.604423304920744
 31
0.0
  0
CIRCLE
  5
279
330
2
100
AcDbEntity
  8
0
100
AcDbCircle
 10
-4.452164180999993
 20
3.101673725000001
 30
0.0
 40
0.0855
  0
CIRCLE
  5
27C
330
2
100
AcDbEntity
  8
0
100
AcDbCircle
 10
-4.670914181
 20
3.726673725000001
 30
0.0
 40
0.0855
  0
LINE
  5
27D
330
2
100
AcDbEntity
  8
0
100
AcDbLine
 10
-5.415557451801596
 20
4.947258953390406
 30
0.0
 11
-5.176280756504965
 21
4.707982258093768
 31
0.0
  0
CIRCLE
  5
27E
330
2
100
AcDbEntity
  8
0
100
AcDbCircle
 10
-4.889664180999993
 20
4.351673725000001
 30
0.0
 40
0.0855
  0
ARC
  5
27F
330
2
100
AcDbEntity
  8
0
100
AcDbCircle
 10
-5.264669104153277
 20
4.619593910445449
 30
0.0
 40
0.125
100
AcDbArc
 50
0.0
 51
45.0000000000001
  0
ARC
  5
280
330
2
100
AcDbEntity
  8
0
100
AcDbCircle
 10
-5.327169104153277
 20
5.035647301038726
 30
0.0
 40
0.125
100
AcDbArc
 50
180.0
 51
225.0000000000002
  0
CIRCLE
  5
281
330
2
100
AcDbEntity
  8
0
100
AcDbCircle
 10
-4.452164180999993
 20
5.101673725000001
 30
0.0
 40
0.0855
  0
CIRCLE
  5
282
330
2
100
AcDbEntity
  8
0
100
AcDbCircle
 10
4.670914180999994
 20
3.71875
 30
0.0
 40
0.0855
  0
ARC
  5
283
330
2
100
AcDbEntity
  8
0
100
AcDbCircle
 10
1.882464180999805
 20
4.064894077712609
 30
0.0
 40
3.25
100
AcDbArc
 50
314.9999999999994
 51
0.0
  0
LINE
  5
284
330
2
100
AcDbEntity
  8
0
100
AcDbLine
 10
-2.632464180999997
 20
0.0
 30
0.0
 11
2.632464181000001
 21
0.0
 31
0.0
  0
LINE
  5
285
330
2
100
AcDbEntity
  8
0
100
AcDbLine
 10
-2.632464180999997
 20
0.09375
 30
0.0
 11
2.632464181000001
 21
0.09375
 31
0.0
  0
ARC
  5
286
330
2
100
AcDbEntity
  8
0
100
AcDbCircle
 10
-2.632464180999997
 20
0.1875
 30
0.0
 40
0.1875
100
AcDbArc
 50
180.0
 51
270.0
  0
ARC
  5
287
330
2
100
AcDbEntity
  8
0
100
AcDbCircle
 10
-2.632464180999997
 20
0.1875
 30
0.0
 40
0.09375
100
AcDbArc
 50
180.0
 51
270.0
  0
ARC
  5
288
330
2
100
AcDbEntity
  8
0
100
AcDbCircle
 10
2.632464181000001
 20
0.1875
 30
0.0
 40
0.1875
100
AcDbArc
 50
270.0
 51
0.0
  0
ARC
  5
289
330
2
100
AcDbEntity
  8
0
100
AcDbCircle
 10
2.632464181000001
 20
0.1875
 30
0.0
 40
0.09375
100
AcDbArc
 50
270.0
 51
0.0
  0
ARC
  5
28A
330
2
100
AcDbEntity
  8
0
100
AcDbCircle
 10
-3.389664180999986
 20
2.861970406198424
 30
0.0
 40
0.0855
100
AcDbArc
 50
270.0
 51
90.0
  0
ARC
  5
28B
330
2
100
AcDbEntity
  8
0
100
AcDbCircle
 10
-3.514664180999986
 20
2.861970406198424
 30
0.0
 40
0.0855
100
AcDbArc
 50
90.0
 51
270.0
  0
CIRCLE
  5
28D
330
2
100
AcDbEntity
  8
0
100
AcDbCircle
 10
-3.577164180999986
 20
1.664173725000001
 30
0.0
 40
0.0855
  0
LINE
  5
28F
330
2
100
AcDbEntity
  8
0
100
AcDbLine
 10
-4.180561219856094
 20
1.766797039073623
 30
0.0
 11
-2.819964180999995
 21
0.4062000002175381
 31
0.0
  0
LINE
  5
290
330
2
100
AcDbEntity
  8
0
100
AcDbLine
 10
-3.022671641014934
 20
1.115163292084112
 30
0.0
 11
-2.831575057367917
 21
1.115163292084112
 31
0.0
  0
LINE
  5
291
330
2
100
AcDbEntity
  8
0
100
AcDbLine
 10
-3.018514814936224
 20
1.286163292084112
 30
0.0
 11
-2.831575057367917
 21
1.286163292084112
 31
0.0
  0
ARC
  5
292
330
2
100
AcDbEntity
  8
0
100
AcDbCircle
 10
-2.923707471480173
 20
1.198308103550392
 30
0.0
 40
0.1292554313189278
100
AcDbArc
 50
137.1796312694826
 51
220.0353196785142
  0
CIRCLE
  5
296
330
2
100
AcDbEntity
  8
0
100
AcDbCircle
 10
-4.139664180999993
 20
2.351673725000001
 30
0.0
 40
0.0855
  0
LINE
  5
297
330
2
100
AcDbEntity
  8
0
100
AcDbLine
 10
-3.514664180999986
 20
2.77647040619842
 30
0.0
 11
-3.389664180999986
 21
2.77647040619842
 31
0.0
  0
ARC
  5
299
330
2
100
AcDbEntity
  8
0
100
AcDbCircle
 10
-2.923707471480173
 20
2.221864243691492
 30
0.0
 40
0.1292554313189278
100
AcDbArc
 50
137.1796312694826
 51
220.0353196785142
  0
LINE
  5
29A
330
2
100
AcDbEntity
  8
0
100
AcDbLine
 10
-3.022671641014934
 20
2.138719432225212
 30
0.0
 11
-2.831575057367917
 21
2.138719432225212
 31
0.0
  0
LINE
  5
29B
330
2
100
AcDbEntity
  8
0
100
AcDbLine
 10
-3.018514814936224
 20
2.309719432225212
 30
0.0
 11
-2.831575057367917
 21
2.309719432225208
 31
0.0
  0
CIRCLE
  5
29C
330
2
100
AcDbEntity
  8
0
100
AcDbCircle
 10
-4.139664180999993
 20
4.101673725000001
 30
0.0
 40
0.0855
  0
ARC
  5
29D
330
2
100
AcDbEntity
  8
0
100
AcDbCircle
 10
-2.923707471480173
 20
4.207754474469919
 30
0.0
 40
0.1292554313189278
100
AcDbArc
 50
137.1796312694826
 51
220.0353196785142
  0
CIRCLE
  5
29E
330
2
100
AcDbEntity
  8
0
100
AcDbCircle
 10
-3.577164180999986
 20
3.351673725000001
 30
0.0
 40
0.0855
  0
LINE
  5
29F
330
2
100
AcDbEntity
  8
0
100
AcDbLine
 10
-3.514664180999986
 20
2.94747040619842
 30
0.0
 11
-3.389664180999986
 21
2.94747040619842
 31
0.0
  0
CIRCLE
  5
2A0
330
2
100
AcDbEntity
  8
0
100
AcDbCircle
 10
-3.968664180999986
 20
3.624999999996959
 30
0.0
 40
0.0855
  0
LINE
  5
2A1
330
2
100
AcDbEntity
  8
0
100
AcDbLine
 10
-3.018514814936224
 20
3.270140333815547
 30
0.0
 11
-2.831575057367917
 21
3.270140333815547
 31
0.0
  0
LINE
  5
2A2
330
2
100
AcDbEntity
  8
0
100
AcDbLine
 10
-3.022671641014934
 20
3.099140333815548
 30
0.0
 11
-2.831575057367917
 21
3.099140333815548
 31
0.0
  0
ARC
  5
2A3
330
2
100
AcDbEntity
  8
0
100
AcDbCircle
 10
-2.923707471480173
 20
3.182285145281828
 30
0.0
 40
0.1292554313189278
100
AcDbArc
 50
137.1796312694826
 51
220.0353196785142
  0
LINE
  5
2A4
330
2
100
AcDbEntity
  8
0
100
AcDbLine
 10
-3.022671641014934
 20
4.124609663003639
 30
0.0
 11
-2.831575057367917
 21
4.124609663003639
 31
0.0
  0
LINE
  5
2A8
330
2
100
AcDbEntity
  8
0
100
AcDbLine
 10
-3.514664180999986
 20
4.266844673805739
 30
0.0
 11
-3.389664180999986
 21
4.266844673805739
 31
0.0
  0
LINE
  5
2A9
330
2
100
AcDbEntity
  8
0
100
AcDbLine
 10
-3.514664180999986
 20
4.437844673805738
 30
0.0
 11
-3.389664180999986
 21
4.437844673805738
 31
0.0
  0
ARC
  5
2AA
330
2
100
AcDbEntity
  8
0
100
AcDbCircle
 10
-3.389664180999986
 20
4.352344673805742
 30
0.0
 40
0.0855
100
AcDbArc
 50
270.0
 51
90.0
  0
ARC
  5
2AB
330
2
100
AcDbEntity
  8
0
100
AcDbCircle
 10
-3.514664180999986
 20
4.352344673805742
 30
0.0
 40
0.0855
100
AcDbArc
 50
90.0
 51
270.0
  0
LINE
  5
2AC
330
2
100
AcDbEntity
  8
0
100
AcDbLine
 10
-3.514664180999986
 20
4.937173725000005
 30
0.0
 11
-3.389664180999986
 21
4.937173725000005
 31
0.0
  0
LINE
  5
2AD
330
2
100
AcDbEntity
  8
0
100
AcDbLine
 10
-3.514664180999986
 20
4.766173725000005
 30
0.0
 11
-3.389664180999986
 21
4.766173725000005
 31
0.0
  0
ARC
  5
2AE
330
2
100
AcDbEntity
  8
0
100
AcDbCircle
 10
-3.389664180999986
 20
4.851673725000008
 30
0.0
 40
0.0855
100
AcDbArc
 50
270.0
 51
90.0
  0
ARC
  5
2B0
330
2
100
AcDbEntity
  8
0
100
AcDbCircle
 10
-3.514664180999986
 20
4.851673725000008
 30
0.0
 40
0.0855
100
AcDbArc
 50
90.0
 51
270.0
  0
LINE
  5
2B1
330
2
100
AcDbEntity
  8
0
100
AcDbLine
 10
-3.018514814936224
 20
4.295609663003638
 30
0.0
 11
-2.831575057367917
 21
4.295609663003638
 31
0.0
  0
LINE
  5
2B2
330
2
100
AcDbEntity
  8
0
100
AcDbLine
 10
-3.018514814936224
 20
5.319165803144735
 30
0.0
 11
-2.831575057367917
 21
5.319165803144735
 31
0.0
  0
LINE
  5
2B3
330
2
100
AcDbEntity
  8
0
100
AcDbLine
 10
-3.022671641014934
 20
5.148165803144735
 30
0.0
 11
-2.831575057367917
 21
5.148165803144735
 31
0.0
  0
ARC
  5
2B4
330
2
100
AcDbEntity
  8
0
100
AcDbCircle
 10
-2.923707471480173
 20
5.231310614611015
 30
0.0
 40
0.1292554313189278
100
AcDbArc
 50
137.1796312694826
 51
220.0353196785142
  0
ARC
  5
2B5
330
2
100
AcDbEntity
  8
0
100
AcDbCircle
 10
3.389664180999987
 20
2.854046681198419
 30
0.0
 40
0.0855
100
AcDbArc
 50
90.0
 51
270.0
  0
ARC
  5
2B6
330
2
100
AcDbEntity
  8
0
100
AcDbCircle
 10
3.514664180999987
 20
2.854046681198419
 30
0.0
 40
0.0855
100
AcDbArc
 50
270.0
 51
90.0
  0
ARC
  5
2B7
330
2
100
AcDbEntity
  8
0
100
AcDbCircle
 10
2.923707471480172
 20
2.807285145064494
 30
0.0
 40
0.1292554313189278
100
AcDbArc
 50
319.9646803214858
 51
42.82036873051742
  0
CIRCLE
  5
2B8
330
2
100
AcDbEntity
  8
0
100
AcDbCircle
 10
3.577164180999987
 20
1.65625
 30
0.0
 40
0.0855
  0
LINE
  5
2B9
330
2
100
AcDbEntity
  8
0
100
AcDbLine
 10
4.180561219856092
 20
1.766797038856282
 30
0.0
 11
2.819964180999997
 21
0.4062000000001973
 31
0.0
  0
LINE
  5
2BA
330
2
100
AcDbEntity
  8
0
100
AcDbLine
 10
3.022671641014932
 20
0.7401632918667787
 30
0.0
 11
2.831575057367915
 21
0.7401632918667787
 31
0.0
  0
LINE
  5
2BB
330
2
100
AcDbEntity
  8
0
100
AcDbLine
 10
3.018514814936226
 20
0.911163291866778
 30
0.0
 11
2.831575057367915
 21
0.911163291866778
 31
0.0
  0
ARC
  5
2BC
330
2
100
AcDbEntity
  8
0
100
AcDbCircle
 10
2.923707471480172
 20
0.8233081033330585
 30
0.0
 40
0.1292554313189278
100
AcDbArc
 50
319.9646803214858
 51
42.82036873051742
  0
LINE
  5
2BD
330
2
100
AcDbEntity
  8
0
100
AcDbLine
 10
3.022671641014932
 20
1.763719432007878
 30
0.0
 11
2.831575057367915
 21
1.763719432007878
 31
0.0
  0
LINE
  5
2BE
330
2
100
AcDbEntity
  8
0
100
AcDbLine
 10
3.018514814936226
 20
1.934719432007878
 30
0.0
 11
2.831575057367915
 21
1.934719432007874
 31
0.0
  0
ARC
  5
2BF
330
2
100
AcDbEntity
  8
0
100
AcDbCircle
 10
2.923707471480172
 20
1.846864243474158
 30
0.0
 40
0.1292554313189278
100
AcDbArc
 50
319.9646803214858
 51
42.82036873051742
  0
LINE
  5
2C0
330
2
100
AcDbEntity
  8
0
100
AcDbLine
 10
3.022671641014932
 20
2.724140333598214
 30
0.0
 11
2.831575057367915
 21
2.724140333598214
 31
0.0
  0
LINE
  5
2C1
330
2
100
AcDbEntity
  8
0
100
AcDbLine
 10
3.514664180999987
 20
2.768546681198423
 30
0.0
 11
3.389664180999987
 21
2.768546681198423
 31
0.0
  0
CIRCLE
  5
2C2
330
2
100
AcDbEntity
  8
0
100
AcDbCircle
 10
4.139664180999994
 20
2.343750000000004
 30
0.0
 40
0.0855
  0
CIRCLE
  5
2C3
330
2
100
AcDbEntity
  8
0
100
AcDbCircle
 10
4.139664180999994
 20
4.093750000000004
 30
0.0
 40
0.0855
  0
CIRCLE
  5
2C4
330
2
100
AcDbEntity
  8
0
100
AcDbCircle
 10
3.577164180999987
 20
3.343750000000004
 30
0.0
 40
0.0855
  0
LINE
  5
2C5
330
2
100
AcDbEntity
  8
0
100
AcDbLine
 10
3.018514814936226
 20
2.895140333598214
 30
0.0
 11
2.831575057367915
 21
2.895140333598214
 31
0.0
  0
LINE
  5
2C6
330
2
100
AcDbEntity
  8
0
100
AcDbLine
 10
3.514664180999987
 20
2.939546681198422
 30
0.0
 11
3.389664180999987
 21
2.939546681198422
 31
0.0
  0
LINE
  5
2C7
330
2
100
AcDbEntity
  8
0
100
AcDbLine
 10
3.022671641014932
 20
3.749609662786305
 30
0.0
 11
2.831575057367915
 21
3.749609662786305
 31
0.0
  0
LINE
  5
2C8
330
2
100
AcDbEntity
  8
0
100
AcDbLine
 10
3.018514814936226
 20
3.920609662786305
 30
0.0
 11
2.831575057367915
 21
3.920609662786305
 31
0.0
  0
ARC
  5
2C9
330
2
100
AcDbEntity
  8
0
100
AcDbCircle
 10
2.923707471480172
 20
3.832754474252585
 30
0.0
 40
0.1292554313189278
100
AcDbArc
 50
319.9646803214858
 51
42.82036873051742
  0
CIRCLE
  5
2CA
330
2
100
AcDbEntity
  8
0
100
AcDbCircle
 10
3.999914180999988
 20
3.531249999996959
 30
0.0
 40
0.0855
  0
CIRCLE
  5
2CB
330
2
100
AcDbEntity
  8
0
100
AcDbCircle
 10
4.452164180999994
 20
3.093750000000004
 30
0.0
 40
0.0855
  0
ARC
  5
2CC
330
2
100
AcDbEntity
  8
0
100
AcDbCircle
 10
3.514664180999987
 20
4.344420948805738
 30
0.0
 40
0.0855
100
AcDbArc
 50
270.0
 51
90.0
  0
ARC
  5
2CD
330
2
100
AcDbEntity
  8
0
100
AcDbCircle
 10
3.514664180999987
 20
4.843750000000007
 30
0.0
 40
0.0855
100
AcDbArc
 50
270.0
 51
90.0
  0
ARC
  5
2CE
330
2
100
AcDbEntity
  8
0
100
AcDbCircle
 10
3.389664180999987
 20
4.843750000000007
 30
0.0
 40
0.0855
100
AcDbArc
 50
90.0
 51
270.0
  0
ARC
  5
2CF
330
2
100
AcDbEntity
  8
0
100
AcDbCircle
 10
3.389664180999987
 20
4.344420948805738
 30
0.0
 40
0.0855
100
AcDbArc
 50
90.0
 51
270.0
  0
LINE
  5
2D0
330
2
100
AcDbEntity
  8
0
100
AcDbLine
 10
3.514664180999987
 20
4.429920948805741
 30
0.0
 11
3.389664180999987
 21
4.429920948805741
 31
0.0
  0
LINE
  5
2D1
330
2
100
AcDbEntity
  8
0
100
AcDbLine
 10
3.514664180999987
 20
4.258920948805741
 30
0.0
 11
3.389664180999987
 21
4.258920948805741
 31
0.0
  0
LINE
  5
2D2
330
2
100
AcDbEntity
  8
0
100
AcDbLine
 10
3.514664180999987
 20
4.758250000000007
 30
0.0
 11
3.389664180999987
 21
4.758250000000007
 31
0.0
  0
LINE
  5
2D3
330
2
100
AcDbEntity
  8
0
100
AcDbLine
 10
3.022671641014932
 20
4.773165802927402
 30
0.0
 11
2.831575057367915
 21
4.773165802927402
 31
0.0
  0
LINE
  5
2D4
330
2
100
AcDbEntity
  8
0
100
AcDbLine
 10
3.018514814936226
 20
4.944165802927401
 30
0.0
 11
2.831575057367915
 21
4.944165802927401
 31
0.0
  0
LINE
  5
2D5
330
2
100
AcDbEntity
  8
0
100
AcDbLine
 10
3.514664180999987
 20
4.929250000000007
 30
0.0
 11
3.389664180999987
 21
4.929250000000007
 31
0.0
  0
ARC
  5
2D6
330
2
100
AcDbEntity
  8
0
100
AcDbCircle
 10
2.923707471480172
 20
4.856310614393681
 30
0.0
 40
0.1292554313189278
100
AcDbArc
 50
319.9646803214858
 51
42.82036873051742
  0
CIRCLE
  5
2D9
330
2
100
AcDbEntity
  8
0
100
AcDbCircle
 10
4.452164180999994
 20
5.09375
 30
0.0
 40
0.0855
  0
LINE
  5
2DA
330
2
100
AcDbEntity
  8
0
100
AcDbLine
 10
5.132464180999809
 20
4.064894077712609
 30
0.0
 11
5.132464180999809
 21
4.604423304703403
 31
0.0
  0
LINE
  5
2DB
330
2
100
AcDbEntity
  8
0
100
AcDbLine
 10
5.415557451801594
 20
4.939335228390405
 30
0.0
 11
5.176280756504963
 21
4.70005853309377
 31
0.0
  0
CIRCLE
  5
2DD
330
2
100
AcDbEntity
  8
0
100
AcDbCircle
 10
4.889664180999994
 20
4.343750000000004
 30
0.0
 40
0.0855
  0
ARC
  5
2DF
330
2
100
AcDbEntity
  8
0
100
AcDbCircle
 10
5.264669104153282
 20
4.611670185445451
 30
0.0
 40
0.125
100
AcDbArc
 50
134.9999999999999
 51
179.9999999999999
  0
ARC
  5
2E1
330
2
100
AcDbEntity
  8
0
100
AcDbCircle
 10
5.327169104153282
 20
5.027723576038724
 30
0.0
 40
0.125
100
AcDbArc
 50
314.9999999999998
 51
0.0
  0
LINE
  5
2E2
330
2
100
AcDbEntity
  8
0
100
AcDbLine
 10
-2.726214180999995
 20
12.601673725
 30
0.0
 11
-5.139669104153277
 21
12.601673725
 31
0.0
  0
CIRCLE
  5
2E3
330
2
100
AcDbEntity
  8
0
100
AcDbCircle
 10
-4.889664180999993
 20
10.35167372500001
 30
0.0
 40
0.0855
  0
LINE
  5
2E4
330
2
100
AcDbEntity
  8
0
100
AcDbLine
 10
-5.139669104153277
 20
10.601673725
 30
0.0
 11
-5.139669104153277
 21
10.09814730103872
 31
0.0
  0
LINE
  5
2E5
330
2
100
AcDbEntity
  8
0
100
AcDbLine
 10
-5.139669104153277
 20
10.09814740265109
 30
0.0
 11
-5.139669104153277
 21
10.601673725
 31
0.0
  0
LINE
  5
2E6
330
2
100
AcDbEntity
  8
0
100
AcDbLine
 10
-5.139669104153277
 20
10.09814740265109
 30
0.0
 11
-5.139669104153277
 21
10.601673725
 31
0.0
  0
LINE
  5
2E7
330
2
100
AcDbEntity
  8
0
100
AcDbLine
 10
-5.139669104153277
 20
10.601673725
 30
0.0
 11
-5.139669104153277
 21
10.09814730103872
 31
0.0
  0
LINE
  5
2E8
330
2
100
AcDbEntity
  8
0
100
AcDbLine
 10
-5.176280756504958
 20
8.009758953390399
 30
0.0
 11
-5.415557451801596
 21
7.770482258093761
 31
0.0
  0
ARC
  5
2E9
330
2
100
AcDbEntity
  8
0
100
AcDbCircle
 10
-5.264669104153277
 20
6.619593910445449
 30
0.0
 40
0.125
100
AcDbArc
 50
0.0
 51
45.0000000000001
  0
ARC
  5
2EA
330
2
100
AcDbEntity
  8
0
100
AcDbCircle
 10
-5.264669104153277
 20
6.098147301038718
 30
0.0
 40
0.125
100
AcDbArc
 50
314.9999999999999
 51
0.0
  0
LINE
  5
2EB
330
2
100
AcDbEntity
  8
0
100
AcDbLine
 10
-5.176280756504958
 20
6.009758953390399
 30
0.0
 11
-5.415557451801596
 21
5.770482258093761
 31
0.0
  0
ARC
  5
2EC
330
2
100
AcDbEntity
  8
0
100
AcDbCircle
 10
-5.327169104153277
 20
5.682093910445442
 30
0.0
 40
0.125
100
AcDbArc
 50
134.9999999999997
 51
180.0
  0
CIRCLE
  5
2ED
330
2
100
AcDbEntity
  8
0
100
AcDbCircle
 10
-4.670914181
 20
5.726673725000001
 30
0.0
 40
0.0855
  0
CIRCLE
  5
2EE
330
2
100
AcDbEntity
  8
0
100
AcDbCircle
 10
-4.889664180999993
 20
6.351673725000008
 30
0.0
 40
0.0855
  0
LINE
  5
2EF
330
2
100
AcDbEntity
  8
0
100
AcDbLine
 10
-5.139669104153277
 20
6.09814740265109
 30
0.0
 11
-5.139669104153277
 21
6.601673724999998
 31
0.0
  0
LINE
  5
2F0
330
2
100
AcDbEntity
  8
0
100
AcDbLine
 10
-5.139669104153277
 20
6.601673724999998
 30
0.0
 11
-5.139669104153277
 21
6.098147301038718
 31
0.0
  0
LINE
  5
2F1
330
2
100
AcDbEntity
  8
0
100
AcDbLine
 10
-5.452169104153277
 20
7.682093910445442
 30
0.0
 11
-5.452169104153277
 21
7.035647301038726
 31
0.0
  0
ARC
  5
2F2
330
2
100
AcDbEntity
  8
0
100
AcDbCircle
 10
-5.327169104153277
 20
7.035647301038726
 30
0.0
 40
0.125
100
AcDbArc
 50
180.0
 51
225.0000000000002
  0
LINE
  5
2F3
330
2
100
AcDbEntity
  8
0
100
AcDbLine
 10
-5.415557451801596
 20
6.947258953390406
 30
0.0
 11
-5.176280756504965
 21
6.707982258093768
 31
0.0
  0
CIRCLE
  5
2F4
330
2
100
AcDbEntity
  8
0
100
AcDbCircle
 10
-4.452164180999993
 20
7.101673725000001
 30
0.0
 40
0.0855
  0
CIRCLE
  5
2F5
330
2
100
AcDbEntity
  8
0
100
AcDbCircle
 10
-5.202164180999993
 20
7.351673725000001
 30
0.0
 40
0.0855
  0
ARC
  5
2F6
330
2
100
AcDbEntity
  8
0
100
AcDbCircle
 10
-5.327169104153277
 20
7.682093910445442
 30
0.0
 40
0.125
100
AcDbArc
 50
134.9999999999997
 51
180.0
  0
CIRCLE
  5
2F7
330
2
100
AcDbEntity
  8
0
100
AcDbCircle
 10
-4.452164180999993
 20
9.101673725000001
 30
0.0
 40
0.0855
  0
LINE
  5
2F8
330
2
100
AcDbEntity
  8
0
100
AcDbLine
 10
-5.452169104153277
 20
9.682093910445442
 30
0.0
 11
-5.452169104153277
 21
9.035647301038726
 31
0.0
  0
LINE
  5
2F9
330
2
100
AcDbEntity
  8
0
100
AcDbLine
 10
-5.452169104153277
 20
9.682093910445442
 30
0.0
 11
-5.452169104153277
 21
9.035647301038726
 31
0.0
  0
LINE
  5
2FA
330
2
100
AcDbEntity
  8
0
100
AcDbLine
 10
-5.139669104153277
 20
8.601673724999998
 30
0.0
 11
-5.139669104153277
 21
8.098147301038718
 31
0.0
  0
LINE
  5
2FB
330
2
100
AcDbEntity
  8
0
100
AcDbLine
 10
-5.139669104153277
 20
8.09814740265109
 30
0.0
 11
-5.139669104153277
 21
8.601673724999998
 31
0.0
  0
LINE
  5
2FC
330
2
100
AcDbEntity
  8
0
100
AcDbLine
 10
-5.139669104153277
 20
8.601673724999998
 30
0.0
 11
-5.139669104153277
 21
8.098147301038718
 31
0.0
  0
LINE
  5
2FD
330
2
100
AcDbEntity
  8
0
100
AcDbLine
 10
-5.139669104153277
 20
8.09814740265109
 30
0.0
 11
-5.139669104153277
 21
8.601673724999998
 31
0.0
  0
CIRCLE
  5
2FE
330
2
100
AcDbEntity
  8
0
100
AcDbCircle
 10
-4.889664180999993
 20
8.351673725000008
 30
0.0
 40
0.0855
  0
ARC
  5
2FF
330
2
100
AcDbEntity
  8
0
100
AcDbCircle
 10
-5.264669104153277
 20
8.098147301038718
 30
0.0
 40
0.125
100
AcDbArc
 50
314.9999999999999
 51
0.0
  0
ARC
  5
300
330
2
100
AcDbEntity
  8
0
100
AcDbCircle
 10
-5.327169104153277
 20
9.035647301038726
 30
0.0
 40
0.125
100
AcDbArc
 50
180.0
 51
225.0000000000002
  0
LINE
  5
301
330
2
100
AcDbEntity
  8
0
100
AcDbLine
 10
-5.415557451801596
 20
8.947258953390406
 30
0.0
 11
-5.176280756504965
 21
8.707982258093768
 31
0.0
  0
ARC
  5
302
330
2
100
AcDbEntity
  8
0
100
AcDbCircle
 10
-5.264669104153277
 20
8.619593910445449
 30
0.0
 40
0.125
100
AcDbArc
 50
0.0
 51
45.0000000000001
  0
ARC
  5
303
330
2
100
AcDbEntity
  8
0
100
AcDbCircle
 10
-5.327169104153277
 20
9.682093910445442
 30
0.0
 40
0.125
100
AcDbArc
 50
134.9999999999997
 51
180.0
  0
CIRCLE
  5
304
330
2
100
AcDbEntity
  8
0
100
AcDbCircle
 10
-5.202164180999993
 20
9.351673725000001
 30
0.0
 40
0.0855
  0
ARC
  5
305
330
2
100
AcDbEntity
  8
0
100
AcDbCircle
 10
-5.264669104153277
 20
10.09814730103872
 30
0.0
 40
0.125
100
AcDbArc
 50
314.9999999999999
 51
0.0
  0
LINE
  5
306
330
2
100
AcDbEntity
  8
0
100
AcDbLine
 10
-5.176280756504958
 20
10.0097589533904
 30
0.0
 11
-5.415557451801596
 21
9.770482258093761
 31
0.0
  0
LINE
  5
307
330
2
100
AcDbEntity
  8
0
100
AcDbLine
 10
-5.452169104153277
 20
11.68209391044544
 30
0.0
 11
-5.452169104153277
 21
11.03564730103873
 31
0.0
  0
LINE
  5
308
330
2
100
AcDbEntity
  8
0
100
AcDbLine
 10
-5.452169104153277
 20
11.68209391044544
 30
0.0
 11
-5.452169104153277
 21
11.03564730103873
 31
0.0
  0
ARC
  5
309
330
2
100
AcDbEntity
  8
0
100
AcDbCircle
 10
-5.327169104153277
 20
11.03564730103873
 30
0.0
 40
0.125
100
AcDbArc
 50
180.0
 51
225.0000000000002
  0
LINE
  5
30A
330
2
100
AcDbEntity
  8
0
100
AcDbLine
 10
-5.415557451801596
 20
10.94725895339041
 30
0.0
 11
-5.176280756504965
 21
10.70798225809377
 31
0.0
  0
ARC
  5
30B
330
2
100
AcDbEntity
  8
0
100
AcDbCircle
 10
-5.264669104153277
 20
10.61959391044545
 30
0.0
 40
0.125
100
AcDbArc
 50
0.0
 51
45.0000000000001
  0
CIRCLE
  5
30C
330
2
100
AcDbEntity
  8
0
100
AcDbCircle
 10
-5.202164180999993
 20
11.351673725
 30
0.0
 40
0.0855
  0
CIRCLE
  5
30D
330
2
100
AcDbEntity
  8
0
100
AcDbCircle
 10
-4.452164180999993
 20
11.101673725
 30
0.0
 40
0.0855
  0
LINE
  5
30E
330
2
100
AcDbEntity
  8
0
100
AcDbLine
 10
-5.139669104153277
 20
12.09814740265109
 30
0.0
 11
-5.139669104153277
 21
12.601673725
 31
0.0
  0
LINE
  5
30F
330
2
100
AcDbEntity
  8
0
100
AcDbLine
 10
-5.139669104153277
 20
12.601673725
 30
0.0
 11
-5.139669104153277
 21
12.09814730103872
 31
0.0
  0
ARC
  5
310
330
2
100
AcDbEntity
  8
0
100
AcDbCircle
 10
-5.264669104153277
 20
12.09814730103872
 30
0.0
 40
0.125
100
AcDbArc
 50
314.9999999999999
 51
0.0
  0
ARC
  5
311
330
2
100
AcDbEntity
  8
0
100
AcDbCircle
 10
-5.327169104153277
 20
11.68209391044544
 30
0.0
 40
0.125
100
AcDbArc
 50
134.9999999999997
 51
180.0
  0
LINE
  5
312
330
2
100
AcDbEntity
  8
0
100
AcDbLine
 10
-5.176280756504958
 20
12.0097589533904
 30
0.0
 11
-5.415557451801596
 21
11.77048225809376
 31
0.0
  0
CIRCLE
  5
313
330
2
100
AcDbEntity
  8
0
100
AcDbCircle
 10
-4.889664180999993
 20
12.35167372500001
 30
0.0
 40
0.0855
  0
CIRCLE
  5
315
330
2
100
AcDbEntity
  8
0
100
AcDbCircle
 10
4.670914180999994
 20
5.71875
 30
0.0
 40
0.0855
  0
LINE
  5
316
330
2
100
AcDbEntity
  8
0
100
AcDbLine
 10
2.726214180999997
 20
12.59375
 30
0.0
 11
5.139669104153275
 21
12.59375
 31
0.0
  0
ARC
  5
317
330
2
100
AcDbEntity
  8
0
100
AcDbCircle
 10
3.389664180999987
 20
10.34375000000001
 30
0.0
 40
0.0855
100
AcDbArc
 50
90.0
 51
270.0
  0
ARC
  5
318
330
2
100
AcDbEntity
  8
0
100
AcDbCircle
 10
3.514664180999987
 20
10.34375000000001
 30
0.0
 40
0.0855
100
AcDbArc
 50
270.0
 51
90.0
  0
ARC
  5
319
330
2
100
AcDbEntity
  8
0
100
AcDbCircle
 10
-3.389664180999986
 20
10.35167372500001
 30
0.0
 40
0.0855
100
AcDbArc
 50
270.0
 51
90.0
  0
ARC
  5
31A
330
2
100
AcDbEntity
  8
0
100
AcDbCircle
 10
-3.514664180999986
 20
10.35167372500001
 30
0.0
 40
0.0855
100
AcDbArc
 50
90.0
 51
270.0
  0
CIRCLE
  5
31C
330
2
100
AcDbEntity
  8
0
100
AcDbCircle
 10
-3.577164180999986
 20
5.476673725000001
 30
0.0
 40
0.0855
  0
CIRCLE
  5
31D
330
2
100
AcDbEntity
  8
0
100
AcDbCircle
 10
-4.139664180999993
 20
6.101673725000008
 30
0.0
 40
0.0855
  0
LINE
  5
31E
330
2
100
AcDbEntity
  8
0
100
AcDbLine
 10
-3.514664180999986
 20
6.266173725000005
 30
0.0
 11
-3.389664180999986
 21
6.266173725000005
 31
0.0
  0
LINE
  5
31F
330
2
100
AcDbEntity
  8
0
100
AcDbLine
 10
-3.514664180999986
 20
6.437173725000005
 30
0.0
 11
-3.389664180999986
 21
6.437173725000005
 31
0.0
  0
ARC
  5
320
330
2
100
AcDbEntity
  8
0
100
AcDbCircle
 10
-3.389664180999986
 20
6.351673725000008
 30
0.0
 40
0.0855
100
AcDbArc
 50
270.0
 51
90.0
  0
ARC
  5
321
330
2
100
AcDbEntity
  8
0
100
AcDbCircle
 10
-3.514664180999986
 20
6.351673725000008
 30
0.0
 40
0.0855
100
AcDbArc
 50
90.0
 51
270.0
  0
LINE
  5
322
330
2
100
AcDbEntity
  8
0
100
AcDbLine
 10
-2.819964180999995
 20
6.401673724999998
 30
0.0
 11
-2.819964180999995
 21
6.301673724999997
 31
0.0
  0
ARC
  5
323
330
2
100
AcDbEntity
  8
0
100
AcDbCircle
 10
-2.923707471480173
 20
6.231310614611015
 30
0.0
 40
0.1292554313189278
100
AcDbArc
 50
137.1796312694826
 51
220.0353196785142
  0
LINE
  5
324
330
2
100
AcDbEntity
  8
0
100
AcDbLine
 10
-3.022671641014934
 20
6.148165803144735
 30
0.0
 11
-2.831575057367917
 21
6.148165803144735
 31
0.0
  0
LINE
  5
325
330
2
100
AcDbEntity
  8
0
100
AcDbLine
 10
-3.018514814936224
 20
6.319165803144738
 30
0.0
 11
-2.831575057367917
 21
6.319165803144735
 31
0.0
  0
LINE
  5
326
330
2
100
AcDbEntity
  8
0
100
AcDbLine
 10
-2.819964180999997
 20
6.401673725000002
 30
0.0
 11
-2.819964180999997
 21
6.301673725000001
 31
0.0
  0
CIRCLE
  5
327
330
2
100
AcDbEntity
  8
0
100
AcDbCircle
 10
-3.577164180999986
 20
7.476673725000001
 30
0.0
 40
0.0855
  0
ARC
  5
328
330
2
100
AcDbEntity
  8
0
100
AcDbCircle
 10
-2.923707471480173
 20
7.217200845389446
 30
0.0
 40
0.1292554313189278
100
AcDbArc
 50
137.1796312694826
 51
220.0353196785142
  0
LINE
  5
329
330
2
100
AcDbEntity
  8
0
100
AcDbLine
 10
-3.022671641014934
 20
7.134056033923169
 30
0.0
 11
-2.831575057367917
 21
7.134056033923169
 31
0.0
  0
LINE
  5
32A
330
2
100
AcDbEntity
  8
0
100
AcDbLine
 10
-3.018514814936224
 20
7.305056033923169
 30
0.0
 11
-2.831575057367917
 21
7.305056033923165
 31
0.0
  0
ARC
  5
32B
330
2
100
AcDbEntity
  8
0
100
AcDbCircle
 10
-2.923707471480173
 20
9.217200845389446
 30
0.0
 40
0.1292554313189278
100
AcDbArc
 50
137.1796312694826
 51
220.0353196785142
  0
ARC
  5
32C
330
2
100
AcDbEntity
  8
0
100
AcDbCircle
 10
-3.389664180999986
 20
8.351673725000008
 30
0.0
 40
0.0855
100
AcDbArc
 50
270.0
 51
90.0
  0
LINE
  5
32D
330
2
100
AcDbEntity
  8
0
100
AcDbLine
 10
-3.514664180999986
 20
8.266173725000005
 30
0.0
 11
-3.389664180999986
 21
8.266173725000005
 31
0.0
  0
LINE
  5
32E
330
2
100
AcDbEntity
  8
0
100
AcDbLine
 10
-3.514664180999986
 20
8.437173725000005
 30
0.0
 11
-3.389664180999986
 21
8.437173725000005
 31
0.0
  0
ARC
  5
32F
330
2
100
AcDbEntity
  8
0
100
AcDbCircle
 10
-3.514664180999986
 20
8.351673725000008
 30
0.0
 40
0.0855
100
AcDbArc
 50
90.0
 51
270.0
  0
ARC
  5
330
330
2
100
AcDbEntity
  8
0
100
AcDbCircle
 10
-2.923707471480173
 20
8.217200845389446
 30
0.0
 40
0.1292554313189278
100
AcDbArc
 50
137.1796312694826
 51
220.0353196785142
  0
LINE
  5
331
330
2
100
AcDbEntity
  8
0
100
AcDbLine
 10
-3.022671641014934
 20
8.134056033923169
 30
0.0
 11
-2.831575057367917
 21
8.134056033923169
 31
0.0
  0
LINE
  5
332
330
2
100
AcDbEntity
  8
0
100
AcDbLine
 10
-3.018514814936224
 20
8.305056033923169
 30
0.0
 11
-2.831575057367917
 21
8.305056033923165
 31
0.0
  0
LINE
  5
333
330
2
100
AcDbEntity
  8
0
100
AcDbLine
 10
-3.022671641014934
 20
9.134056033923169
 30
0.0
 11
-2.831575057367917
 21
9.134056033923169
 31
0.0
  0
CIRCLE
  5
334
330
2
100
AcDbEntity
  8
0
100
AcDbCircle
 10
-3.577164180999986
 20
9.476673725000001
 30
0.0
 40
0.0855
  0
LINE
  5
335
330
2
100
AcDbEntity
  8
0
100
AcDbLine
 10
-3.514664180999986
 20
10.26617372500001
 30
0.0
 11
-3.389664180999986
 21
10.26617372500001
 31
0.0
  0
LINE
  5
336
330
2
100
AcDbEntity
  8
0
100
AcDbLine
 10
-3.018514814936224
 20
9.305056033923169
 30
0.0
 11
-2.831575057367917
 21
9.305056033923165
 31
0.0
  0
ARC
  5
337
330
2
100
AcDbEntity
  8
0
100
AcDbCircle
 10
-2.923707471480173
 20
10.21720084538945
 30
0.0
 40
0.1292554313189278
100
AcDbArc
 50
137.1796312694826
 51
220.0353196785142
  0
LINE
  5
338
330
2
100
AcDbEntity
  8
0
100
AcDbLine
 10
-3.022671641014934
 20
10.13405603392317
 30
0.0
 11
-2.831575057367917
 21
10.13405603392317
 31
0.0
  0
LINE
  5
339
330
2
100
AcDbEntity
  8
0
100
AcDbLine
 10
-3.018514814936224
 20
10.30505603392317
 30
0.0
 11
-2.831575057367917
 21
10.30505603392317
 31
0.0
  0
ARC
  5
33A
330
2
100
AcDbEntity
  8
0
100
AcDbCircle
 10
2.923707471480172
 20
7.842200845172112
 30
0.0
 40
0.1292554313189278
100
AcDbArc
 50
319.9646803214858
 51
42.82036873051742
  0
ARC
  5
33B
330
2
100
AcDbEntity
  8
0
100
AcDbCircle
 10
3.514664180999987
 20
6.343750000000007
 30
0.0
 40
0.0855
100
AcDbArc
 50
270.0
 51
90.0
  0
LINE
  5
33C
330
2
100
AcDbEntity
  8
0
100
AcDbLine
 10
3.018514814936226
 20
5.944165802927401
 30
0.0
 11
2.831575057367915
 21
5.944165802927401
 31
0.0
  0
LINE
  5
33D
330
2
100
AcDbEntity
  8
0
100
AcDbLine
 10
3.022671641014932
 20
5.773165802927402
 30
0.0
 11
2.831575057367915
 21
5.773165802927402
 31
0.0
  0
ARC
  5
33E
330
2
100
AcDbEntity
  8
0
100
AcDbCircle
 10
2.923707471480172
 20
5.856310614393681
 30
0.0
 40
0.1292554313189278
100
AcDbArc
 50
319.9646803214858
 51
42.82036873051742
  0
ARC
  5
33F
330
2
100
AcDbEntity
  8
0
100
AcDbCircle
 10
3.389664180999987
 20
6.343750000000007
 30
0.0
 40
0.0855
100
AcDbArc
 50
90.0
 51
270.0
  0
LINE
  5
340
330
2
100
AcDbEntity
  8
0
100
AcDbLine
 10
3.514664180999987
 20
6.429250000000007
 30
0.0
 11
3.389664180999987
 21
6.429250000000007
 31
0.0
  0
LINE
  5
341
330
2
100
AcDbEntity
  8
0
100
AcDbLine
 10
3.514664180999987
 20
6.258250000000007
 30
0.0
 11
3.389664180999987
 21
6.258250000000007
 31
0.0
  0
CIRCLE
  5
343
330
2
100
AcDbEntity
  8
0
100
AcDbCircle
 10
4.139664180999994
 20
6.093750000000007
 30
0.0
 40
0.0855
  0
CIRCLE
  5
346
330
2
100
AcDbEntity
  8
0
100
AcDbCircle
 10
3.577164180999987
 20
7.71875
 30
0.0
 40
0.0855
  0
LINE
  5
347
330
2
100
AcDbEntity
  8
0
100
AcDbLine
 10
3.022671641014932
 20
6.759056033705836
 30
0.0
 11
2.831575057367915
 21
6.759056033705836
 31
0.0
  0
LINE
  5
348
330
2
100
AcDbEntity
  8
0
100
AcDbLine
 10
3.018514814936226
 20
6.930056033705835
 30
0.0
 11
2.831575057367915
 21
6.930056033705832
 31
0.0
  0
ARC
  5
349
330
2
100
AcDbEntity
  8
0
100
AcDbCircle
 10
2.923707471480172
 20
6.842200845172112
 30
0.0
 40
0.1292554313189278
100
AcDbArc
 50
319.9646803214858
 51
42.82036873051742
  0
LINE
  5
34A
330
2
100
AcDbEntity
  8
0
100
AcDbLine
 10
3.022671641014932
 20
7.759056033705836
 30
0.0
 11
2.831575057367915
 21
7.759056033705836
 31
0.0
  0
CIRCLE
  5
34B
330
2
100
AcDbEntity
  8
0
100
AcDbCircle
 10
4.452164180999994
 20
7.09375
 30
0.0
 40
0.0855
  0
CIRCLE
  5
34C
330
2
100
AcDbEntity
  8
0
100
AcDbCircle
 10
4.452164180999994
 20
9.09375
 30
0.0
 40
0.0855
  0
ARC
  5
34D
330
2
100
AcDbEntity
  8
0
100
AcDbCircle
 10
3.514664180999987
 20
8.343750000000007
 30
0.0
 40
0.0855
100
AcDbArc
 50
270.0
 51
90.0
  0
LINE
  5
34E
330
2
100
AcDbEntity
  8
0
100
AcDbLine
 10
3.018514814936226
 20
7.930056033705835
 30
0.0
 11
2.831575057367915
 21
7.930056033705832
 31
0.0
  0
ARC
  5
34F
330
2
100
AcDbEntity
  8
0
100
AcDbCircle
 10
3.389664180999987
 20
8.343750000000007
 30
0.0
 40
0.0855
100
AcDbArc
 50
90.0
 51
270.0
  0
LINE
  5
350
330
2
100
AcDbEntity
  8
0
100
AcDbLine
 10
3.514664180999987
 20
8.258250000000007
 30
0.0
 11
3.389664180999987
 21
8.258250000000007
 31
0.0
  0
LINE
  5
351
330
2
100
AcDbEntity
  8
0
100
AcDbLine
 10
3.514664180999987
 20
8.429250000000007
 30
0.0
 11
3.389664180999987
 21
8.429250000000007
 31
0.0
  0
LINE
  5
352
330
2
100
AcDbEntity
  8
0
100
AcDbLine
 10
3.018514814936226
 20
8.930056033705835
 30
0.0
 11
2.831575057367915
 21
8.930056033705832
 31
0.0
  0
LINE
  5
353
330
2
100
AcDbEntity
  8
0
100
AcDbLine
 10
3.022671641014932
 20
8.759056033705836
 30
0.0
 11
2.831575057367915
 21
8.759056033705836
 31
0.0
  0
ARC
  5
354
330
2
100
AcDbEntity
  8
0
100
AcDbCircle
 10
2.923707471480172
 20
8.842200845172112
 30
0.0
 40
0.1292554313189278
100
AcDbArc
 50
319.9646803214858
 51
42.82036873051742
  0
CIRCLE
  5
355
330
2
100
AcDbEntity
  8
0
100
AcDbCircle
 10
3.577164180999987
 20
9.71875
 30
0.0
 40
0.0855
  0
ARC
  5
356
330
2
100
AcDbEntity
  8
0
100
AcDbCircle
 10
2.923707471480172
 20
9.842200845172112
 30
0.0
 40
0.1292554313189278
100
AcDbArc
 50
319.9646803214858
 51
42.82036873051742
  0
LINE
  5
357
330
2
100
AcDbEntity
  8
0
100
AcDbLine
 10
3.022671641014932
 20
9.759056033705836
 30
0.0
 11
2.831575057367915
 21
9.759056033705836
 31
0.0
  0
LINE
  5
358
330
2
100
AcDbEntity
  8
0
100
AcDbLine
 10
3.018514814936226
 20
9.930056033705835
 30
0.0
 11
2.831575057367915
 21
9.930056033705832
 31
0.0
  0
LINE
  5
359
330
2
100
AcDbEntity
  8
0
100
AcDbLine
 10
3.514664180999987
 20
10.25825000000001
 30
0.0
 11
3.389664180999987
 21
10.25825000000001
 31
0.0
  0
LINE
  5
35A
330
2
100
AcDbEntity
  8
0
100
AcDbLine
 10
-3.514664180999986
 20
10.43717372500001
 30
0.0
 11
-3.389664180999986
 21
10.43717372500001
 31
0.0
  0
CIRCLE
  5
35B
330
2
100
AcDbEntity
  8
0
100
AcDbCircle
 10
-3.577164180999986
 20
11.476673725
 30
0.0
 40
0.0855
  0
LINE
  5
35C
330
2
100
AcDbEntity
  8
0
100
AcDbLine
 10
-3.018514814936224
 20
11.30505603392317
 30
0.0
 11
-2.831575057367917
 21
11.30505603392317
 31
0.0
  0
LINE
  5
35D
330
2
100
AcDbEntity
  8
0
100
AcDbLine
 10
-3.022671641014934
 20
11.13405603392317
 30
0.0
 11
-2.831575057367917
 21
11.13405603392317
 31
0.0
  0
ARC
  5
35E
330
2
100
AcDbEntity
  8
0
100
AcDbCircle
 10
-2.923707471480173
 20
11.21720084538945
 30
0.0
 40
0.1292554313189278
100
AcDbArc
 50
137.1796312694826
 51
220.0353196785142
  0
LINE
  5
35F
330
2
100
AcDbEntity
  8
0
100
AcDbLine
 10
-3.514664180999986
 20
12.43717372500001
 30
0.0
 11
-3.389664180999986
 21
12.43717372500001
 31
0.0
  0
LINE
  5
360
330
2
100
AcDbEntity
  8
0
100
AcDbLine
 10
-3.514664180999986
 20
12.26617372500001
 30
0.0
 11
-3.389664180999986
 21
12.26617372500001
 31
0.0
  0
ARC
  5
361
330
2
100
AcDbEntity
  8
0
100
AcDbCircle
 10
-3.389664180999986
 20
12.35167372500001
 30
0.0
 40
0.0855
100
AcDbArc
 50
270.0
 51
90.0
  0
ARC
  5
362
330
2
100
AcDbEntity
  8
0
100
AcDbCircle
 10
-3.514664180999986
 20
12.35167372500001
 30
0.0
 40
0.0855
100
AcDbArc
 50
90.0
 51
270.0
  0
CIRCLE
  5
363
330
2
100
AcDbEntity
  8
0
100
AcDbCircle
 10
3.577164180999987
 20
11.59375
 30
0.0
 40
0.0855
  0
LINE
  5
364
330
2
100
AcDbEntity
  8
0
100
AcDbLine
 10
3.018514814936226
 20
10.93005603370584
 30
0.0
 11
2.831575057367915
 21
10.93005603370583
 31
0.0
  0
LINE
  5
365
330
2
100
AcDbEntity
  8
0
100
AcDbLine
 10
3.022671641014932
 20
10.75905603370584
 30
0.0
 11
2.831575057367915
 21
10.75905603370584
 31
0.0
  0
LINE
  5
366
330
2
100
AcDbEntity
  8
0
100
AcDbLine
 10
3.514664180999987
 20
10.42925000000001
 30
0.0
 11
3.389664180999987
 21
10.42925000000001
 31
0.0
  0
ARC
  5
367
330
2
100
AcDbEntity
  8
0
100
AcDbCircle
 10
2.923707471480172
 20
10.84220084517211
 30
0.0
 40
0.1292554313189278
100
AcDbArc
 50
319.9646803214858
 51
42.82036873051742
  0
CIRCLE
  5
368
330
2
100
AcDbEntity
  8
0
100
AcDbCircle
 10
4.452164180999994
 20
11.09375
 30
0.0
 40
0.0855
  0
ARC
  5
369
330
2
100
AcDbEntity
  8
0
100
AcDbCircle
 10
3.514664180999987
 20
12.34375000000001
 30
0.0
 40
0.0855
100
AcDbArc
 50
270.0
 51
90.0
  0
ARC
  5
36A
330
2
100
AcDbEntity
  8
0
100
AcDbCircle
 10
3.389664180999987
 20
12.34375000000001
 30
0.0
 40
0.0855
100
AcDbArc
 50
90.0
 51
270.0
  0
LINE
  5
36B
330
2
100
AcDbEntity
  8
0
100
AcDbLine
 10
3.514664180999987
 20
12.25825000000001
 30
0.0
 11
3.389664180999987
 21
12.25825000000001
 31
0.0
  0
LINE
  5
36C
330
2
100
AcDbEntity
  8
0
100
AcDbLine
 10
3.514664180999987
 20
12.42925000000001
 30
0.0
 11
3.389664180999987
 21
12.42925000000001
 31
0.0
  0
CIRCLE
  5
36D
330
2
100
AcDbEntity
  8
0
100
AcDbCircle
 10
4.889664180999994
 20
10.34375000000001
 30
0.0
 40
0.0855
  0
LINE
  5
36E
330
2
100
AcDbEntity
  8
0
100
AcDbLine
 10
5.139669104153275
 20
10.09022367765109
 30
0.0
 11
5.139669104153275
 21
10.59375
 31
0.0
  0
LINE
  5
36F
330
2
100
AcDbEntity
  8
0
100
AcDbLine
 10
5.139669104153282
 20
10.59375
 30
0.0
 11
5.139669104153282
 21
10.09022357603872
 31
0.0
  0
LINE
  5
370
330
2
100
AcDbEntity
  8
0
100
AcDbLine
 10
5.139669104153282
 20
10.59375
 30
0.0
 11
5.139669104153282
 21
10.09022357603872
 31
0.0
  0
LINE
  5
371
330
2
100
AcDbEntity
  8
0
100
AcDbLine
 10
5.139669104153275
 20
10.09022367765109
 30
0.0
 11
5.139669104153282
 21
10.61167018544545
 31
0.0
  0
LINE
  5
372
330
2
100
AcDbEntity
  8
0
100
AcDbLine
 10
5.176280756504963
 20
8.001835228390402
 30
0.0
 11
5.415557451801594
 21
7.762558533093763
 31
0.0
  0
ARC
  5
373
330
2
100
AcDbEntity
  8
0
100
AcDbCircle
 10
5.264669104153282
 20
6.611670185445451
 30
0.0
 40
0.125
100
AcDbArc
 50
134.9999999999999
 51
179.9999999999999
  0
ARC
  5
374
330
2
100
AcDbEntity
  8
0
100
AcDbCircle
 10
5.264669104153282
 20
6.090223576038721
 30
0.0
 40
0.125
100
AcDbArc
 50
179.9999999999999
 51
225.0000000000001
  0
LINE
  5
375
330
2
100
AcDbEntity
  8
0
100
AcDbLine
 10
5.176280756504963
 20
6.001835228390402
 30
0.0
 11
5.415557451801594
 21
5.762558533093763
 31
0.0
  0
ARC
  5
376
330
2
100
AcDbEntity
  8
0
100
AcDbCircle
 10
5.327169104153282
 20
5.674170185445444
 30
0.0
 40
0.125
100
AcDbArc
 50
0.0
 51
45.00000000000022
  0
CIRCLE
  5
379
330
2
100
AcDbEntity
  8
0
100
AcDbCircle
 10
4.889664180999994
 20
6.343750000000007
 30
0.0
 40
0.0855
  0
LINE
  5
37A
330
2
100
AcDbEntity
  8
0
100
AcDbLine
 10
5.139669104153282
 20
6.593749999999996
 30
0.0
 11
5.139669104153282
 21
6.090223576038721
 31
0.0
  0
LINE
  5
37B
330
2
100
AcDbEntity
  8
0
100
AcDbLine
 10
5.139669104153275
 20
6.090223677651093
 30
0.0
 11
5.139669104153282
 21
6.611670185445451
 31
0.0
  0
CIRCLE
  5
37C
330
2
100
AcDbEntity
  8
0
100
AcDbCircle
 10
5.202164180999994
 20
7.34375
 30
0.0
 40
0.0855
  0
LINE
  5
37D
330
2
100
AcDbEntity
  8
0
100
AcDbLine
 10
5.452169104153282
 20
7.674170185445444
 30
0.0
 11
5.452169104153282
 21
7.027723576038724
 31
0.0
  0
LINE
  5
37E
330
2
100
AcDbEntity
  8
0
100
AcDbLine
 10
5.415557451801594
 20
6.939335228390405
 30
0.0
 11
5.176280756504963
 21
6.70005853309377
 31
0.0
  0
ARC
  5
37F
330
2
100
AcDbEntity
  8
0
100
AcDbCircle
 10
5.327169104153282
 20
7.027723576038724
 30
0.0
 40
0.125
100
AcDbArc
 50
314.9999999999998
 51
0.0
  0
ARC
  5
380
330
2
100
AcDbEntity
  8
0
100
AcDbCircle
 10
5.327169104153282
 20
7.674170185445444
 30
0.0
 40
0.125
100
AcDbArc
 50
0.0
 51
45.00000000000022
  0
LINE
  5
381
330
2
100
AcDbEntity
  8
0
100
AcDbLine
 10
5.452169104153282
 20
9.674170185445444
 30
0.0
 11
5.452169104153282
 21
9.027723576038724
 31
0.0
  0
LINE
  5
382
330
2
100
AcDbEntity
  8
0
100
AcDbLine
 10
5.139669104153275
 20
8.090223677651093
 30
0.0
 11
5.139669104153275
 21
8.593749999999996
 31
0.0
  0
LINE
  5
383
330
2
100
AcDbEntity
  8
0
100
AcDbLine
 10
5.139669104153282
 20
8.593749999999996
 30
0.0
 11
5.139669104153282
 21
8.090223576038721
 31
0.0
  0
LINE
  5
384
330
2
100
AcDbEntity
  8
0
100
AcDbLine
 10
5.139669104153275
 20
8.090223677651093
 30
0.0
 11
5.139669104153275
 21
8.593749999999996
 31
0.0
  0
LINE
  5
385
330
2
100
AcDbEntity
  8
0
100
AcDbLine
 10
5.139669104153282
 20
8.611670185445451
 30
0.0
 11
5.139669104153282
 21
8.090223576038721
 31
0.0
  0
CIRCLE
  5
386
330
2
100
AcDbEntity
  8
0
100
AcDbCircle
 10
4.889664180999994
 20
8.343750000000007
 30
0.0
 40
0.0855
  0
ARC
  5
387
330
2
100
AcDbEntity
  8
0
100
AcDbCircle
 10
5.264669104153282
 20
8.090223576038721
 30
0.0
 40
0.125
100
AcDbArc
 50
179.9999999999999
 51
225.0000000000001
  0
LINE
  5
388
330
2
100
AcDbEntity
  8
0
100
AcDbLine
 10
5.415557451801594
 20
8.939335228390405
 30
0.0
 11
5.176280756504963
 21
8.70005853309377
 31
0.0
  0
ARC
  5
389
330
2
100
AcDbEntity
  8
0
100
AcDbCircle
 10
5.264669104153282
 20
8.611670185445451
 30
0.0
 40
0.125
100
AcDbArc
 50
134.9999999999999
 51
179.9999999999999
  0
ARC
  5
38A
330
2
100
AcDbEntity
  8
0
100
AcDbCircle
 10
5.327169104153282
 20
9.027723576038724
 30
0.0
 40
0.125
100
AcDbArc
 50
314.9999999999998
 51
0.0
  0
ARC
  5
38B
330
2
100
AcDbEntity
  8
0
100
AcDbCircle
 10
5.327169104153282
 20
9.674170185445444
 30
0.0
 40
0.125
100
AcDbArc
 50
0.0
 51
45.00000000000022
  0
CIRCLE
  5
38C
330
2
100
AcDbEntity
  8
0
100
AcDbCircle
 10
5.202164180999994
 20
9.34375
 30
0.0
 40
0.0855
  0
LINE
  5
38D
330
2
100
AcDbEntity
  8
0
100
AcDbLine
 10
5.176280756504963
 20
10.0018352283904
 30
0.0
 11
5.415557451801594
 21
9.762558533093763
 31
0.0
  0
ARC
  5
38E
330
2
100
AcDbEntity
  8
0
100
AcDbCircle
 10
5.264669104153282
 20
10.09022357603872
 30
0.0
 40
0.125
100
AcDbArc
 50
179.9999999999999
 51
225.0000000000001
  0
LINE
  5
38F
330
2
100
AcDbEntity
  8
0
100
AcDbLine
 10
5.452169104153279
 20
11.67417018544544
 30
0.0
 11
5.452169104153279
 21
11.02772357603872
 31
0.0
  0
LINE
  5
390
330
2
100
AcDbEntity
  8
0
100
AcDbLine
 10
5.452169104153282
 20
11.67417018544544
 30
0.0
 11
5.452169104153282
 21
11.02772357603872
 31
0.0
  0
ARC
  5
391
330
2
100
AcDbEntity
  8
0
100
AcDbCircle
 10
5.327169104153279
 20
11.02772357603872
 30
0.0
 40
0.125
100
AcDbArc
 50
314.9999999999998
 51
0.0
  0
ARC
  5
392
330
2
100
AcDbEntity
  8
0
100
AcDbCircle
 10
5.327169104153282
 20
11.02772357603872
 30
0.0
 40
0.125
100
AcDbArc
 50
314.9999999999998
 51
0.0
  0
LINE
  5
393
330
2
100
AcDbEntity
  8
0
100
AcDbLine
 10
5.415557451801594
 20
10.93933522839041
 30
0.0
 11
5.176280756504963
 21
10.70005853309377
 31
0.0
  0
ARC
  5
394
330
2
100
AcDbEntity
  8
0
100
AcDbCircle
 10
5.264669104153282
 20
10.61167018544545
 30
0.0
 40
0.125
100
AcDbArc
 50
134.9999999999999
 51
179.9999999999999
  0
CIRCLE
  5
396
330
2
100
AcDbEntity
  8
0
100
AcDbCircle
 10
5.202164180999994
 20
11.34375
 30
0.0
 40
0.0855
  0
CIRCLE
  5
399
330
2
100
AcDbEntity
  8
0
100
AcDbCircle
 10
4.889664180999994
 20
12.34375000000001
 30
0.0
 40
0.0855
  0
LINE
  5
39A
330
2
100
AcDbEntity
  8
0
100
AcDbLine
 10
5.139669104153282
 20
12.59375
 30
0.0
 11
5.139669104153282
 21
12.09022357603872
 31
0.0
  0
LINE
  5
39B
330
2
100
AcDbEntity
  8
0
100
AcDbLine
 10
5.139669104153275
 20
12.09022367765109
 30
0.0
 11
5.139669104153275
 21
12.59375
 31
0.0
  0
LINE
  5
39C
330
2
100
AcDbEntity
  8
0
100
AcDbLine
 10
5.176280756504963
 20
12.0018352283904
 30
0.0
 11
5.415557451801594
 21
11.76255853309376
 31
0.0
  0
ARC
  5
39D
330
2
100
AcDbEntity
  8
0
100
AcDbCircle
 10
5.264669104153282
 20
12.09022357603872
 30
0.0
 40
0.125
100
AcDbArc
 50
179.9999999999999
 51
225.0000000000001
  0
ARC
  5
39E
330
2
100
AcDbEntity
  8
0
100
AcDbCircle
 10
5.327169104153279
 20
11.67417018544544
 30
0.0
 40
0.125
100
AcDbArc
 50
0.0
 51
45.00000000000015
  0
ARC
  5
39F
330
2
100
AcDbEntity
  8
0
100
AcDbCircle
 10
5.327169104153282
 20
11.67417018544544
 30
0.0
 40
0.125
100
AcDbArc
 50
0.0
 51
45.00000000000022
  0
LINE
  5
5A4
330
2
100
AcDbEntity
  8
0
100
AcDbLine
 10
-2.044378241568272
 20
22.23229864279012
 30
0.0
 11
2.025551966570293
 21
22.23229864279011
 31
0.0
  0
ARC
  5
5AC
330
2
100
AcDbEntity
  8
0
100
AcDbCircle
 10
-2.45887824156828
 20
22.23229864279014
 30
0.0
 40
0.0855
100
AcDbArc
 50
180.0014311613279
 51
270.0
  0
POINT
  5
5AD
330
2
100
AcDbEntity
  8
0
  6
ByBlock
 62
     0
100
AcDbPoint
 10
-2.544378241568112
 20
22.22664568572337
 30
0.0
  0
LINE
  5
5B1
330
2
100
AcDbEntity
  8
0
100
AcDbLine
 10
-2.45887824156828
 20
22.14679864279013
 30
0.0
 11
-2.129878241568272
 21
22.14679864279013
 31
0.0
  0
ARC
  5
5B2
330
2
100
AcDbEntity
  8
0
100
AcDbCircle
 10
-2.129878241568272
 20
22.23229864279014
 30
0.0
 40
0.0855
100
AcDbArc
 50
269.9999999999989
 51
0.0000000000012213
  0
LINE
  5
5B3
330
2
100
AcDbEntity
  8
0
100
AcDbLine
 10
3.15281399702327
 20
21.56254555584737
 30
0.0
 11
3.107378960621806
 21
21.51854220776654
 31
0.0
  0
LINE
  5
5B4
330
2
100
AcDbEntity
  8
0
100
AcDbLine
 10
2.815968037495172
 20
21.71751386865379
 30
0.0
 11
3.15281399702327
 21
21.56254555584737
 31
0.0
  0
LINE
  5
5B5
330
2
100
AcDbEntity
  8
0
100
AcDbLine
 10
3.107378960621806
 20
21.51854220776654
 30
0.0
 11
2.815968037495172
 21
21.65055225200904
 31
0.0
  0
LINE
  5
5B8
330
2
100
AcDbEntity
  8
0
100
AcDbLine
 10
2.111051966570293
 20
22.14679864279012
 30
0.0
 11
2.440051966570301
 21
22.14679864279012
 31
0.0
  0
ARC
  5
5B9
330
2
100
AcDbEntity
  8
0
100
AcDbCircle
 10
2.111051966570293
 20
22.23229864279013
 30
0.0
 40
0.0855
100
AcDbArc
 50
179.9999999999988
 51
270.0
  0
ARC
  5
5BA
330
2
100
AcDbEntity
  8
0
100
AcDbCircle
 10
2.440051966570302
 20
22.23229864279012
 30
0.0
 40
0.0855
100
AcDbArc
 50
269.9999999999989
 51
359.9985688386719
  0
LINE
  5
5C7
330
2
100
AcDbEntity
  8
0
100
AcDbLine
 10
13.68753509090593
 20
3.923511346231662
 30
0.0
 11
13.68753509090593
 21
3.77388495317045
 31
0.0
  0
ARC
  5
5C8
330
2
100
AcDbEntity
  8
0
100
AcDbCircle
 10
13.51528944315547
 20
3.845341977736856
 30
0.0
 40
0.0855
100
AcDbArc
 50
89.99983493434672
 51
270.0001650656533
  0
ARC
  5
5C9
330
2
100
AcDbEntity
  8
0
100
AcDbCircle
 10
13.53565687326648
 20
3.845341977736856
 30
0.0
 40
0.0855
100
AcDbArc
 50
89.99983493434672
 51
270.0001650656533
  0
ARC
  5
5CA
330
2
100
AcDbEntity
  8
0
100
AcDbCircle
 10
13.48353509090592
 20
3.845341977737212
 30
0.0
 40
0.0855
100
AcDbArc
 50
90.0
 51
270.0
  0
LINE
  5
5CB
330
2
100
AcDbEntity
  8
0
100
AcDbLine
 10
13.48353509090592
 20
3.759841977737212
 30
0.0
 11
13.67103509090592
 21
3.759841977737212
 31
0.0
  0
LINE
  5
5CD
330
2
100
AcDbEntity
  8
0
100
AcDbLine
 10
13.48353509090592
 20
3.930841977737211
 30
0.0
 11
13.67103509090592
 21
3.930841977737211
 31
0.0
  0
LINE
  5
5CE
330
2
100
AcDbEntity
  8
0
100
AcDbLine
 10
13.68753509090593
 20
4.923029512960325
 30
0.0
 11
13.68753509090593
 21
4.773403119899113
 31
0.0
  0
ARC
  5
5CF
330
2
100
AcDbEntity
  8
0
100
AcDbCircle
 10
13.54035704944595
 20
4.845341977736856
 30
0.0
 40
0.0855
100
AcDbArc
 50
89.99983493434672
 51
270.0001650656533
  0
ARC
  5
5D0
330
2
100
AcDbEntity
  8
0
100
AcDbCircle
 10
13.51998961933494
 20
4.845341977736856
 30
0.0
 40
0.0855
100
AcDbArc
 50
89.99983493434672
 51
270.0001650656533
  0
ARC
  5
5D1
330
2
100
AcDbEntity
  8
0
100
AcDbCircle
 10
13.48353509090592
 20
4.845341977737212
 30
0.0
 40
0.0855
100
AcDbArc
 50
90.0
 51
270.0
  0
LINE
  5
5D2
330
2
100
AcDbEntity
  8
0
100
AcDbLine
 10
13.48353509090592
 20
4.930841977737211
 30
0.0
 11
13.67103509090592
 21
4.930841977737211
 31
0.0
  0
LINE
  5
5D3
330
2
100
AcDbEntity
  8
0
100
AcDbLine
 10
13.48353509090592
 20
4.759841977737212
 30
0.0
 11
13.67103509090592
 21
4.759841977737212
 31
0.0
  0
ARC
  5
5D4
330
2
100
AcDbEntity
  8
0
100
AcDbCircle
 10
13.51998961933503
 20
5.84534197773757
 30
0.0
 40
0.0855
100
AcDbArc
 50
89.99983493434672
 51
270.0001650656533
  0
ARC
  5
5D5
330
2
100
AcDbEntity
  8
0
100
AcDbCircle
 10
13.54035704944604
 20
5.84534197773757
 30
0.0
 40
0.0855
100
AcDbArc
 50
89.99983493434672
 51
270.0001650656533
  0
LINE
  5
5D6
330
2
100
AcDbEntity
  8
0
100
AcDbLine
 10
13.68753509090593
 20
5.907077639934647
 30
0.0
 11
13.68753509090593
 21
5.757451246873435
 31
0.0
  0
ARC
  5
5D7
330
2
100
AcDbEntity
  8
0
100
AcDbCircle
 10
13.48353509090592
 20
5.845341977737212
 30
0.0
 40
0.0855
100
AcDbArc
 50
90.0
 51
270.0
  0
LINE
  5
5D8
330
2
100
AcDbEntity
  8
0
100
AcDbLine
 10
13.48353509090592
 20
5.930841977737215
 30
0.0
 11
13.67103509090592
 21
5.930841977737215
 31
0.0
  0
LINE
  5
5D9
330
2
100
AcDbEntity
  8
0
100
AcDbLine
 10
13.48353509090592
 20
5.759841977737215
 30
0.0
 11
13.67103509090592
 21
5.759841977737215
 31
0.0
  0
LINE
  5
5DA
330
2
100
AcDbEntity
  8
0
100
AcDbLine
 10
13.68753509090593
 20
6.923029512960325
 30
0.0
 11
13.68753509090593
 21
6.773403119899113
 31
0.0
  0
ARC
  5
5DB
330
2
100
AcDbEntity
  8
0
100
AcDbCircle
 10
13.48353509090592
 20
6.845341977737212
 30
0.0
 40
0.0855
100
AcDbArc
 50
89.99983493434672
 51
270.0001650656533
  0
LINE
  5
5DC
330
2
100
AcDbEntity
  8
0
100
AcDbLine
 10
13.48353509090592
 20
6.930841977737208
 30
0.0
 11
13.68753509090593
 21
6.930841977737208
 31
0.0
  0
LINE
  5
5DD
330
2
100
AcDbEntity
  8
0
100
AcDbLine
 10
13.48353509090592
 20
6.759841977737208
 30
0.0
 11
13.68753509090593
 21
6.759841977737208
 31
0.0
  0
ARC
  5
5DE
330
2
100
AcDbEntity
  8
0
100
AcDbCircle
 10
13.54263641967633
 20
6.845341977737212
 30
0.0
 40
0.0855
100
AcDbArc
 50
89.99983493434672
 51
270.0001650656533
  0
ARC
  5
5DF
330
2
100
AcDbEntity
  8
0
100
AcDbCircle
 10
13.52226898956533
 20
6.845341977737212
 30
0.0
 40
0.0855
100
AcDbArc
 50
89.99983493434672
 51
270.0001650656533
  0
ARC
  5
5E0
330
2
100
AcDbEntity
  8
0
100
AcDbCircle
 10
13.48353509090592
 20
6.845341977737212
 30
0.0
 40
0.0855
100
AcDbArc
 50
90.0
 51
270.0
  0
LINE
  5
5E1
330
2
100
AcDbEntity
  8
0
100
AcDbLine
 10
13.48353509090592
 20
6.930841977737215
 30
0.0
 11
13.67103509090592
 21
6.930841977737215
 31
0.0
  0
LINE
  5
5E2
330
2
100
AcDbEntity
  8
0
100
AcDbLine
 10
13.48353509090592
 20
6.759841977737215
 30
0.0
 11
13.67103509090592
 21
6.759841977737215
 31
0.0
  0
LINE
  5
5E7
330
2
100
AcDbEntity
  8
0
100
AcDbLine
 10
13.68753509090593
 20
7.923029512960321
 30
0.0
 11
13.68753509090593
 21
7.773403119899109
 31
0.0
  0
ARC
  5
5E8
330
2
100
AcDbEntity
  8
0
100
AcDbCircle
 10
13.48353509090592
 20
7.845341977737208
 30
0.0
 40
0.0855
100
AcDbArc
 50
90.0
 51
270.0
  0
LINE
  5
5E9
330
2
100
AcDbEntity
  8
0
100
AcDbLine
 10
13.48353509090592
 20
7.759841977737212
 30
0.0
 11
13.67103509090592
 21
7.759841977737212
 31
0.0
  0
LINE
  5
5EA
330
2
100
AcDbEntity
  8
0
100
AcDbLine
 10
13.48353509090592
 20
7.930841977737211
 30
0.0
 11
13.67103509090592
 21
7.930841977737211
 31
0.0
  0
ARC
  5
5EB
330
2
100
AcDbEntity
  8
0
100
AcDbCircle
 10
13.52226898956533
 20
7.845341977737208
 30
0.0
 40
0.0855
100
AcDbArc
 50
89.99983493434672
 51
270.0001650656533
  0
ARC
  5
5EC
330
2
100
AcDbEntity
  8
0
100
AcDbCircle
 10
13.54263641967633
 20
7.845341977737208
 30
0.0
 40
0.0855
100
AcDbArc
 50
89.99983493434672
 51
270.0001650656533
  0
LINE
  5
5ED
330
2
100
AcDbEntity
  8
0
100
AcDbLine
 10
13.48353509090592
 20
7.759841977737205
 30
0.0
 11
13.68753509090593
 21
7.759841977737205
 31
0.0
  0
LINE
  5
5EE
330
2
100
AcDbEntity
  8
0
100
AcDbLine
 10
13.48353509090592
 20
7.930841977737204
 30
0.0
 11
13.68753509090593
 21
7.930841977737204
 31
0.0
  0
ARC
  5
5EF
330
2
100
AcDbEntity
  8
0
100
AcDbCircle
 10
13.48353509090592
 20
7.845341977737208
 30
0.0
 40
0.0855
100
AcDbArc
 50
89.99983493434672
 51
270.0001650656533
  0
ARC
  5
5F6
330
2
100
AcDbEntity
  8
0
100
AcDbCircle
 10
13.48353509090592
 20
8.845341977737208
 30
0.0
 40
0.0855
100
AcDbArc
 50
89.99983493434672
 51
270.0001650656533
  0
LINE
  5
5F7
330
2
100
AcDbEntity
  8
0
100
AcDbLine
 10
13.48353509090592
 20
8.930841977737204
 30
0.0
 11
13.68753509090593
 21
8.930841977737204
 31
0.0
  0
LINE
  5
5F8
330
2
100
AcDbEntity
  8
0
100
AcDbLine
 10
13.48353509090592
 20
8.759841977737205
 30
0.0
 11
13.68753509090593
 21
8.759841977737205
 31
0.0
  0
ARC
  5
5F9
330
2
100
AcDbEntity
  8
0
100
AcDbCircle
 10
13.54263641967633
 20
8.845341977737208
 30
0.0
 40
0.0855
100
AcDbArc
 50
89.99983493434672
 51
270.0001650656533
  0
ARC
  5
5FA
330
2
100
AcDbEntity
  8
0
100
AcDbCircle
 10
13.52226898956533
 20
8.845341977737208
 30
0.0
 40
0.0855
100
AcDbArc
 50
89.99983493434672
 51
270.0001650656533
  0
LINE
  5
5FB
330
2
100
AcDbEntity
  8
0
100
AcDbLine
 10
13.48353509090592
 20
8.930841977737211
 30
0.0
 11
13.67103509090592
 21
8.930841977737211
 31
0.0
  0
LINE
  5
5FC
330
2
100
AcDbEntity
  8
0
100
AcDbLine
 10
13.48353509090592
 20
8.759841977737212
 30
0.0
 11
13.67103509090592
 21
8.759841977737212
 31
0.0
  0
ARC
  5
5FD
330
2
100
AcDbEntity
  8
0
100
AcDbCircle
 10
13.48353509090592
 20
8.845341977737208
 30
0.0
 40
0.0855
100
AcDbArc
 50
90.0
 51
270.0
  0
LINE
  5
5FE
330
2
100
AcDbEntity
  8
0
100
AcDbLine
 10
13.68753509090593
 20
8.923029512960321
 30
0.0
 11
13.68753509090593
 21
8.773403119899109
 31
0.0
  0
LINE
  5
603
330
2
100
AcDbEntity
  8
0
100
AcDbLine
 10
13.48353509090592
 20
9.759841977737205
 30
0.0
 11
13.68753509090593
 21
9.759841977737205
 31
0.0
  0
ARC
  5
604
330
2
100
AcDbEntity
  8
0
100
AcDbCircle
 10
13.54263641967633
 20
9.845341977737208
 30
0.0
 40
0.0855
100
AcDbArc
 50
89.99983493434672
 51
270.0001650656533
  0
ARC
  5
605
330
2
100
AcDbEntity
  8
0
100
AcDbCircle
 10
13.52226898956533
 20
9.845341977737208
 30
0.0
 40
0.0855
100
AcDbArc
 50
89.99983493434672
 51
270.0001650656533
  0
LINE
  5
606
330
2
100
AcDbEntity
  8
0
100
AcDbLine
 10
13.48353509090592
 20
9.930841977737211
 30
0.0
 11
13.67103509090592
 21
9.930841977737211
 31
0.0
  0
LINE
  5
607
330
2
100
AcDbEntity
  8
0
100
AcDbLine
 10
13.48353509090592
 20
9.759841977737212
 30
0.0
 11
13.67103509090592
 21
9.759841977737212
 31
0.0
  0
ARC
  5
608
330
2
100
AcDbEntity
  8
0
100
AcDbCircle
 10
13.48353509090592
 20
9.845341977737208
 30
0.0
 40
0.0855
100
AcDbArc
 50
90.0
 51
270.0
  0
LINE
  5
609
330
2
100
AcDbEntity
  8
0
100
AcDbLine
 10
13.68753509090593
 20
9.923029512960321
 30
0.0
 11
13.68753509090593
 21
9.773403119899109
 31
0.0
  0
LINE
  5
60A
330
2
100
AcDbEntity
  8
0
100
AcDbLine
 10
13.68753509090593
 20
10.92302951296032
 30
0.0
 11
13.68753509090593
 21
10.77340311989911
 31
0.0
  0
ARC
  5
60B
330
2
100
AcDbEntity
  8
0
100
AcDbCircle
 10
13.48353509090592
 20
10.84534197773721
 30
0.0
 40
0.0855
100
AcDbArc
 50
90.0
 51
270.0
  0
ARC
  5
60C
330
2
100
AcDbEntity
  8
0
100
AcDbCircle
 10
13.52226898956533
 20
10.84534197773721
 30
0.0
 40
0.0855
100
AcDbArc
 50
89.99983493434672
 51
270.0001650656533
  0
ARC
  5
60D
330
2
100
AcDbEntity
  8
0
100
AcDbCircle
 10
13.54263641967633
 20
10.84534197773721
 30
0.0
 40
0.0855
100
AcDbArc
 50
89.99983493434672
 51
270.0001650656533
  0
LINE
  5
611
330
2
100
AcDbEntity
  8
0
100
AcDbLine
 10
13.48353509090592
 20
10.75984197773721
 30
0.0
 11
13.67103509090592
 21
10.75984197773721
 31
0.0
  0
LINE
  5
612
330
2
100
AcDbEntity
  8
0
100
AcDbLine
 10
13.48353509090592
 20
10.75984197773721
 30
0.0
 11
13.68753509090593
 21
10.75984197773721
 31
0.0
  0
LINE
  5
614
330
2
100
AcDbEntity
  8
0
100
AcDbLine
 10
13.48353509090592
 20
10.93084197773721
 30
0.0
 11
13.67103509090592
 21
10.93084197773721
 31
0.0
  0
LINE
  5
61C
330
2
100
AcDbEntity
  8
0
100
AcDbLine
 10
-3.171640272021249
 20
21.56254555584737
 30
0.0
 11
-3.126205235619785
 21
21.51854220776654
 31
0.0
  0
LINE
  5
61D
330
2
100
AcDbEntity
  8
0
100
AcDbLine
 10
-2.834794312493151
 20
21.71751386865379
 30
0.0
 11
-3.171640272021249
 21
21.56254555584737
 31
0.0
  0
LINE
  5
61E
330
2
100
AcDbEntity
  8
0
100
AcDbLine
 10
-3.126205235619785
 20
21.51854220776654
 30
0.0
 11
-2.834794312493151
 21
21.65055225200904
 31
0.0
  0
LINE
  5
61F
330
2
100
AcDbEntity
  8
0
100
AcDbLine
 10
-2.544378053234984
 20
18.23229864279012
 30
0.0
 11
-2.728162948999999
 21
18.23229864279012
 31
0.0
  0
LINE
  5
620
330
2
100
AcDbEntity
  8
0
100
AcDbLine
 10
2.525551778234669
 20
18.23229864279013
 30
0.0
 11
2.709336674000007
 21
18.23229864279012
 31
0.0
  0
LINE
  5
621
330
2
100
AcDbEntity
  8
0
100
AcDbLine
 10
-2.044378241568272
 20
18.23229864279013
 30
0.0
 11
2.025551966570293
 21
18.23229864279013
 31
0.0
  0
ARC
  5
622
330
2
100
AcDbEntity
  8
0
100
AcDbCircle
 10
-2.45887824156828
 20
18.23229864279011
 30
0.0
 40
0.0855
100
AcDbArc
 50
90.00000000000003
 51
179.9985688386721
  0
POINT
  5
623
330
2
100
AcDbEntity
  8
0
  6
ByBlock
 62
     0
100
AcDbPoint
 10
-2.544378241568112
 20
18.23795159985688
 30
0.0
  0
LINE
  5
624
330
2
100
AcDbEntity
  8
0
100
AcDbLine
 10
-2.45887824156828
 20
18.31779864279012
 30
0.0
 11
-2.129878241568272
 21
18.31779864279012
 31
0.0
  0
ARC
  5
625
330
2
100
AcDbEntity
  8
0
100
AcDbCircle
 10
-2.129878241568272
 20
18.23229864279011
 30
0.0
 40
0.0855
100
AcDbArc
 50
359.9999999999988
 51
90.00000000000115
  0
LINE
  5
626
330
2
100
AcDbEntity
  8
0
100
AcDbLine
 10
2.111051966570293
 20
18.31779864279013
 30
0.0
 11
2.440051966570301
 21
18.31779864279013
 31
0.0
  0
ARC
  5
627
330
2
100
AcDbEntity
  8
0
100
AcDbCircle
 10
2.111051966570293
 20
18.23229864279012
 30
0.0
 40
0.0855
100
AcDbArc
 50
90.00000000000003
 51
180.0000000000013
  0
ARC
  5
628
330
2
100
AcDbEntity
  8
0
100
AcDbCircle
 10
2.440051966570302
 20
18.23229864279013
 30
0.0
 40
0.0855
100
AcDbArc
 50
0.001431161328062
 51
90.00000000000115
  0
LINE
  5
62A
330
2
100
AcDbEntity
  8
0
100
AcDbLine
 10
-5.453499999999997
 20
22.45104864279012
 30
0.0
 11
-5.453499999999997
 21
22.35729864279012
 31
0.0
  0
LINE
  5
62B
330
2
100
AcDbEntity
  8
0
100
AcDbLine
 10
5.421500000000003
 20
22.45104864279012
 30
0.0
 11
5.421500000000003
 21
22.35729864279012
 31
0.0
  0
LINE
  5
62D
330
2
100
AcDbEntity
  8
0
100
AcDbLine
 10
13.67103509090592
 20
0.9235113462316651
 30
0.0
 11
13.67103509090592
 21
0.7738849531704535
 31
0.0
  0
ARC
  5
62E
330
2
100
AcDbEntity
  8
0
100
AcDbCircle
 10
13.49878944315547
 20
0.8453419777368598
 30
0.0
 40
0.0855
100
AcDbArc
 50
89.99983493434672
 51
270.0001650656533
  0
ARC
  5
62F
330
2
100
AcDbEntity
  8
0
100
AcDbCircle
 10
13.51915687326648
 20
0.8453419777368598
 30
0.0
 40
0.0855
100
AcDbArc
 50
89.99983493434672
 51
270.0001650656533
  0
ARC
  5
630
330
2
100
AcDbEntity
  8
0
100
AcDbCircle
 10
13.46703509090592
 20
0.8453419777372151
 30
0.0
 40
0.0855
100
AcDbArc
 50
90.0
 51
270.0
  0
LINE
  5
631
330
2
100
AcDbEntity
  8
0
100
AcDbLine
 10
13.46703509090592
 20
0.7598419777372154
 30
0.0
 11
13.65453509090592
 21
0.7598419777372154
 31
0.0
  0
LINE
  5
632
330
2
100
AcDbEntity
  8
0
100
AcDbLine
 10
13.46703509090592
 20
0.9308419777372148
 30
0.0
 11
13.65453509090592
 21
0.9308419777372148
 31
0.0
  0
LINE
  5
633
330
2
100
AcDbEntity
  8
0
100
AcDbLine
 10
13.67103509090592
 20
1.923029512960328
 30
0.0
 11
13.67103509090592
 21
1.773403119899117
 31
0.0
  0
ARC
  5
634
330
2
100
AcDbEntity
  8
0
100
AcDbCircle
 10
13.52385704944594
 20
1.84534197773686
 30
0.0
 40
0.0855
100
AcDbArc
 50
89.99983493434672
 51
270.0001650656533
  0
ARC
  5
635
330
2
100
AcDbEntity
  8
0
100
AcDbCircle
 10
13.50348961933494
 20
1.84534197773686
 30
0.0
 40
0.0855
100
AcDbArc
 50
89.99983493434672
 51
270.0001650656533
  0
ARC
  5
636
330
2
100
AcDbEntity
  8
0
100
AcDbCircle
 10
13.46703509090592
 20
1.845341977737215
 30
0.0
 40
0.0855
100
AcDbArc
 50
90.0
 51
270.0
  0
LINE
  5
637
330
2
100
AcDbEntity
  8
0
100
AcDbLine
 10
13.46703509090592
 20
1.930841977737215
 30
0.0
 11
13.65453509090592
 21
1.930841977737215
 31
0.0
  0
LINE
  5
638
330
2
100
AcDbEntity
  8
0
100
AcDbLine
 10
13.46703509090592
 20
1.759841977737215
 30
0.0
 11
13.65453509090592
 21
1.759841977737215
 31
0.0
  0
ARC
  5
639
330
2
100
AcDbEntity
  8
0
100
AcDbCircle
 10
13.50348961933502
 20
2.845341977737574
 30
0.0
 40
0.0855
100
AcDbArc
 50
89.99983493434672
 51
270.0001650656533
  0
ARC
  5
63A
330
2
100
AcDbEntity
  8
0
100
AcDbCircle
 10
13.52385704944603
 20
2.845341977737574
 30
0.0
 40
0.0855
100
AcDbArc
 50
89.99983493434672
 51
270.0001650656533
  0
LINE
  5
63B
330
2
100
AcDbEntity
  8
0
100
AcDbLine
 10
13.67103509090592
 20
2.90707763993465
 30
0.0
 11
13.67103509090592
 21
2.757451246873439
 31
0.0
  0
ARC
  5
63C
330
2
100
AcDbEntity
  8
0
100
AcDbCircle
 10
13.46703509090592
 20
2.845341977737215
 30
0.0
 40
0.0855
100
AcDbArc
 50
90.0
 51
270.0
  0
LINE
  5
63D
330
2
100
AcDbEntity
  8
0
100
AcDbLine
 10
13.46703509090592
 20
2.930841977737218
 30
0.0
 11
13.65453509090592
 21
2.930841977737218
 31
0.0
  0
LINE
  5
63E
330
2
100
AcDbEntity
  8
0
100
AcDbLine
 10
13.46703509090592
 20
2.759841977737219
 30
0.0
 11
13.65453509090592
 21
2.759841977737219
 31
0.0
  0
LINE
  5
640
330
2
100
AcDbEntity
  8
0
100
AcDbLine
 10
-13.0532400140592
 20
5.674170185445451
 30
0.0
 11
-13.0532400140592
 21
5.027723576038728
 31
0.0
  0
LINE
  5
641
330
2
100
AcDbEntity
  8
0
  6
Continuous
100
AcDbLine
 10
-14.42103509090592
 20
0.3325529292419986
 30
0.0
 11
-14.42103509090592
 21
6.593750000000004
 31
0.0
  0
LINE
  5
642
330
2
100
AcDbEntity
  8
0
  6
Continuous
100
AcDbLine
 10
-14.51478509090592
 20
0.4066565610497506
 30
0.0
 11
-14.51478509090591
 21
12.59375
 31
0.0
  0
ARC
  5
643
330
2
100
AcDbEntity
  8
0
100
AcDbCircle
 10
-14.931514773626
 20
-0.2169108944352409
 30
0.0
 40
0.75
100
AcDbArc
 50
16.81093668363816
 51
56.24522144191531
  0
ARC
  5
644
330
2
100
AcDbEntity
  8
0
100
AcDbCircle
 10
-10.9907400140593
 20
-0.0847132910377439
 30
0.0
 40
0.7500000000000752
100
AcDbArc
 50
6.485459088258378
 51
44.99999999999838
  0
LINE
  5
645
330
2
100
AcDbEntity
  8
0
  6
Continuous
100
AcDbLine
 10
-14.21356654159579
 20
0.0
 30
0.0
 11
-10.2455395991898
 21
0.0
 31
0.0
  0
LINE
  5
646
330
2
100
AcDbEntity
  8
0
  6
DASHED
100
AcDbLine
 10
-14.24888031165627
 20
0.09375
 30
0.0
 11
-10.26228215408928
 21
0.09375
 31
0.0
  0
ARC
  5
647
330
2
100
AcDbEntity
  8
0
100
AcDbCircle
 10
-9.490740014059202
 20
4.072140958454661
 30
0.0
 40
3.25
100
AcDbArc
 50
180.0
 51
225.0000000000006
  0
LINE
  5
648
330
2
100
AcDbEntity
  8
0
100
AcDbLine
 10
-11.78883705291549
 20
1.774043919598334
 30
0.0
 11
-10.46040992816932
 21
0.4456167948521781
 31
0.0
  0
LINE
  5
649
330
2
100
AcDbEntity
  8
0
100
AcDbLine
 10
-12.7407400140592
 20
4.072140958454661
 30
0.0
 11
-12.7407400140592
 21
4.611670185445455
 31
0.0
  0
LINE
  5
64A
330
2
100
AcDbEntity
  8
0
100
AcDbLine
 10
-13.01662836170752
 20
4.939335228390409
 30
0.0
 11
-12.77735166641088
 21
4.70005853309377
 31
0.0
  0
ARC
  5
64B
330
2
100
AcDbEntity
  8
0
100
AcDbCircle
 10
-12.8657400140592
 20
4.611670185445451
 30
0.0
 40
0.125
100
AcDbArc
 50
0.000000000000007
 51
45.00000000000016
  0
ARC
  5
64C
330
2
100
AcDbEntity
  8
0
100
AcDbCircle
 10
-12.9282400140592
 20
5.027723576038728
 30
0.0
 40
0.125
100
AcDbArc
 50
180.0
 51
225.0000000000002
  0
LINE
  5
64D
330
2
100
AcDbEntity
  8
0
100
AcDbLine
 10
-12.7407400140592
 20
10.09022357603873
 30
0.0
 11
-12.7407400140592
 21
10.59375
 31
0.0
  0
LINE
  5
64E
330
2
100
AcDbEntity
  8
0
100
AcDbLine
 10
-12.7407400140592
 20
10.59375
 30
0.0
 11
-12.7407400140592
 21
10.09022331999445
 31
0.0
  0
LINE
  5
64F
330
2
100
AcDbEntity
  8
0
100
AcDbLine
 10
-14.42103509090592
 20
12.59375
 30
0.0
 11
-14.42103509090592
 21
6.293749999999999
 31
0.0
  0
LINE
  5
650
330
2
100
AcDbEntity
  8
0
100
AcDbLine
 10
-12.77735166641088
 20
8.001835228390409
 30
0.0
 11
-13.01662836170752
 21
7.76255853309377
 31
0.0
  0
ARC
  5
651
330
2
100
AcDbEntity
  8
0
100
AcDbCircle
 10
-12.8657400140592
 20
6.611670185445451
 30
0.0
 40
0.125
100
AcDbArc
 50
0.000000000000007
 51
45.00000000000016
  0
ARC
  5
652
330
2
100
AcDbEntity
  8
0
100
AcDbCircle
 10
-12.8657400140592
 20
6.090223576038728
 30
0.0
 40
0.125
100
AcDbArc
 50
314.9999999999999
 51
0.000000000000007
  0
LINE
  5
653
330
2
100
AcDbEntity
  8
0
100
AcDbLine
 10
-12.77735166641088
 20
6.001835228390409
 30
0.0
 11
-13.01662836170752
 21
5.76255853309377
 31
0.0
  0
ARC
  5
654
330
2
100
AcDbEntity
  8
0
100
AcDbCircle
 10
-12.9282400140592
 20
5.674170185445451
 30
0.0
 40
0.125
100
AcDbArc
 50
134.9999999999999
 51
180.0
  0
LINE
  5
655
330
2
100
AcDbEntity
  8
0
100
AcDbLine
 10
-12.7407400140592
 20
6.593750000000004
 30
0.0
 11
-12.7407400140592
 21
6.090223319994454
 31
0.0
  0
LINE
  5
656
330
2
100
AcDbEntity
  8
0
100
AcDbLine
 10
-12.7407400140592
 20
6.090223576038728
 30
0.0
 11
-12.7407400140592
 21
6.593750000000004
 31
0.0
  0
LINE
  5
657
330
2
100
AcDbEntity
  8
0
100
AcDbLine
 10
-13.0532400140592
 20
7.674170185445451
 30
0.0
 11
-13.0532400140592
 21
7.027723576038728
 31
0.0
  0
ARC
  5
658
330
2
100
AcDbEntity
  8
0
100
AcDbCircle
 10
-12.9282400140592
 20
7.027723576038728
 30
0.0
 40
0.125
100
AcDbArc
 50
180.0
 51
225.0000000000002
  0
LINE
  5
659
330
2
100
AcDbEntity
  8
0
100
AcDbLine
 10
-13.01662836170752
 20
6.939335228390409
 30
0.0
 11
-12.77735166641088
 21
6.70005853309377
 31
0.0
  0
ARC
  5
65A
330
2
100
AcDbEntity
  8
0
100
AcDbCircle
 10
-12.9282400140592
 20
7.674170185445451
 30
0.0
 40
0.125
100
AcDbArc
 50
134.9999999999999
 51
180.0
  0
LINE
  5
65B
330
2
100
AcDbEntity
  8
0
100
AcDbLine
 10
-13.0532400140592
 20
9.674170185445451
 30
0.0
 11
-13.0532400140592
 21
9.027723576038728
 31
0.0
  0
LINE
  5
65C
330
2
100
AcDbEntity
  8
0
100
AcDbLine
 10
-12.7407400140592
 20
8.090223576038728
 30
0.0
 11
-12.7407400140592
 21
8.593750000000004
 31
0.0
  0
LINE
  5
65D
330
2
100
AcDbEntity
  8
0
100
AcDbLine
 10
-12.7407400140592
 20
8.593750000000004
 30
0.0
 11
-12.7407400140592
 21
8.090223319994454
 31
0.0
  0
ARC
  5
65E
330
2
100
AcDbEntity
  8
0
100
AcDbCircle
 10
-12.8657400140592
 20
8.090223576038728
 30
0.0
 40
0.125
100
AcDbArc
 50
314.9999999999999
 51
0.000000000000007
  0
ARC
  5
65F
330
2
100
AcDbEntity
  8
0
100
AcDbCircle
 10
-12.9282400140592
 20
9.027723576038728
 30
0.0
 40
0.125
100
AcDbArc
 50
180.0
 51
225.0000000000002
  0
LINE
  5
660
330
2
100
AcDbEntity
  8
0
100
AcDbLine
 10
-13.01662836170752
 20
8.939335228390409
 30
0.0
 11
-12.77735166641088
 21
8.70005853309377
 31
0.0
  0
ARC
  5
661
330
2
100
AcDbEntity
  8
0
100
AcDbCircle
 10
-12.8657400140592
 20
8.611670185445451
 30
0.0
 40
0.125
100
AcDbArc
 50
0.000000000000007
 51
45.00000000000016
  0
ARC
  5
662
330
2
100
AcDbEntity
  8
0
100
AcDbCircle
 10
-12.9282400140592
 20
9.674170185445451
 30
0.0
 40
0.125
100
AcDbArc
 50
134.9999999999999
 51
180.0
  0
ARC
  5
663
330
2
100
AcDbEntity
  8
0
100
AcDbCircle
 10
-12.8657400140592
 20
10.09022357603873
 30
0.0
 40
0.125
100
AcDbArc
 50
314.9999999999999
 51
0.000000000000007
  0
LINE
  5
664
330
2
100
AcDbEntity
  8
0
100
AcDbLine
 10
-12.77735166641088
 20
10.00183522839041
 30
0.0
 11
-13.01662836170752
 21
9.76255853309377
 31
0.0
  0
LINE
  5
665
330
2
100
AcDbEntity
  8
0
100
AcDbLine
 10
-13.0532400140592
 20
11.67417018544545
 30
0.0
 11
-13.0532400140592
 21
11.02772357603873
 31
0.0
  0
ARC
  5
666
330
2
100
AcDbEntity
  8
0
100
AcDbCircle
 10
-12.9282400140592
 20
11.02772357603873
 30
0.0
 40
0.125
100
AcDbArc
 50
180.0
 51
225.0000000000002
  0
LINE
  5
667
330
2
100
AcDbEntity
  8
0
100
AcDbLine
 10
-13.01662836170752
 20
10.93933522839041
 30
0.0
 11
-12.77735166641088
 21
10.70005853309377
 31
0.0
  0
ARC
  5
668
330
2
100
AcDbEntity
  8
0
100
AcDbCircle
 10
-12.8657400140592
 20
10.61167018544545
 30
0.0
 40
0.125
100
AcDbArc
 50
0.000000000000007
 51
45.00000000000016
  0
LINE
  5
669
330
2
100
AcDbEntity
  8
0
100
AcDbLine
 10
-12.7407400140592
 20
12.59375
 30
0.0
 11
-14.51478509090592
 21
12.59375
 31
0.0
  0
LINE
  5
66A
330
2
100
AcDbEntity
  8
0
100
AcDbLine
 10
-12.7407400140592
 20
12.59375
 30
0.0
 11
-12.7407400140592
 21
12.09022331999445
 31
0.0
  0
LINE
  5
66B
330
2
100
AcDbEntity
  8
0
100
AcDbLine
 10
-12.7407400140592
 20
12.09022357603873
 30
0.0
 11
-12.7407400140592
 21
12.59375
 31
0.0
  0
ARC
  5
66C
330
2
100
AcDbEntity
  8
0
100
AcDbCircle
 10
-12.8657400140592
 20
12.09022357603873
 30
0.0
 40
0.125
100
AcDbArc
 50
314.9999999999999
 51
0.000000000000007
  0
ARC
  5
66D
330
2
100
AcDbEntity
  8
0
100
AcDbCircle
 10
-12.9282400140592
 20
11.67417018544545
 30
0.0
 40
0.125
100
AcDbArc
 50
134.9999999999999
 51
180.0
  0
LINE
  5
66E
330
2
100
AcDbEntity
  8
0
100
AcDbLine
 10
-12.77735166641088
 20
12.00183522839041
 30
0.0
 11
-13.01662836170752
 21
11.76255853309377
 31
0.0
  0
LINE
  5
66F
330
2
100
AcDbEntity
  8
0
100
AcDbLine
 10
-13.68753509090593
 20
3.923511346231662
 30
0.0
 11
-13.68753509090593
 21
3.77388495317045
 31
0.0
  0
ARC
  5
670
330
2
100
AcDbEntity
  8
0
100
AcDbCircle
 10
-13.51528944315547
 20
3.845341977736856
 30
0.0
 40
0.0855
100
AcDbArc
 50
269.9998349343467
 51
90.00016506565328
  0
ARC
  5
671
330
2
100
AcDbEntity
  8
0
100
AcDbCircle
 10
-13.53565687326648
 20
3.845341977736856
 30
0.0
 40
0.0855
100
AcDbArc
 50
269.9998349343467
 51
90.00016506565328
  0
ARC
  5
672
330
2
100
AcDbEntity
  8
0
100
AcDbCircle
 10
-13.48353509090592
 20
3.845341977737212
 30
0.0
 40
0.0855
100
AcDbArc
 50
270.0
 51
90.0
  0
LINE
  5
673
330
2
100
AcDbEntity
  8
0
100
AcDbLine
 10
-13.48353509090592
 20
3.759841977737212
 30
0.0
 11
-13.67103509090592
 21
3.759841977737212
 31
0.0
  0
LINE
  5
674
330
2
100
AcDbEntity
  8
0
100
AcDbLine
 10
-13.48353509090592
 20
3.930841977737211
 30
0.0
 11
-13.67103509090592
 21
3.930841977737211
 31
0.0
  0
LINE
  5
675
330
2
100
AcDbEntity
  8
0
100
AcDbLine
 10
-13.68753509090593
 20
4.923029512960325
 30
0.0
 11
-13.68753509090593
 21
4.773403119899113
 31
0.0
  0
ARC
  5
676
330
2
100
AcDbEntity
  8
0
100
AcDbCircle
 10
-13.54035704944595
 20
4.845341977736856
 30
0.0
 40
0.0855
100
AcDbArc
 50
269.9998349343467
 51
90.00016506565328
  0
ARC
  5
677
330
2
100
AcDbEntity
  8
0
100
AcDbCircle
 10
-13.51998961933494
 20
4.845341977736856
 30
0.0
 40
0.0855
100
AcDbArc
 50
269.9998349343467
 51
90.00016506565328
  0
ARC
  5
678
330
2
100
AcDbEntity
  8
0
100
AcDbCircle
 10
-13.48353509090592
 20
4.845341977737212
 30
0.0
 40
0.0855
100
AcDbArc
 50
270.0
 51
90.0
  0
LINE
  5
679
330
2
100
AcDbEntity
  8
0
100
AcDbLine
 10
-13.48353509090592
 20
4.930841977737211
 30
0.0
 11
-13.67103509090592
 21
4.930841977737211
 31
0.0
  0
LINE
  5
67A
330
2
100
AcDbEntity
  8
0
100
AcDbLine
 10
-13.48353509090592
 20
4.759841977737212
 30
0.0
 11
-13.67103509090592
 21
4.759841977737212
 31
0.0
  0
ARC
  5
67B
330
2
100
AcDbEntity
  8
0
100
AcDbCircle
 10
-13.51998961933503
 20
5.84534197773757
 30
0.0
 40
0.0855
100
AcDbArc
 50
269.9998349343467
 51
90.00016506565328
  0
ARC
  5
67C
330
2
100
AcDbEntity
  8
0
100
AcDbCircle
 10
-13.54035704944603
 20
5.84534197773757
 30
0.0
 40
0.0855
100
AcDbArc
 50
269.9998349343467
 51
90.00016506565328
  0
LINE
  5
67D
330
2
100
AcDbEntity
  8
0
100
AcDbLine
 10
-13.68753509090593
 20
5.907077639934647
 30
0.0
 11
-13.68753509090593
 21
5.757451246873435
 31
0.0
  0
ARC
  5
67E
330
2
100
AcDbEntity
  8
0
100
AcDbCircle
 10
-13.48353509090592
 20
5.845341977737212
 30
0.0
 40
0.0855
100
AcDbArc
 50
270.0
 51
90.0
  0
LINE
  5
67F
330
2
100
AcDbEntity
  8
0
100
AcDbLine
 10
-13.48353509090592
 20
5.930841977737215
 30
0.0
 11
-13.67103509090592
 21
5.930841977737215
 31
0.0
  0
LINE
  5
680
330
2
100
AcDbEntity
  8
0
100
AcDbLine
 10
-13.48353509090592
 20
5.759841977737215
 30
0.0
 11
-13.67103509090592
 21
5.759841977737215
 31
0.0
  0
LINE
  5
681
330
2
100
AcDbEntity
  8
0
100
AcDbLine
 10
-13.68753509090593
 20
6.923029512960325
 30
0.0
 11
-13.68753509090593
 21
6.773403119899113
 31
0.0
  0
ARC
  5
682
330
2
100
AcDbEntity
  8
0
100
AcDbCircle
 10
-13.48353509090592
 20
6.845341977737212
 30
0.0
 40
0.0855
100
AcDbArc
 50
269.9998349343467
 51
90.00016506565328
  0
LINE
  5
683
330
2
100
AcDbEntity
  8
0
100
AcDbLine
 10
-13.48353509090592
 20
6.930841977737208
 30
0.0
 11
-13.68753509090593
 21
6.930841977737208
 31
0.0
  0
LINE
  5
684
330
2
100
AcDbEntity
  8
0
100
AcDbLine
 10
-13.48353509090592
 20
6.759841977737208
 30
0.0
 11
-13.68753509090593
 21
6.759841977737208
 31
0.0
  0
ARC
  5
685
330
2
100
AcDbEntity
  8
0
100
AcDbCircle
 10
-13.54263641967633
 20
6.845341977737212
 30
0.0
 40
0.0855
100
AcDbArc
 50
269.9998349343467
 51
90.00016506565328
  0
ARC
  5
686
330
2
100
AcDbEntity
  8
0
100
AcDbCircle
 10
-13.52226898956532
 20
6.845341977737212
 30
0.0
 40
0.0855
100
AcDbArc
 50
269.9998349343467
 51
90.00016506565328
  0
ARC
  5
687
330
2
100
AcDbEntity
  8
0
100
AcDbCircle
 10
-13.48353509090592
 20
6.845341977737212
 30
0.0
 40
0.0855
100
AcDbArc
 50
270.0
 51
90.0
  0
LINE
  5
688
330
2
100
AcDbEntity
  8
0
100
AcDbLine
 10
-13.48353509090592
 20
6.930841977737215
 30
0.0
 11
-13.67103509090592
 21
6.930841977737215
 31
0.0
  0
LINE
  5
689
330
2
100
AcDbEntity
  8
0
100
AcDbLine
 10
-13.48353509090592
 20
6.759841977737215
 30
0.0
 11
-13.67103509090592
 21
6.759841977737215
 31
0.0
  0
LINE
  5
68A
330
2
100
AcDbEntity
  8
0
100
AcDbLine
 10
-13.68753509090593
 20
7.923029512960321
 30
0.0
 11
-13.68753509090593
 21
7.773403119899109
 31
0.0
  0
ARC
  5
68B
330
2
100
AcDbEntity
  8
0
100
AcDbCircle
 10
-13.48353509090592
 20
7.845341977737208
 30
0.0
 40
0.0855
100
AcDbArc
 50
270.0
 51
90.0
  0
LINE
  5
68C
330
2
100
AcDbEntity
  8
0
100
AcDbLine
 10
-13.48353509090592
 20
7.759841977737212
 30
0.0
 11
-13.67103509090592
 21
7.759841977737212
 31
0.0
  0
LINE
  5
68D
330
2
100
AcDbEntity
  8
0
100
AcDbLine
 10
-13.48353509090592
 20
7.930841977737211
 30
0.0
 11
-13.67103509090592
 21
7.930841977737211
 31
0.0
  0
ARC
  5
68E
330
2
100
AcDbEntity
  8
0
100
AcDbCircle
 10
-13.52226898956532
 20
7.845341977737208
 30
0.0
 40
0.0855
100
AcDbArc
 50
269.9998349343467
 51
90.00016506565328
  0
ARC
  5
68F
330
2
100
AcDbEntity
  8
0
100
AcDbCircle
 10
-13.54263641967633
 20
7.845341977737208
 30
0.0
 40
0.0855
100
AcDbArc
 50
269.9998349343467
 51
90.00016506565328
  0
LINE
  5
690
330
2
100
AcDbEntity
  8
0
100
AcDbLine
 10
-13.48353509090592
 20
7.759841977737205
 30
0.0
 11
-13.68753509090593
 21
7.759841977737205
 31
0.0
  0
LINE
  5
691
330
2
100
AcDbEntity
  8
0
100
AcDbLine
 10
-13.48353509090592
 20
7.930841977737204
 30
0.0
 11
-13.68753509090593
 21
7.930841977737204
 31
0.0
  0
ARC
  5
692
330
2
100
AcDbEntity
  8
0
100
AcDbCircle
 10
-13.48353509090592
 20
7.845341977737208
 30
0.0
 40
0.0855
100
AcDbArc
 50
269.9998349343467
 51
90.00016506565328
  0
ARC
  5
693
330
2
100
AcDbEntity
  8
0
100
AcDbCircle
 10
-13.48353509090592
 20
8.845341977737208
 30
0.0
 40
0.0855
100
AcDbArc
 50
269.9998349343467
 51
90.00016506565328
  0
LINE
  5
694
330
2
100
AcDbEntity
  8
0
100
AcDbLine
 10
-13.48353509090592
 20
8.930841977737204
 30
0.0
 11
-13.68753509090593
 21
8.930841977737204
 31
0.0
  0
LINE
  5
695
330
2
100
AcDbEntity
  8
0
100
AcDbLine
 10
-13.48353509090592
 20
8.759841977737205
 30
0.0
 11
-13.68753509090593
 21
8.759841977737205
 31
0.0
  0
ARC
  5
696
330
2
100
AcDbEntity
  8
0
100
AcDbCircle
 10
-13.54263641967633
 20
8.845341977737208
 30
0.0
 40
0.0855
100
AcDbArc
 50
269.9998349343467
 51
90.00016506565328
  0
ARC
  5
697
330
2
100
AcDbEntity
  8
0
100
AcDbCircle
 10
-13.52226898956532
 20
8.845341977737208
 30
0.0
 40
0.0855
100
AcDbArc
 50
269.9998349343467
 51
90.00016506565328
  0
LINE
  5
698
330
2
100
AcDbEntity
  8
0
100
AcDbLine
 10
-13.48353509090592
 20
8.930841977737211
 30
0.0
 11
-13.67103509090592
 21
8.930841977737211
 31
0.0
  0
LINE
  5
699
330
2
100
AcDbEntity
  8
0
100
AcDbLine
 10
-13.48353509090592
 20
8.759841977737212
 30
0.0
 11
-13.67103509090592
 21
8.759841977737212
 31
0.0
  0
ARC
  5
69A
330
2
100
AcDbEntity
  8
0
100
AcDbCircle
 10
-13.48353509090592
 20
8.845341977737208
 30
0.0
 40
0.0855
100
AcDbArc
 50
270.0
 51
90.0
  0
LINE
  5
69B
330
2
100
AcDbEntity
  8
0
100
AcDbLine
 10
-13.68753509090593
 20
8.923029512960321
 30
0.0
 11
-13.68753509090593
 21
8.773403119899109
 31
0.0
  0
LINE
  5
69C
330
2
100
AcDbEntity
  8
0
100
AcDbLine
 10
-13.48353509090592
 20
9.759841977737205
 30
0.0
 11
-13.68753509090593
 21
9.759841977737205
 31
0.0
  0
ARC
  5
69D
330
2
100
AcDbEntity
  8
0
100
AcDbCircle
 10
-13.54263641967633
 20
9.845341977737208
 30
0.0
 40
0.0855
100
AcDbArc
 50
269.9998349343467
 51
90.00016506565328
  0
ARC
  5
69E
330
2
100
AcDbEntity
  8
0
100
AcDbCircle
 10
-13.52226898956532
 20
9.845341977737208
 30
0.0
 40
0.0855
100
AcDbArc
 50
269.9998349343467
 51
90.00016506565328
  0
LINE
  5
69F
330
2
100
AcDbEntity
  8
0
100
AcDbLine
 10
-13.48353509090592
 20
9.930841977737211
 30
0.0
 11
-13.67103509090592
 21
9.930841977737211
 31
0.0
  0
LINE
  5
6A0
330
2
100
AcDbEntity
  8
0
100
AcDbLine
 10
-13.48353509090592
 20
9.759841977737212
 30
0.0
 11
-13.67103509090592
 21
9.759841977737212
 31
0.0
  0
ARC
  5
6A1
330
2
100
AcDbEntity
  8
0
100
AcDbCircle
 10
-13.48353509090592
 20
9.845341977737208
 30
0.0
 40
0.0855
100
AcDbArc
 50
270.0
 51
90.0
  0
LINE
  5
6A2
330
2
100
AcDbEntity
  8
0
100
AcDbLine
 10
-13.68753509090593
 20
9.923029512960321
 30
0.0
 11
-13.68753509090593
 21
9.773403119899109
 31
0.0
  0
LINE
  5
6A3
330
2
100
AcDbEntity
  8
0
100
AcDbLine
 10
-13.68753509090593
 20
10.92302951296032
 30
0.0
 11
-13.68753509090593
 21
10.77340311989911
 31
0.0
  0
ARC
  5
6A4
330
2
100
AcDbEntity
  8
0
100
AcDbCircle
 10
-13.48353509090592
 20
10.84534197773721
 30
0.0
 40
0.0855
100
AcDbArc
 50
270.0
 51
90.0
  0
ARC
  5
6A5
330
2
100
AcDbEntity
  8
0
100
AcDbCircle
 10
-13.52226898956532
 20
10.84534197773721
 30
0.0
 40
0.0855
100
AcDbArc
 50
269.9998349343467
 51
90.00016506565328
  0
ARC
  5
6A6
330
2
100
AcDbEntity
  8
0
100
AcDbCircle
 10
-13.54263641967633
 20
10.84534197773721
 30
0.0
 40
0.0855
100
AcDbArc
 50
269.9998349343467
 51
90.00016506565328
  0
LINE
  5
6A7
330
2
100
AcDbEntity
  8
0
100
AcDbLine
 10
-13.48353509090592
 20
10.75984197773721
 30
0.0
 11
-13.67103509090592
 21
10.75984197773721
 31
0.0
  0
LINE
  5
6A8
330
2
100
AcDbEntity
  8
0
100
AcDbLine
 10
-13.48353509090592
 20
10.75984197773721
 30
0.0
 11
-13.68753509090593
 21
10.75984197773721
 31
0.0
  0
LINE
  5
6A9
330
2
100
AcDbEntity
  8
0
100
AcDbLine
 10
-13.48353509090592
 20
10.93084197773721
 30
0.0
 11
-13.67103509090592
 21
10.93084197773721
 31
0.0
  0
LINE
  5
6AA
330
2
100
AcDbEntity
  8
0
100
AcDbLine
 10
-13.67103509090592
 20
0.9235113462316651
 30
0.0
 11
-13.67103509090592
 21
0.7738849531704535
 31
0.0
  0
ARC
  5
6AB
330
2
100
AcDbEntity
  8
0
100
AcDbCircle
 10
-13.49878944315546
 20
0.8453419777368598
 30
0.0
 40
0.0855
100
AcDbArc
 50
269.9998349343467
 51
90.00016506565328
  0
ARC
  5
6AC
330
2
100
AcDbEntity
  8
0
100
AcDbCircle
 10
-13.51915687326647
 20
0.8453419777368598
 30
0.0
 40
0.0855
100
AcDbArc
 50
269.9998349343467
 51
90.00016506565328
  0
ARC
  5
6AD
330
2
100
AcDbEntity
  8
0
100
AcDbCircle
 10
-13.46703509090591
 20
0.8453419777372151
 30
0.0
 40
0.0855
100
AcDbArc
 50
270.0
 51
90.0
  0
LINE
  5
6AE
330
2
100
AcDbEntity
  8
0
100
AcDbLine
 10
-13.46703509090591
 20
0.7598419777372154
 30
0.0
 11
-13.65453509090591
 21
0.7598419777372154
 31
0.0
  0
LINE
  5
6AF
330
2
100
AcDbEntity
  8
0
100
AcDbLine
 10
-13.46703509090591
 20
0.9308419777372148
 30
0.0
 11
-13.65453509090591
 21
0.9308419777372148
 31
0.0
  0
LINE
  5
6B0
330
2
100
AcDbEntity
  8
0
100
AcDbLine
 10
-13.67103509090592
 20
1.923029512960328
 30
0.0
 11
-13.67103509090592
 21
1.773403119899117
 31
0.0
  0
ARC
  5
6B1
330
2
100
AcDbEntity
  8
0
100
AcDbCircle
 10
-13.52385704944594
 20
1.84534197773686
 30
0.0
 40
0.0855
100
AcDbArc
 50
269.9998349343467
 51
90.00016506565328
  0
ARC
  5
6B2
330
2
100
AcDbEntity
  8
0
100
AcDbCircle
 10
-13.50348961933493
 20
1.84534197773686
 30
0.0
 40
0.0855
100
AcDbArc
 50
269.9998349343467
 51
90.00016506565328
  0
ARC
  5
6B3
330
2
100
AcDbEntity
  8
0
100
AcDbCircle
 10
-13.46703509090591
 20
1.845341977737215
 30
0.0
 40
0.0855
100
AcDbArc
 50
270.0
 51
90.0
  0
LINE
  5
6B4
330
2
100
AcDbEntity
  8
0
100
AcDbLine
 10
-13.46703509090591
 20
1.930841977737215
 30
0.0
 11
-13.65453509090591
 21
1.930841977737215
 31
0.0
  0
LINE
  5
6B5
330
2
100
AcDbEntity
  8
0
100
AcDbLine
 10
-13.46703509090591
 20
1.759841977737215
 30
0.0
 11
-13.65453509090591
 21
1.759841977737215
 31
0.0
  0
ARC
  5
6B6
330
2
100
AcDbEntity
  8
0
100
AcDbCircle
 10
-13.50348961933502
 20
2.845341977737574
 30
0.0
 40
0.0855
100
AcDbArc
 50
269.9998349343467
 51
90.00016506565328
  0
ARC
  5
6B7
330
2
100
AcDbEntity
  8
0
100
AcDbCircle
 10
-13.52385704944603
 20
2.845341977737574
 30
0.0
 40
0.0855
100
AcDbArc
 50
269.9998349343467
 51
90.00016506565328
  0
LINE
  5
6B8
330
2
100
AcDbEntity
  8
0
100
AcDbLine
 10
-13.67103509090592
 20
2.90707763993465
 30
0.0
 11
-13.67103509090592
 21
2.757451246873439
 31
0.0
  0
ARC
  5
6B9
330
2
100
AcDbEntity
  8
0
100
AcDbCircle
 10
-13.46703509090591
 20
2.845341977737215
 30
0.0
 40
0.0855
100
AcDbArc
 50
270.0
 51
90.0
  0
LINE
  5
6BA
330
2
100
AcDbEntity
  8
0
100
AcDbLine
 10
-13.46703509090591
 20
2.930841977737218
 30
0.0
 11
-13.65453509090591
 21
2.930841977737218
 31
0.0
  0
LINE
  5
6BB
330
2
100
AcDbEntity
  8
0
100
AcDbLine
 10
-13.46703509090591
 20
2.759841977737219
 30
0.0
 11
-13.65453509090591
 21
2.759841977737219
 31
0.0
  0
ENDSEC
  0
SECTION
  2
OBJECTS
  0
DICTIONARY
  5
9
330
0
100
AcDbDictionary
281
     1
  3
ACAD_COLOR
350
1F1
  3
ACAD_GROUP
350
23
  3
ACAD_LAYOUT
350
D
  3
ACAD_MATERIAL
350
1F0
  3
ACAD_MLINESTYLE
350
24
  3
ACAD_PLOTSETTINGS
350
25
  3
ACAD_PLOTSTYLENAME
350
8
  3
ACAD_TABLESTYLE
350
1F2
  3
ACDBHEADERROUNDTRIPXREC
350
6CF
  3
AcDbVariableDictionary
350
1EC
  0
DICTIONARY
  5
3
330
2
100
AcDbDictionary
280
     1
281
     1
  3
ACAD_SORTENTS
360
1F9
  0
DICTIONARY
  5
1F1
102
{ACAD_REACTORS
330
9
102
}
330
9
100
AcDbDictionary
281
     1
  0
DICTIONARY
  5
23
102
{ACAD_REACTORS
330
9
102
}
330
9
100
AcDbDictionary
281
     1
  0
DICTIONARY
  5
D
102
{ACAD_REACTORS
330
9
102
}
330
9
100
AcDbDictionary
281
     1
  3
Layout1
350
13
  3
Model
350
C
  0
DICTIONARY
  5
1F0
102
{ACAD_REACTORS
330
9
102
}
330
9
100
AcDbDictionary
281
     1
  0
DICTIONARY
  5
24
102
{ACAD_REACTORS
330
9
102
}
330
9
100
AcDbDictionary
281
     1
  3
STANDARD
350
27
  0
DICTIONARY
  5
25
102
{ACAD_REACTORS
330
9
102
}
330
9
100
AcDbDictionary
281
     1
  0
ACDBDICTIONARYWDFLT
  5
8
102
{ACAD_REACTORS
330
9
102
}
330
9
100
AcDbDictionary
281
     1
  3
Normal
350
7
100
AcDbDictionaryWithDefault
340
7
  0
DICTIONARY
  5
1F2
102
{ACAD_REACTORS
330
9
102
}
330
9
100
AcDbDictionary
281
     1
  3
Standard
350
1F3
  0
DICTIONARY
  5
6CF
102
{ACAD_REACTORS
330
9
102
}
330
9
100
AcDbDictionary
281
     1
  3
COLORDICT
350
6D0
  3
MATERIALDICT
350
6D1
  0
DICTIONARY
  5
1EC
102
{ACAD_REACTORS
330
9
102
}
330
9
100
AcDbDictionary
281
     1
  3
CTABLESTYLE
350
3A7
  3
HIDETEXT
350
6CE
  0
SORTENTSTABLE
  5
1F9
102
{ACAD_REACTORS
330
3
102
}
330
3
100
AcDbSortentsTable
330
2
331
263
  5
33D
331
259
  5
333
331
25D
  5
337
331
2BD
  5
24F
331
32F
  5
2C1
331
29E
  5
230
331
217
  5
35F
331
35C
  5
2EE
331
284
  5
216
331
2C2
  5
254
331
35B
  5
2ED
331
35E
  5
2F0
331
346
  5
2D8
331
2AD
  5
23F
331
2C4
  5
256
331
2CC
  5
25E
331
327
  5
2B9
331
248
  5
390
331
33F
  5
2D1
331
292
  5
224
331
355
  5
2E7
331
311
  5
2A3
331
2F1
  5
283
331
313
  5
2A5
331
32E
  5
2C0
331
22E
  5
376
331
23C
  5
384
331
2FF
  5
291
331
34A
  5
2DC
331
32A
  5
2BC
331
28B
  5
21D
331
362
  5
2F4
331
33D
  5
2CF
331
29F
  5
231
331
391
  5
323
331
29B
  5
22D
331
2A2
  5
234
331
374
  5
306
331
2BE
  5
250
331
32C
  5
2BE
331
299
  5
22B
331
273
  5
205
331
28D
  5
21F
331
202
  5
34A
331
272
  5
204
331
38C
  5
31E
331
315
  5
2A7
331
260
  5
33A
331
30A
  5
29C
331
330
  5
2C2
331
2F6
  5
288
331
2E4
  5
276
331
322
  5
2B4
331
375
  5
307
331
381
  5
313
331
332
  5
2C4
331
34C
  5
2DE
331
393
  5
325
331
29A
  5
22C
331
36D
  5
2FF
331
25E
  5
338
331
389
  5
31B
331
201
  5
349
331
23A
  5
382
331
2CF
  5
261
331
27D
  5
20F
331
2A9
  5
23B
331
350
  5
2E2
331
30B
  5
29D
331
383
  5
315
331
1FE
  5
346
331
271
  5
203
331
379
  5
30B
331
340
  5
2D2
331
2C0
  5
252
331
354
  5
2E6
331
235
  5
37D
331
22F
  5
377
331
274
  5
206
331
287
  5
219
331
286
  5
218
331
392
  5
324
331
247
  5
38F
331
324
  5
2B6
331
277
  5
209
331
31C
  5
2AE
331
33A
  5
2CC
331
218
  5
360
331
2D5
  5
267
331
23B
  5
383
331
318
  5
2AA
331
310
  5
2A2
331
372
  5
304
331
26C
  5
1FE
331
27C
  5
20E
331
39A
  5
32C
331
2D0
  5
262
331
219
  5
361
331
282
  5
214
331
2B2
  5
244
331
2E7
  5
279
331
317
  5
2A9
331
267
  5
341
331
366
  5
2F8
331
2B1
  5
243
331
26D
  5
1FF
331
316
  5
2A8
331
2FB
  5
28D
331
301
  5
293
331
370
  5
302
331
30F
  5
2A1
331
27F
  5
211
331
334
  5
2C6
331
30D
  5
29F
331
365
  5
2F7
331
2B4
  5
246
331
38E
  5
320
331
369
  5
2FB
331
387
  5
319
331
258
  5
3A0
331
31E
  5
2B0
331
205
  5
34D
331
2F4
  5
286
331
254
  5
39C
331
303
  5
295
331
32B
  5
2BD
331
35F
  5
2F1
331
297
  5
229
331
261
  5
33B
331
388
  5
31A
331
320
  5
2B2
331
2B9
  5
24B
331
2E3
  5
275
331
31F
  5
2B1
331
2E5
  5
277
331
319
  5
2AB
331
385
  5
317
331
38D
  5
31F
331
2F9
  5
28B
331
2E6
  5
278
331
384
  5
316
331
2FD
  5
28F
331
31A
  5
2AC
331
2EC
  5
27E
331
2CA
  5
25C
331
2A0
  5
232
331
2E1
  5
273
331
328
  5
2BA
331
291
  5
223
331
276
  5
208
331
2F8
  5
28A
331
265
  5
33F
331
2C1
  5
253
331
326
  5
2B8
331
34D
  5
2DF
331
304
  5
296
331
24D
  5
395
331
382
  5
314
331
2DD
  5
26F
331
2F7
  5
289
331
289
  5
21B
331
36F
  5
301
331
38B
  5
31D
331
325
  5
2B7
331
306
  5
298
331
2EE
  5
280
331
256
  5
39E
331
229
  5
371
331
38A
  5
31C
331
353
  5
2E5
331
2BC
  5
24E
331
37F
  5
311
331
2EF
  5
281
331
339
  5
2CB
331
230
  5
378
331
2D4
  5
266
331
2C7
  5
259
331
33C
  5
2CE
331
2B7
  5
249
331
1FF
  5
347
331
2C9
  5
25B
331
399
  5
32B
331
239
  5
381
331
2CE
  5
260
331
39D
  5
32F
331
35A
  5
2EC
331
35D
  5
2EF
331
33E
  5
2D0
331
376
  5
308
331
348
  5
2DA
331
34E
  5
2E0
331
206
  5
34E
331
23E
  5
386
331
331
  5
2C3
331
278
  5
20A
331
349
  5
2DB
331
321
  5
2B3
331
29C
  5
22E
331
285
  5
217
331
225
  5
36D
331
2AC
  5
23E
331
358
  5
2EA
331
312
  5
2A4
331
338
  5
2CA
331
360
  5
2F2
331
280
  5
212
331
2D3
  5
265
331
396
  5
328
331
2AB
  5
23D
331
220
  5
368
331
2D1
  5
263
331
37D
  5
30F
331
386
  5
318
331
21B
  5
363
331
347
  5
2D9
331
2E2
  5
274
331
2AE
  5
240
331
2E8
  5
27A
331
371
  5
303
331
356
  5
2E8
331
234
  5
37C
331
203
  5
34B
331
359
  5
2EB
331
29D
  5
22F
331
323
  5
2B5
331
253
  5
39B
331
2A3
  5
235
331
24A
  5
392
331
39F
  5
331
331
21F
  5
367
331
25A
  5
334
331
351
  5
2E3
331
2EA
  5
27C
331
367
  5
2F9
331
224
  5
36C
331
30C
  5
29E
331
246
  5
38E
331
279
  5
20B
331
2CD
  5
25F
331
36A
  5
2FC
331
336
  5
2C8
331
2BF
  5
251
331
32D
  5
2BF
331
2DB
  5
26D
331
2B5
  5
247
331
33B
  5
2CD
331
2C5
  5
257
331
262
  5
33C
331
2B8
  5
24A
331
28F
  5
221
331
2F2
  5
284
331
2D9
  5
26B
331
337
  5
2C9
331
368
  5
2FA
331
25B
  5
335
331
335
  5
2C7
331
31D
  5
2AF
331
21C
  5
364
331
37A
  5
30C
331
2AA
  5
23C
331
2FE
  5
290
331
34B
  5
2DD
331
300
  5
292
331
2BB
  5
24D
331
307
  5
299
331
20E
  5
356
331
223
  5
36B
331
22A
  5
372
331
2A8
  5
23A
331
364
  5
2F6
331
390
  5
322
331
2A4
  5
236
331
275
  5
207
331
37E
  5
310
331
380
  5
312
331
27E
  5
210
331
24F
  5
397
331
296
  5
228
331
305
  5
297
331
38F
  5
321
331
2BA
  5
24C
331
329
  5
2BB
331
2C6
  5
258
331
34F
  5
2E1
331
257
  5
39F
331
26A
  5
344
331
39C
  5
32E
331
357
  5
2E9
331
266
  5
340
331
30E
  5
2A0
331
361
  5
2F3
331
2B6
  5
248
331
2DF
  5
271
331
268
  5
342
331
2D2
  5
264
331
36C
  5
2FE
331
25C
  5
336
331
2D6
  5
268
331
2E9
  5
27B
331
21D
  5
365
331
39B
  5
32D
331
352
  5
2E4
331
309
  5
29B
331
26E
  5
200
331
341
  5
2D3
331
255
  5
39D
331
36E
  5
300
331
36B
  5
2FD
331
200
  5
348
331
39E
  5
330
331
281
  5
213
331
24E
  5
396
331
2B3
  5
245
331
290
  5
222
331
1FD
  5
345
331
308
  5
29A
331
2EB
  5
27D
331
37C
  5
30E
331
2FC
  5
28E
331
28A
  5
21C
331
2B0
  5
242
331
373
  5
305
331
2F5
  5
287
331
394
  5
326
331
2F3
  5
285
331
23D
  5
385
331
270
  5
202
331
2A1
  5
233
331
2F0
  5
282
331
2ED
  5
27F
331
2C3
  5
255
331
302
  5
294
331
2FA
  5
28C
331
283
  5
215
331
343
  5
2D5
331
333
  5
2C5
331
288
  5
21A
331
363
  5
2F5
331
2C8
  5
25A
331
2CB
  5
25D
331
37B
  5
30D
331
2DA
  5
26C
331
269
  5
343
  0
LAYOUT
  5
13
102
{ACAD_REACTORS
330
D
102
}
102
{ACAD_XDICTIONARY
360
6D2
102
}
330
D
100
AcDbPlotSettings
  1

  2
HP LaserJet 2100 Series PS
  4

  6

 40
0.0
 41
0.0
 42
0.0
 43
0.0
 44
0.0
 45
0.0
 46
0.0
 47
0.0
 48
0.0
 49
0.0
140
0.0
141
0.0
142
1.0
143
1.0
 70
   688
 72
     0
 73
     0
 74
     5
  7

 75
    16
147
1.0
148
0.0
149
0.0
100
AcDbLayout
  1
Layout1
 70
     0
 71
     1
 10
0.0
 20
0.0
 11
12.0
 21
9.0
 12
0.0
 22
0.0
 32
0.0
 14
1.000000000000000E+20
 24
1.000000000000000E+20
 34
1.000000000000000E+20
 15
-1.000000000000000E+20
 25
-1.000000000000000E+20
 35
-1.000000000000000E+20
146
0.0
 13
0.0
 23
0.0
 33
0.0
 16
1.0
 26
0.0
 36
0.0
 17
0.0
 27
1.0
 37
0.0
 76
     0
330
E
  0
LAYOUT
  5
C
102
{ACAD_REACTORS
330
D
102
}
102
{ACAD_XDICTIONARY
360
6D4
102
}
330
D
100
AcDbPlotSettings
  1

  2
HP LaserJet 2100 Series PS
  4
Letter
  6

 40
5.365749835968018
 41
5.408084392547607
 42
5.4080810546875
 43
5.365753173828125
 44
215.8999938964844
 45
279.3999938964844
 46
0.0
 47
0.0
 48
0.0
 49
0.0
140
0.0
141
0.0
142
1.0
143
3.971318409846261
 70
 11952
 72
     0
 73
     1
 74
     2
  7

 75
     0
147
0.2518055458662435
148
0.0
149
0.0
100
AcDbLayout
  1
Model
 70
     1
 71
     0
 10
0.0
 20
0.0
 11
12.0
 21
9.0
 12
0.0
 22
0.0
 32
0.0
 14
0.0
 24
0.0
 34
0.0
 15
0.0
 25
0.0
 35
0.0
146
0.0
 13
0.0
 23
0.0
 33
0.0
 16
1.0
 26
0.0
 36
0.0
 17
0.0
 27
1.0
 37
0.0
 76
     0
330
2
  0
MLINESTYLE
  5
27
102
{ACAD_REACTORS
330
24
102
}
330
24
100
AcDbMlineStyle
  2
STANDARD
 70
     0
  3

 62
   256
 51
90.0
 52
90.0
 71
     2
 49
0.5
 62
   256
  6
BYLAYER
 49
-0.5
 62
   256
  6
BYLAYER
  0
ACDBPLACEHOLDER
  5
7
102
{ACAD_REACTORS
330
8
102
}
330
8
  0
ACAD_PROXY_OBJECT
  5
1F3
102
{ACAD_REACTORS
330
1F2
102
}
330
1F2
100
AcDbProxyObject
 90
      499
 91
      541
 95
   983063
 70
     0
 93
     1841
310
4214DD185B99185C9928B81E85EB51B8AE3F2E07A17AD46E2B8FC02B5E8DC0F42B1CFD028000000C1008070000C3001FDFF8000000C1003FBFF000000182007F7FE00000030400FEFFC00000060801FDFF8000000C1003FBFF00000018200000000000000681FA0B0000001820100E000186003FBFF000000182007F7FE000
310
00030400FEFFC00000060801FDFF8000000C1003FBFF000000182007F7FE000000304000AD7A3703D0AC73F4160000003040201C00030C007F7FE00000030400FEFFC00000060801FDFF8000000C1003FBFF000000182007F7FE00000030400FEFFC000000608000
340
16
340
16
340
16
 94
        0
  0
XRECORD
  5
6D0
102
{ACAD_REACTORS
330
6CF
102
}
330
6CF
100
AcDbXrecord
340
1F1
  0
XRECORD
  5
6D1
102
{ACAD_REACTORS
330
6CF
102
}
330
6CF
100
AcDbXrecord
340
1F0
  0
DICTIONARYVAR
  5
3A7
102
{ACAD_REACTORS
330
1EC
102
}
330
1EC
100
DictionaryVariables
280
     0
  1
STANDARD
  0
DICTIONARYVAR
  5
6CE
102
{ACAD_REACTORS
330
1EC
102
}
330
1EC
100
DictionaryVariables
280
     0
  1
0
  0
DICTIONARY
  5
6D2
330
13
100
AcDbDictionary
280
     1
281
     1
  3
ACAD_XREC_ROUNDTRIP
360
6D3
  0
DICTIONARY
  5
6D4
330
C
100
AcDbDictionary
280
     1
281
     1
  3
ACAD_XREC_ROUNDTRIP
360
6D5
  0
XRECORD
  5
6D3
102
{ACAD_REACTORS
330
6D2
102
}
330
6D2
100
AcDbXrecord
102
SHADEPLOT
 70
     0
102
SHADEPLOTRESLEVEL
 70
     2
102
SHADEPLOTCUSTOMDPI
 70
   300
  0
XRECORD
  5
6D5
102
{ACAD_REACTORS
330
6D4
102
}
330
6D4
100
AcDbXrecord
102
SHADEPLOT
 70
     0
102
SHADEPLOTRESLEVEL
 70
     2
102
SHADEPLOTCUSTOMDPI
 70
   300
  0
ENDSEC
  0
EOF
