  0
SECTION
  2
HEADER
  9
$ACADVER
  1
AC1015
  9
$ACADMAINTVER
 70
     6
  9
$DWGCODEPAGE
  3
ANSI_1252
  9
$INSBASE
 10
0.0
 20
0.0
 30
0.0
  9
$EXTMIN
 10
-14.31412382352436
 20
-0.0390608231998755
 30
-0.000000000000013
  9
$EXTMAX
 10
14.58705651647337
 20
20.03515887604821
 30
0.0000000000000023
  9
$LIMMIN
 10
0.0
 20
0.0
  9
$LIMMAX
 10
42.0
 20
32.0
  9
$ORTHOMODE
 70
     1
  9
$REGENMODE
 70
     1
  9
$FILLMODE
 70
     1
  9
$QTEXTMODE
 70
     0
  9
$MIRRTEXT
 70
     1
  9
$LTSCALE
 40
0.5
  9
$ATTMODE
 70
     1
  9
$TEXTSIZE
 40
0.36
  9
$TRACEWID
 40
0.05
  9
$TEXTSTYLE
  7
STANDARD
  9
$CLAYER
  8
0
  9
$CELTYPE
  6
BYLAYER
  9
$CECOLOR
 62
   256
  9
$CELTSCALE
 40
1.0
  9
$DISPSILH
 70
     0
  9
$DIMSCALE
 40
4.0
  9
$DIMASZ
 40
0.125
  9
$DIMEXO
 40
0.062
  9
$DIMDLI
 40
0.375
  9
$DIMRND
 40
0.0
  9
$DIMDLE
 40
0.0
  9
$DIMEXE
 40
0.08
  9
$DIMTP
 40
0.0
  9
$DIMTM
 40
0.0
  9
$DIMTXT
 40
0.09
  9
$DIMCEN
 40
-0.06
  9
$DIMTSZ
 40
0.0
  9
$DIMTOL
 70
     0
  9
$DIMLIM
 70
     0
  9
$DIMTIH
 70
     1
  9
$DIMTOH
 70
     1
  9
$DIMSE1
 70
     0
  9
$DIMSE2
 70
     0
  9
$DIMTAD
 70
     0
  9
$DIMZIN
 70
     0
  9
$DIMBLK
  1

  9
$DIMASO
 70
     0
  9
$DIMSHO
 70
     0
  9
$DIMPOST
  1

  9
$DIMAPOST
  1

  9
$DIMALT
 70
     0
  9
$DIMALTD
 70
     2
  9
$DIMALTF
 40
25.4
  9
$DIMLFAC
 40
1.0
  9
$DIMTOFL
 70
     0
  9
$DIMTVP
 40
0.0
  9
$DIMTIX
 70
     0
  9
$DIMSOXD
 70
     0
  9
$DIMSAH
 70
     0
  9
$DIMBLK1
  1

  9
$DIMBLK2
  1

  9
$DIMSTYLE
  2
STANDARD
  9
$DIMCLRD
 70
     0
  9
$DIMCLRE
 70
     0
  9
$DIMCLRT
 70
     0
  9
$DIMTFAC
 40
1.0
  9
$DIMGAP
 40
0.09
  9
$DIMJUST
 70
     0
  9
$DIMSD1
 70
     0
  9
$DIMSD2
 70
     0
  9
$DIMTOLJ
 70
     1
  9
$DIMTZIN
 70
     0
  9
$DIMALTZ
 70
     0
  9
$DIMALTTZ
 70
     0
  9
$DIMUPT
 70
     0
  9
$DIMDEC
 70
     5
  9
$DIMTDEC
 70
     5
  9
$DIMALTU
 70
     5
  9
$DIMALTTD
 70
     2
  9
$DIMTXSTY
  7
STANDARD
  9
$DIMAUNIT
 70
     0
  9
$DIMADEC
 70
     0
  9
$DIMALTRND
 40
0.0
  9
$DIMAZIN
 70
     0
  9
$DIMDSEP
 70
    46
  9
$DIMATFIT
 70
     3
  9
$DIMFRAC
 70
     2
  9
$DIMLDRBLK
  1

  9
$DIMLUNIT
 70
     5
  9
$DIMLWD
 70
    -2
  9
$DIMLWE
 70
    -2
  9
$DIMTMOVE
 70
     2
  9
$LUNITS
 70
     5
  9
$LUPREC
 70
     5
  9
$SKETCHINC
 40
0.1
  9
$FILLETRAD
 40
0.125
  9
$AUNITS
 70
     0
  9
$AUPREC
 70
     0
  9
$MENU
  1
qa
  9
$ELEVATION
 40
0.0
  9
$PELEVATION
 40
0.0
  9
$THICKNESS
 40
0.0
  9
$LIMCHECK
 70
     0
  9
$CHAMFERA
 40
0.0
  9
$CHAMFERB
 40
0.0
  9
$CHAMFERC
 40
0.0
  9
$CHAMFERD
 40
0.0
  9
$SKPOLY
 70
     0
  9
$TDCREATE
 40
2450396.575224306
  9
$TDUCREATE
 40
2450396.908557639
  9
$TDUPDATE
 40
2454165.973601389
  9
$TDUUPDATE
 40
2454166.306934722
  9
$TDINDWG
 40
0.1744337616
  9
$TDUSRTIMER
 40
0.1744337616
  9
$USRTIMER
 70
     1
  9
$ANGBASE
 50
0.0
  9
$ANGDIR
 70
     0
  9
$PDMODE
 70
     0
  9
$PDSIZE
 40
0.0
  9
$PLINEWID
 40
0.0
  9
$SPLFRAME
 70
     0
  9
$SPLINETYPE
 70
     6
  9
$SPLINESEGS
 70
     8
  9
$HANDSEED
  5
34D
  9
$SURFTAB1
 70
     6
  9
$SURFTAB2
 70
     6
  9
$SURFTYPE
 70
     6
  9
$SURFU
 70
     6
  9
$SURFV
 70
     6
  9
$UCSBASE
  2

  9
$UCSNAME
  2

  9
$UCSORG
 10
0.0
 20
0.0
 30
0.0
  9
$UCSXDIR
 10
1.0
 20
0.0
 30
0.0
  9
$UCSYDIR
 10
0.0
 20
1.0
 30
0.0
  9
$UCSORTHOREF
  2

  9
$UCSORTHOVIEW
 70
     0
  9
$UCSORGTOP
 10
0.0
 20
0.0
 30
0.0
  9
$UCSORGBOTTOM
 10
0.0
 20
0.0
 30
0.0
  9
$UCSORGLEFT
 10
0.0
 20
0.0
 30
0.0
  9
$UCSORGRIGHT
 10
0.0
 20
0.0
 30
0.0
  9
$UCSORGFRONT
 10
0.0
 20
0.0
 30
0.0
  9
$UCSORGBACK
 10
0.0
 20
0.0
 30
0.0
  9
$PUCSBASE
  2

  9
$PUCSNAME
  2

  9
$PUCSORG
 10
0.0
 20
0.0
 30
0.0
  9
$PUCSXDIR
 10
1.0
 20
0.0
 30
0.0
  9
$PUCSYDIR
 10
0.0
 20
1.0
 30
0.0
  9
$PUCSORTHOREF
  2

  9
$PUCSORTHOVIEW
 70
     0
  9
$PUCSORGTOP
 10
0.0
 20
0.0
 30
0.0
  9
$PUCSORGBOTTOM
 10
0.0
 20
0.0
 30
0.0
  9
$PUCSORGLEFT
 10
0.0
 20
0.0
 30
0.0
  9
$PUCSORGRIGHT
 10
0.0
 20
0.0
 30
0.0
  9
$PUCSORGFRONT
 10
0.0
 20
0.0
 30
0.0
  9
$PUCSORGBACK
 10
0.0
 20
0.0
 30
0.0
  9
$USERI1
 70
     0
  9
$USERI2
 70
     0
  9
$USERI3
 70
     0
  9
$USERI4
 70
     0
  9
$USERI5
 70
     0
  9
$USERR1
 40
0.0
  9
$USERR2
 40
0.0
  9
$USERR3
 40
0.0
  9
$USERR4
 40
0.0
  9
$USERR5
 40
0.0
  9
$WORLDVIEW
 70
     1
  9
$SHADEDGE
 70
     3
  9
$SHADEDIF
 70
    70
  9
$TILEMODE
 70
     1
  9
$MAXACTVP
 70
    16
  9
$PINSBASE
 10
0.0
 20
0.0
 30
0.0
  9
$PLIMCHECK
 70
     0
  9
$PEXTMIN
 10
1.000000000000000E+20
 20
1.000000000000000E+20
 30
1.000000000000000E+20
  9
$PEXTMAX
 10
-1.000000000000000E+20
 20
-1.000000000000000E+20
 30
-1.000000000000000E+20
  9
$PLIMMIN
 10
0.0
 20
0.0
  9
$PLIMMAX
 10
12.0
 20
9.0
  9
$UNITMODE
 70
     0
  9
$VISRETAIN
 70
     0
  9
$PLINEGEN
 70
     0
  9
$PSLTSCALE
 70
     0
  9
$TREEDEPTH
 70
  3020
  9
$CMLSTYLE
  2
STANDARD
  9
$CMLJUST
 70
     0
  9
$CMLSCALE
 40
1.0
  9
$PROXYGRAPHICS
 70
     1
  9
$MEASUREMENT
 70
     0
  9
$CELWEIGHT
370
    -1
  9
$ENDCAPS
280
     0
  9
$JOINSTYLE
280
     0
  9
$LWDISPLAY
290
     0
  9
$INSUNITS
 70
     0
  9
$HYPERLINKBASE
  1

  9
$STYLESHEET
  1

  9
$XEDIT
290
     1
  9
$CEPSNTYPE
380
     0
  9
$PSTYLEMODE
290
     1
  9
$FINGERPRINTGUID
  2
{9FFF1F07-90A8-11D5-BE3F-00508B5FCD51}
  9
$VERSIONGUID
  2
{00B19E3B-15EE-4E33-A84A-EF58F1E1F025}
  9
$EXTNAMES
290
     1
  9
$PSVPSCALE
 40
0.0
  9
$OLESTARTUP
290
     0
  0
ENDSEC
  0
SECTION
  2
CLASSES
  0
CLASS
  1
DICTIONARYVAR
  2
AcDbDictionaryVar
  3
AutoCAD 2000
 90
        0
280
     0
281
     0
  0
CLASS
  1
LWPOLYLINE
  2
AcDbPolyline
  3
AutoCAD 2000
 90
        0
280
     0
281
     1
  0
CLASS
  1
ACDBDICTIONARYWDFLT
  2
AcDbDictionaryWithDefault
  3
AutoCAD 2000
 90
        0
280
     0
281
     0
  0
CLASS
  1
ACDBPLACEHOLDER
  2
AcDbPlaceHolder
  3
ObjectDBX Classes
 90
        0
280
     0
281
     0
  0
CLASS
  1
LAYOUT
  2
AcDbLayout
  3
ObjectDBX Classes
 90
        0
280
     0
281
     0
  0
CLASS
  1
LONG_TRANSACTION
  2
AcDbLongTransaction
  3
ObjectDBX Classes
 90
   -65536
280
     1
281
     0
  0
CLASS
  1
LWPOLYLINE
  2
AcDbPolyline
  3
AutoCAD 2000
 90
        0
280
     0
281
     1
  0
CLASS
  1
HATCH
  2
AcDbHatch
  3
AutoCAD 2000
 90
        0
280
     0
281
     1
  0
CLASS
  1
XRECORD
  2
AcDbXrecord
  3
AutoCAD 2000
 90
        0
280
     0
281
     0
  0
CLASS
  1
LONG_TRANSACTION
  2
AcDbLongTransaction
  3
ObjectDBX Classes
 90
   -65536
280
     1
281
     0
  0
CLASS
  1
LWPOLYLINE
  2
AcDbPolyline
  3
AutoCAD 2000
 90
        0
280
     0
281
     1
  0
CLASS
  1
HATCH
  2
AcDbHatch
  3
AutoCAD 2000
 90
        0
280
     0
281
     1
  0
CLASS
  1
XRECORD
  2
AcDbXrecord
  3
AutoCAD 2000
 90
        0
280
     0
281
     0
  0
CLASS
  1
LONG_TRANSACTION
  2
AcDbLongTransaction
  3
ObjectDBX Classes
 90
   -65536
280
     1
281
     0
  0
CLASS
  1
LWPOLYLINE
  2
AcDbPolyline
  3
AutoCAD 2000
 90
        0
280
     0
281
     1
  0
CLASS
  1
HATCH
  2
AcDbHatch
  3
AutoCAD 2000
 90
        0
280
     0
281
     1
  0
CLASS
  1
XRECORD
  2
AcDbXrecord
  3
AutoCAD 2000
 90
        0
280
     0
281
     0
  0
CLASS
  1
LONG_TRANSACTION
  2
AcDbLongTransaction
  3
ObjectDBX Classes
 90
   -65536
280
     1
281
     0
  0
CLASS
  1
LWPOLYLINE
  2
AcDbPolyline
  3
AutoCAD 2000
 90
        0
280
     0
281
     1
  0
CLASS
  1
HATCH
  2
AcDbHatch
  3
AutoCAD 2000
 90
        0
280
     0
281
     1
  0
CLASS
  1
XRECORD
  2
AcDbXrecord
  3
AutoCAD 2000
 90
        0
280
     0
281
     0
  0
CLASS
  1
LONG_TRANSACTION
  2
AcDbLongTransaction
  3
ObjectDBX Classes
 90
   -65536
280
     1
281
     0
  0
CLASS
  1
LWPOLYLINE
  2
AcDbPolyline
  3
AutoCAD 2000
 90
        0
280
     0
281
     1
  0
CLASS
  1
HATCH
  2
AcDbHatch
  3
AutoCAD 2000
 90
        0
280
     0
281
     1
  0
CLASS
  1
XRECORD
  2
AcDbXrecord
  3
AutoCAD 2000
 90
        0
280
     0
281
     0
  0
CLASS
  1
LONG_TRANSACTION
  2
AcDbLongTransaction
  3
ObjectDBX Classes
 90
   -65536
280
     1
281
     0
  0
CLASS
  1
LWPOLYLINE
  2
AcDbPolyline
  3
AutoCAD 2000
 90
        0
280
     0
281
     1
  0
CLASS
  1
HATCH
  2
AcDbHatch
  3
AutoCAD 2000
 90
        0
280
     0
281
     1
  0
CLASS
  1
XRECORD
  2
AcDbXrecord
  3
AutoCAD 2000
 90
        0
280
     0
281
     0
  0
CLASS
  1
LONG_TRANSACTION
  2
AcDbLongTransaction
  3
ObjectDBX Classes
 90
   -65536
280
     1
281
     0
  0
CLASS
  1
LWPOLYLINE
  2
AcDbPolyline
  3
AutoCAD 2000
 90
        0
280
     0
281
     1
  0
CLASS
  1
HATCH
  2
AcDbHatch
  3
AutoCAD 2000
 90
        0
280
     0
281
     1
  0
CLASS
  1
XRECORD
  2
AcDbXrecord
  3
AutoCAD 2000
 90
        0
280
     0
281
     0
  0
CLASS
  1
LONG_TRANSACTION
  2
AcDbLongTransaction
  3
ObjectDBX Classes
 90
   -65536
280
     1
281
     0
  0
CLASS
  1
LWPOLYLINE
  2
AcDbPolyline
  3
AutoCAD 2000
 90
        0
280
     0
281
     1
  0
CLASS
  1
HATCH
  2
AcDbHatch
  3
AutoCAD 2000
 90
        0
280
     0
281
     1
  0
CLASS
  1
XRECORD
  2
AcDbXrecord
  3
AutoCAD 2000
 90
        0
280
     0
281
     0
  0
CLASS
  1
TABLESTYLE
  2
AcDbTableStyle
  3
ObjectDBX Classes
 90
     2047
280
     1
281
     0
  0
CLASS
  1
SORTENTSTABLE
  2
AcDbSortentsTable
  3
AutoCAD 2000
 90
        0
280
     0
281
     0
  0
ENDSEC
  0
SECTION
  2
TABLES
  0
TABLE
  2
VPORT
  5
1D
330
0
100
AcDbSymbolTable
 70
     2
  0
VPORT
  5
33F
330
1D
100
AcDbSymbolTableRecord
100
AcDbViewportTableRecord
  2
*Active
 70
     0
 10
0.0
 20
0.0
 11
1.0
 21
1.0
 12
13.84293808823782
 22
15.98046958840006
 13
0.0
 23
0.0
 14
0.063
 24
0.063
 15
0.25
 25
0.25
 16
0.0
 26
0.0
 36
1.0
 17
0.0
 27
0.0
 37
0.0
 40
32.43871646756412
 41
1.814583333333333
 42
50.0
 43
0.0
 44
0.0
 50
0.0
 51
0.0
 71
     0
 72
   100
 73
     1
 74
     1
 75
     0
 76
     0
 77
     0
 78
     0
281
     0
 65
     1
110
0.0
120
0.0
130
0.0
111
1.0
121
0.0
131
0.0
112
0.0
122
1.0
132
0.0
 79
     0
146
0.0
  0
ENDTAB
  0
TABLE
  2
LTYPE
  5
18
330
0
100
AcDbSymbolTable
 70
     2
  0
LTYPE
  5
19
330
18
100
AcDbSymbolTableRecord
100
AcDbLinetypeTableRecord
  2
BYBLOCK
 70
     0
  3

 72
    65
 73
     0
 40
0.0
  0
LTYPE
  5
1A
330
18
100
AcDbSymbolTableRecord
100
AcDbLinetypeTableRecord
  2
BYLAYER
 70
     0
  3

 72
    65
 73
     0
 40
0.0
  0
LTYPE
  5
A
330
18
100
AcDbSymbolTableRecord
100
AcDbLinetypeTableRecord
  2
CONTINUOUS
 70
     0
  3
Solid line
 72
    65
 73
     0
 40
0.0
  0
LTYPE
  5
33E
330
18
100
AcDbSymbolTableRecord
100
AcDbLinetypeTableRecord
  2
HIDDEN
 70
     0
  3
Hidden __ __ __ __ __ __ __ __ __ __ __ __ __ _
 72
    65
 73
     2
 40
0.375
 49
0.25
 74
     0
 49
-0.125
 74
     0
  0
ENDTAB
  0
TABLE
  2
LAYER
  5
14
330
0
100
AcDbSymbolTable
 70
     1
  0
LAYER
  5
6
330
14
100
AcDbSymbolTableRecord
100
AcDbLayerTableRecord
  2
0
 70
     0
 62
     7
  6
CONTINUOUS
370
    -3
390
7
  0
ENDTAB
  0
TABLE
  2
STYLE
  5
15
330
0
100
AcDbSymbolTable
 70
     2
  0
STYLE
  5
16
330
15
100
AcDbSymbolTableRecord
100
AcDbTextStyleTableRecord
  2
STANDARD
 70
     0
 40
0.0
 41
1.0
 50
0.0
 71
     0
 42
0.36
  3
TXT
  4

  0
STYLE
  5
33D
330
15
100
AcDbSymbolTableRecord
100
AcDbTextStyleTableRecord
  2

 70
     1
 40
0.0
 41
1.0
 50
0.0
 71
     0
 42
0.36
  3
ltypeshp.shx
  4

  0
ENDTAB
  0
TABLE
  2
VIEW
  5
1B
330
0
100
AcDbSymbolTable
 70
     0
  0
ENDTAB
  0
TABLE
  2
UCS
  5
1C
330
0
100
AcDbSymbolTable
 70
     0
  0
ENDTAB
  0
TABLE
  2
APPID
  5
1F
330
0
100
AcDbSymbolTable
 70
     1
  0
APPID
  5
20
330
1F
100
AcDbSymbolTableRecord
100
AcDbRegAppTableRecord
  2
ACAD
 70
     0
  0
ENDTAB
  0
TABLE
  2
DIMSTYLE
  5
21
330
0
100
AcDbSymbolTable
 70
     1
100
AcDbDimStyleTable
  0
DIMSTYLE
105
28
330
21
100
AcDbSymbolTableRecord
100
AcDbDimStyleTableRecord
  2
STANDARD
 70
     0
  3

  4

340
16
  0
ENDTAB
  0
TABLE
  2
BLOCK_RECORD
  5
1
330
0
100
AcDbSymbolTable
 70
     0
  0
BLOCK_RECORD
  5
2
102
{ACAD_XDICTIONARY
360
3
102
}
330
1
100
AcDbSymbolTableRecord
100
AcDbBlockTableRecord
  2
*MODEL_SPACE
340
C
  0
BLOCK_RECORD
  5
E
330
1
100
AcDbSymbolTableRecord
100
AcDbBlockTableRecord
  2
*PAPER_SPACE
340
13
  0
ENDTAB
  0
ENDSEC
  0
SECTION
  2
BLOCKS
  0
BLOCK
  5
5
330
2
100
AcDbEntity
  8
0
100
AcDbBlockBegin
  2
*MODEL_SPACE
 70
     0
 10
0.0
 20
0.0
 30
0.0
  3
*MODEL_SPACE
  1

  4

  0
ENDBLK
  5
B
330
2
100
AcDbEntity
  8
0
100
AcDbBlockEnd
  0
BLOCK
  5
11
330
E
100
AcDbEntity
 67
     1
  8
0
100
AcDbBlockBegin
  2
*PAPER_SPACE
 70
     0
 10
0.0
 20
0.0
 30
0.0
  3
*PAPER_SPACE
  1

  4

  0
ENDBLK
  5
12
330
E
100
AcDbEntity
 67
     1
  8
0
100
AcDbBlockEnd
  0
ENDSEC
  0
SECTION
  2
ENTITIES
  0
LINE
  5
18E
330
2
100
AcDbEntity
  8
0
100
AcDbLine
 10
14.49150454519457
 20
0.5207269749706214
 30
0.0
 11
14.49150454519457
 21
6.718699999999991
 31
0.0
  0
LINE
  5
18F
330
2
100
AcDbEntity
  8
0
100
AcDbLine
 10
12.84782112069954
 20
6.126785228390396
 30
0.0
 11
13.08709781599617
 21
5.887508533093758
 31
0.0
  0
ARC
  5
190
330
2
100
AcDbEntity
  8
0
100
AcDbCircle
 10
13.5924059464447
 20
5.968700000000354
 30
0.0
 40
0.0855
100
AcDbArc
 50
89.99983493434675
 51
270.0001650656533
  0
ARC
  5
191
330
2
100
AcDbEntity
  8
0
100
AcDbCircle
 10
13.61277337655571
 20
5.968700000000354
 30
0.0
 40
0.0855
100
AcDbArc
 50
89.99983493434675
 51
270.0001650656533
  0
ARC
  5
192
330
2
100
AcDbEntity
  8
0
100
AcDbCircle
 10
13.55400454519457
 20
5.968699999999991
 30
0.0
 40
0.0855
100
AcDbArc
 50
90.0
 51
270.0
  0
LINE
  5
193
330
2
100
AcDbEntity
  8
0
100
AcDbLine
 10
13.75800454519458
 20
6.054199999999995
 30
0.0
 11
13.75800454519458
 21
5.883199999999999
 31
0.0
  0
LINE
  5
194
330
2
100
AcDbEntity
  8
0
100
AcDbLine
 10
14.58525454519457
 20
0.5207269749706196
 30
0.0
 11
14.58525454519457
 21
8.718749999999996
 31
0.0
  0
LINE
  5
195
330
2
100
AcDbEntity
  8
0
100
AcDbLine
 10
14.31367471897146
 20
-0.000000000000048
 30
0.0
 11
10.31367471897146
 21
-0.0000000000000515
 31
0.0
  0
LINE
  5
196
330
2
100
AcDbEntity
  8
0
  6
HIDDEN
100
AcDbLine
 10
14.32133252349499
 20
0.0937499999999538
 30
0.0
 11
10.42049480957952
 21
0.0937499999999503
 31
0.0
  0
LINE
  5
197
330
2
100
AcDbEntity
  8
0
100
AcDbLine
 10
11.85930650720418
 20
1.891697038856329
 30
0.0
 11
10.53087938245801
 21
0.5632699141101725
 31
0.0
  0
ARC
  5
198
330
2
100
AcDbEntity
  8
0
100
AcDbCircle
 10
11.05380005135874
 20
0.0381109601173435
 30
0.0
 40
0.7411058985883523
100
AcDbArc
 50
134.8776389776501
 51
182.9477038706889
  0
ARC
  5
199
330
2
100
AcDbEntity
  8
0
100
AcDbCircle
 10
9.561209468347897
 20
4.189794077712655
 30
0.0
 40
3.25
100
AcDbArc
 50
314.9999999999996
 51
0.000000000000007
  0
LINE
  5
19A
330
2
100
AcDbEntity
  8
0
100
AcDbLine
 10
12.81120946834786
 20
4.189794077712655
 30
0.0
 11
12.81120946834786
 21
4.736620185445439
 31
0.0
  0
LINE
  5
19B
330
2
100
AcDbEntity
  8
0
100
AcDbLine
 10
13.12370946834786
 20
5.799120185445439
 30
0.0
 11
13.12370946834786
 21
5.152673576038716
 31
0.0
  0
ARC
  5
19C
330
2
100
AcDbEntity
  8
0
100
AcDbCircle
 10
12.99870946834786
 20
5.152673576038716
 30
0.0
 40
0.125
100
AcDbArc
 50
314.9999999999997
 51
0.0
  0
ARC
  5
19D
330
2
100
AcDbEntity
  8
0
100
AcDbCircle
 10
12.93620946834786
 20
4.736620185445439
 30
0.0
 40
0.125
100
AcDbArc
 50
134.9999999999999
 51
180.0
  0
LINE
  5
19E
330
2
100
AcDbEntity
  8
0
100
AcDbLine
 10
13.08709781599617
 20
5.064285228390396
 30
0.0
 11
12.84782112069954
 21
4.825008533093758
 31
0.0
  0
ARC
  5
19F
330
2
100
AcDbEntity
  8
0
100
AcDbCircle
 10
12.99870946834786
 20
5.799120185445439
 30
0.0
 40
0.125
100
AcDbArc
 50
0.0
 51
45.00000000000014
  0
ARC
  5
1A0
330
2
100
AcDbEntity
  8
0
100
AcDbCircle
 10
13.60825747390415
 20
0.9687000000003501
 30
0.0
 40
0.0855
100
AcDbArc
 50
89.99983493434675
 51
270.0001650656533
  0
ARC
  5
1A1
330
2
100
AcDbEntity
  8
0
100
AcDbCircle
 10
13.58789004379314
 20
0.9687000000003501
 30
0.0
 40
0.0855
100
AcDbArc
 50
89.99983493434675
 51
270.0001650656533
  0
ARC
  5
1A2
330
2
100
AcDbEntity
  8
0
100
AcDbCircle
 10
13.55400454519457
 20
0.9686999999999948
 30
0.0
 40
0.0855
100
AcDbArc
 50
90.0
 51
270.0
  0
LINE
  5
1A3
330
2
100
AcDbEntity
  8
0
100
AcDbLine
 10
13.75800454519458
 20
1.054199999999995
 30
0.0
 11
13.75800454519458
 21
0.8831999999999951
 31
0.0
  0
ARC
  5
1A4
330
2
100
AcDbEntity
  8
0
100
AcDbCircle
 10
14.78547723600487
 20
0.0851195516645653
 30
0.0
 40
0.479419391717371
100
AcDbArc
 50
114.6854140243264
 51
190.2269213179438
  0
LINE
  5
1A5
330
2
100
AcDbEntity
  8
0
100
AcDbLine
 10
13.55400454519457
 20
0.8831999999999951
 30
0.0
 11
13.75800454519458
 21
0.8831999999999951
 31
0.0
  0
LINE
  5
1A6
330
2
100
AcDbEntity
  8
0
100
AcDbLine
 10
14.49150454519457
 20
0.5207269749706196
 30
0.0
 11
14.58525454519457
 21
0.5207269749706196
 31
0.0
  0
LINE
  5
1A7
330
2
100
AcDbEntity
  8
0
100
AcDbLine
 10
13.55400454519457
 20
1.054199999999995
 30
0.0
 11
13.75800454519458
 21
1.054199999999995
 31
0.0
  0
ARC
  5
1A8
330
2
100
AcDbEntity
  8
0
100
AcDbCircle
 10
13.60926201208761
 20
1.96870000000035
 30
0.0
 40
0.0855
100
AcDbArc
 50
89.99983493434675
 51
270.0001650656533
  0
LINE
  5
1A9
330
2
100
AcDbEntity
  8
0
100
AcDbLine
 10
13.55400454519457
 20
2.054199999999995
 30
0.0
 11
13.75800454519458
 21
2.054199999999995
 31
0.0
  0
LINE
  5
1AA
330
2
100
AcDbEntity
  8
0
100
AcDbLine
 10
13.55400454519457
 20
1.883199999999995
 30
0.0
 11
13.75800454519458
 21
1.883199999999995
 31
0.0
  0
LINE
  5
1AB
330
2
100
AcDbEntity
  8
0
100
AcDbLine
 10
13.75800454519458
 20
2.054199999999995
 30
0.0
 11
13.75800454519458
 21
1.883199999999995
 31
0.0
  0
ARC
  5
1AC
330
2
100
AcDbEntity
  8
0
100
AcDbCircle
 10
13.5888945819766
 20
1.96870000000035
 30
0.0
 40
0.0855
100
AcDbArc
 50
89.99983493434675
 51
270.0001650656533
  0
ARC
  5
1AD
330
2
100
AcDbEntity
  8
0
100
AcDbCircle
 10
13.55400454519457
 20
1.968699999999995
 30
0.0
 40
0.0855
100
AcDbArc
 50
90.0
 51
270.0
  0
LINE
  5
1AE
330
2
100
AcDbEntity
  8
0
100
AcDbLine
 10
13.75800454519458
 20
3.054199999999998
 30
0.0
 11
13.75800454519458
 21
2.883199999999995
 31
0.0
  0
ARC
  5
1AF
330
2
100
AcDbEntity
  8
0
100
AcDbCircle
 10
13.61452905878977
 20
2.968700000000354
 30
0.0
 40
0.0855
100
AcDbArc
 50
89.99983493434675
 51
270.0001650656533
  0
LINE
  5
1B0
330
2
100
AcDbEntity
  8
0
100
AcDbLine
 10
13.55400454519457
 20
2.883199999999999
 30
0.0
 11
13.75800454519458
 21
2.883199999999999
 31
0.0
  0
LINE
  5
1B1
330
2
100
AcDbEntity
  8
0
100
AcDbLine
 10
13.55400454519457
 20
3.054199999999998
 30
0.0
 11
13.75800454519458
 21
3.054199999999998
 31
0.0
  0
ARC
  5
1B2
330
2
100
AcDbEntity
  8
0
100
AcDbCircle
 10
13.59416162867876
 20
2.968700000000354
 30
0.0
 40
0.0855
100
AcDbArc
 50
89.99983493434675
 51
270.0001650656533
  0
ARC
  5
1B3
330
2
100
AcDbEntity
  8
0
100
AcDbCircle
 10
13.55400454519457
 20
2.968699999999995
 30
0.0
 40
0.0855
100
AcDbArc
 50
90.0
 51
270.0
  0
ARC
  5
1B4
330
2
100
AcDbEntity
  8
0
100
AcDbCircle
 10
13.59416162867876
 20
3.968700000000347
 30
0.0
 40
0.0855
100
AcDbArc
 50
89.99983493434675
 51
270.0001650656533
  0
ARC
  5
1B5
330
2
100
AcDbEntity
  8
0
100
AcDbCircle
 10
13.61452905878977
 20
3.968700000000347
 30
0.0
 40
0.0855
100
AcDbArc
 50
89.99983493434675
 51
270.0001650656533
  0
ARC
  5
1B6
330
2
100
AcDbEntity
  8
0
100
AcDbCircle
 10
13.55400454519457
 20
3.968699999999991
 30
0.0
 40
0.0855
100
AcDbArc
 50
90.0
 51
270.0
  0
LINE
  5
1B7
330
2
100
AcDbEntity
  8
0
100
AcDbLine
 10
13.75800454519458
 20
4.054199999999995
 30
0.0
 11
13.75800454519458
 21
3.883199999999995
 31
0.0
  0
LINE
  5
1B8
330
2
100
AcDbEntity
  8
0
100
AcDbLine
 10
13.55400454519457
 20
3.883199999999995
 30
0.0
 11
13.75800454519458
 21
3.883199999999995
 31
0.0
  0
LINE
  5
1B9
330
2
100
AcDbEntity
  8
0
100
AcDbLine
 10
13.55400454519457
 20
4.054199999999995
 30
0.0
 11
13.75800454519458
 21
4.054199999999991
 31
0.0
  0
ARC
  5
1BA
330
2
100
AcDbEntity
  8
0
100
AcDbCircle
 10
13.61277337655571
 20
4.968700000000354
 30
0.0
 40
0.0855
100
AcDbArc
 50
89.99983493434675
 51
270.0001650656533
  0
LINE
  5
1BB
330
2
100
AcDbEntity
  8
0
100
AcDbLine
 10
13.55400454519457
 20
4.883199999999995
 30
0.0
 11
13.75800454519458
 21
4.883199999999995
 31
0.0
  0
LINE
  5
1BC
330
2
100
AcDbEntity
  8
0
100
AcDbLine
 10
13.55400454519457
 20
5.054199999999995
 30
0.0
 11
13.75800454519458
 21
5.054199999999995
 31
0.0
  0
LINE
  5
1BD
330
2
100
AcDbEntity
  8
0
100
AcDbLine
 10
13.75800454519458
 20
5.054199999999995
 30
0.0
 11
13.75800454519458
 21
4.883199999999999
 31
0.0
  0
ARC
  5
1BE
330
2
100
AcDbEntity
  8
0
100
AcDbCircle
 10
13.5924059464447
 20
4.968700000000354
 30
0.0
 40
0.0855
100
AcDbArc
 50
89.99983493434675
 51
270.0001650656533
  0
ARC
  5
1BF
330
2
100
AcDbEntity
  8
0
100
AcDbCircle
 10
13.55400454519457
 20
4.968699999999991
 30
0.0
 40
0.0855
100
AcDbArc
 50
90.0
 51
270.0
  0
LINE
  5
1C0
330
2
100
AcDbEntity
  8
0
100
AcDbLine
 10
13.55400454519457
 20
5.883199999999995
 30
0.0
 11
13.75800454519458
 21
5.883199999999995
 31
0.0
  0
LINE
  5
1C1
330
2
100
AcDbEntity
  8
0
100
AcDbLine
 10
12.81120946834786
 20
8.718699999999991
 30
0.0
 11
14.58525454519457
 21
8.718749999999979
 31
0.0
  0
LINE
  5
1C2
330
2
100
AcDbEntity
  8
0
100
AcDbLine
 10
12.81120946834786
 20
8.215173576038716
 30
0.0
 11
12.81120946834786
 21
8.718699999999991
 31
0.0
  0
LINE
  5
1C3
330
2
100
AcDbEntity
  8
0
100
AcDbLine
 10
12.81120946834786
 20
8.718699999999991
 30
0.0
 11
12.81120946834786
 21
8.215173319994442
 31
0.0
  0
ARC
  5
1C4
330
2
100
AcDbEntity
  8
0
100
AcDbCircle
 10
12.99870946834786
 20
7.152673576038716
 30
0.0
 40
0.125
100
AcDbArc
 50
314.9999999999997
 51
0.0
  0
LINE
  5
1C5
330
2
100
AcDbEntity
  8
0
100
AcDbLine
 10
12.81120946834786
 20
6.718699999999991
 30
0.0
 11
12.81120946834786
 21
6.215173319994442
 31
0.0
  0
LINE
  5
1C6
330
2
100
AcDbEntity
  8
0
100
AcDbLine
 10
12.81120946834786
 20
6.215173576038716
 30
0.0
 11
12.81120946834786
 21
6.718699999999991
 31
0.0
  0
ARC
  5
1C7
330
2
100
AcDbEntity
  8
0
100
AcDbCircle
 10
12.93620946834786
 20
6.215173576038716
 30
0.0
 40
0.125
100
AcDbArc
 50
180.0
 51
225.0000000000001
  0
ARC
  5
1C8
330
2
100
AcDbEntity
  8
0
100
AcDbCircle
 10
12.93620946834786
 20
6.736620185445439
 30
0.0
 40
0.125
100
AcDbArc
 50
134.9999999999999
 51
180.0
  0
LINE
  5
1C9
330
2
100
AcDbEntity
  8
0
100
AcDbLine
 10
13.08709781599617
 20
7.064285228390396
 30
0.0
 11
12.84782112069954
 21
6.825008533093758
 31
0.0
  0
LINE
  5
1CA
330
2
100
AcDbEntity
  8
0
100
AcDbLine
 10
13.12370946834786
 20
7.799120185445439
 30
0.0
 11
13.12370946834786
 21
7.152673576038716
 31
0.0
  0
ARC
  5
1CB
330
2
100
AcDbEntity
  8
0
100
AcDbCircle
 10
12.99870946834786
 20
7.799120185445439
 30
0.0
 40
0.125
100
AcDbArc
 50
0.0
 51
45.00000000000014
  0
ARC
  5
1CC
330
2
100
AcDbEntity
  8
0
100
AcDbCircle
 10
12.93620946834786
 20
8.215173576038716
 30
0.0
 40
0.125
100
AcDbArc
 50
180.0
 51
225.0000000000001
  0
LINE
  5
1CD
330
2
100
AcDbEntity
  8
0
100
AcDbLine
 10
12.84782112069954
 20
8.126785228390396
 30
0.0
 11
13.08709781599617
 21
7.887508533093758
 31
0.0
  0
LINE
  5
1CE
330
2
100
AcDbEntity
  8
0
100
AcDbLine
 10
14.49150454519457
 20
8.71875
 30
0.0
 11
14.49150454519457
 21
6.418699999999987
 31
0.0
  0
LINE
  5
1CF
330
2
100
AcDbEntity
  8
0
100
AcDbLine
 10
13.55400454519457
 20
6.054199999999995
 30
0.0
 11
13.75800454519458
 21
6.054199999999995
 31
0.0
  0
LINE
  5
1D0
330
2
100
AcDbEntity
  8
0
100
AcDbLine
 10
13.55400454519457
 20
7.054199999999987
 30
0.0
 11
13.75800454519458
 21
7.054199999999987
 31
0.0
  0
LINE
  5
1D1
330
2
100
AcDbEntity
  8
0
100
AcDbLine
 10
13.55400454519457
 20
6.883199999999988
 30
0.0
 11
13.75800454519458
 21
6.883199999999988
 31
0.0
  0
ARC
  5
1D2
330
2
100
AcDbEntity
  8
0
100
AcDbCircle
 10
13.61310587396498
 20
6.968699999999991
 30
0.0
 40
0.0855
100
AcDbArc
 50
89.99983493434675
 51
270.0001650656533
  0
LINE
  5
1D3
330
2
100
AcDbEntity
  8
0
100
AcDbLine
 10
13.55400454519457
 20
7.054199999999995
 30
0.0
 11
13.74150454519457
 21
7.054199999999995
 31
0.0
  0
LINE
  5
1D4
330
2
100
AcDbEntity
  8
0
100
AcDbLine
 10
13.55400454519457
 20
6.883199999999995
 30
0.0
 11
13.74150454519457
 21
6.883199999999995
 31
0.0
  0
LINE
  5
1D5
330
2
100
AcDbEntity
  8
0
100
AcDbLine
 10
13.75800454519458
 20
7.054199999999987
 30
0.0
 11
13.75800454519458
 21
6.883199999999988
 31
0.0
  0
ARC
  5
1D6
330
2
100
AcDbEntity
  8
0
100
AcDbCircle
 10
13.55400454519457
 20
6.968699999999991
 30
0.0
 40
0.0855
100
AcDbArc
 50
89.99983493434675
 51
270.0001650656533
  0
ARC
  5
1D7
330
2
100
AcDbEntity
  8
0
100
AcDbCircle
 10
13.59273844385398
 20
6.968699999999991
 30
0.0
 40
0.0855
100
AcDbArc
 50
89.99983493434675
 51
270.0001650656533
  0
ARC
  5
1D8
330
2
100
AcDbEntity
  8
0
100
AcDbCircle
 10
13.55400454519457
 20
6.968699999999991
 30
0.0
 40
0.0855
100
AcDbArc
 50
90.0
 51
270.0
  0
LINE
  5
1D9
330
2
100
AcDbEntity
  8
0
100
AcDbLine
 10
13.55400454519457
 20
7.883199999999995
 30
0.0
 11
13.74150454519457
 21
7.883199999999995
 31
0.0
  0
LINE
  5
1DA
330
2
100
AcDbEntity
  8
0
100
AcDbLine
 10
13.55400454519457
 20
8.054199999999995
 30
0.0
 11
13.74150454519457
 21
8.054199999999995
 31
0.0
  0
ARC
  5
1DB
330
2
100
AcDbEntity
  8
0
100
AcDbCircle
 10
13.61310587396498
 20
7.968699999999991
 30
0.0
 40
0.0855
100
AcDbArc
 50
89.99983493434675
 51
270.0001650656533
  0
LINE
  5
1DC
330
2
100
AcDbEntity
  8
0
100
AcDbLine
 10
13.55400454519457
 20
7.883199999999988
 30
0.0
 11
13.75800454519458
 21
7.883199999999988
 31
0.0
  0
LINE
  5
1DD
330
2
100
AcDbEntity
  8
0
100
AcDbLine
 10
13.55400454519457
 20
8.054199999999987
 30
0.0
 11
13.75800454519458
 21
8.054199999999987
 31
0.0
  0
LINE
  5
1DE
330
2
100
AcDbEntity
  8
0
100
AcDbLine
 10
13.75800454519458
 20
8.054199999999987
 30
0.0
 11
13.75800454519458
 21
7.883199999999988
 31
0.0
  0
ARC
  5
1DF
330
2
100
AcDbEntity
  8
0
100
AcDbCircle
 10
13.59273844385398
 20
7.968699999999991
 30
0.0
 40
0.0855
100
AcDbArc
 50
89.99983493434675
 51
270.0001650656533
  0
ARC
  5
1E0
330
2
100
AcDbEntity
  8
0
100
AcDbCircle
 10
13.55400454519457
 20
7.968699999999991
 30
0.0
 40
0.0855
100
AcDbArc
 50
89.99983493434675
 51
270.0001650656533
  0
ARC
  5
1E1
330
2
100
AcDbEntity
  8
0
100
AcDbCircle
 10
13.55400454519457
 20
7.968699999999991
 30
0.0
 40
0.0855
100
AcDbArc
 50
90.0
 51
270.0
  0
LINE
  5
1E2
330
2
100
AcDbEntity
  8
0
100
AcDbLine
 10
-2.931205293954937
 20
19.7752311621589
 30
0.0
 11
2.946134032895454
 21
19.77523116215886
 31
0.0
  0
LINE
  5
1E3
330
2
100
AcDbEntity
  8
0
100
AcDbLine
 10
-2.931205293954953
 20
15.77523116215889
 30
0.0
 11
2.946134032895436
 21
15.77523116215888
 31
0.0
  0
LINE
  5
1E4
330
2
100
AcDbEntity
  8
0
100
AcDbLine
 10
-3.617585442195242
 20
19.80648116215888
 30
0.0
 11
-3.617585442195239
 21
15.77523116215889
 31
0.0
  0
LINE
  5
1E5
330
2
100
AcDbEntity
  8
0
100
AcDbLine
 10
-3.711335442195241
 20
19.80648116215888
 30
0.0
 11
-3.711335442195241
 21
15.77523116215888
 31
0.0
  0
LINE
  5
1E6
330
2
100
AcDbEntity
  8
0
100
AcDbLine
 10
-3.711335442195242
 20
15.77523116215889
 30
0.0
 11
-3.428971607929803
 21
15.77523116215889
 31
0.0
  0
ARC
  5
1E7
330
2
100
AcDbEntity
  8
0
100
AcDbCircle
 10
-3.023838450942376
 20
15.77708063077325
 30
0.0
 40
0.0926516179438437
100
AcDbArc
 50
358.8562122620253
 51
89.99999999999953
  0
LINE
  5
1E8
330
2
100
AcDbEntity
  8
0
100
AcDbLine
 10
-3.02383845094238
 20
15.86973224871709
 30
0.0
 11
-3.33633845094238
 21
15.8697322487171
 31
0.0
  0
ARC
  5
1E9
330
2
100
AcDbEntity
  8
0
100
AcDbCircle
 10
-3.33633845094238
 20
15.77708063077325
 30
0.0
 40
0.0926516179438437
100
AcDbArc
 50
89.99999999999953
 51
181.1437877379737
  0
LINE
  5
1EA
330
2
100
AcDbEntity
  8
0
100
AcDbLine
 10
-3.805085442195241
 20
19.90023116215888
 30
0.0
 11
-6.342922492921032
 21
19.90023116215888
 31
0.0
  0
LINE
  5
1EB
330
2
100
AcDbEntity
  8
0
100
AcDbLine
 10
-3.805085442195242
 20
19.99398116215888
 30
0.0
 11
-6.342922492921032
 21
19.99398116215888
 31
0.0
  0
LINE
  5
1EC
330
2
100
AcDbEntity
  8
0
100
AcDbLine
 10
-6.342922492921032
 20
19.99398116215888
 30
0.0
 11
-6.342922492921032
 21
19.90023116215888
 31
0.0
  0
LINE
  5
1ED
330
2
100
AcDbEntity
  8
0
100
AcDbLine
 10
-3.617585442195242
 20
19.7752311621589
 30
0.0
 11
-3.428971607929787
 21
19.7752311621589
 31
0.0
  0
LINE
  5
1EE
330
2
100
AcDbEntity
  8
0
100
AcDbLine
 10
-4.05476845244913
 20
19.10547807521613
 30
0.0
 11
-4.009333416047666
 21
19.0614747271353
 31
0.0
  0
LINE
  5
1EF
330
2
100
AcDbEntity
  8
0
100
AcDbLine
 10
-3.717922492921032
 20
19.26044638802254
 30
0.0
 11
-4.05476845244913
 21
19.10547807521613
 31
0.0
  0
LINE
  5
1F0
330
2
100
AcDbEntity
  8
0
100
AcDbLine
 10
-4.009333416047666
 20
19.0614747271353
 30
0.0
 11
-3.717922492921032
 21
19.1934847713778
 31
0.0
  0
ARC
  5
1F1
330
2
100
AcDbEntity
  8
0
100
AcDbCircle
 10
-3.805085442195242
 20
19.80648116215888
 30
0.0
 40
0.1875
100
AcDbArc
 50
0.0
 51
90.0
  0
ARC
  5
1F2
330
2
100
AcDbEntity
  8
0
100
AcDbCircle
 10
-3.805085442195241
 20
19.80648116215888
 30
0.0
 40
0.09375
100
AcDbArc
 50
0.0
 51
90.0
  0
ARC
  5
1F3
330
2
100
AcDbEntity
  8
0
100
AcDbCircle
 10
-3.02383845094236
 20
19.77338169354454
 30
0.0
 40
0.0926516179438437
100
AcDbArc
 50
270.0
 51
1.143787737974197
  0
ARC
  5
1F4
330
2
100
AcDbEntity
  8
0
100
AcDbCircle
 10
-3.336338450942364
 20
19.77338169354454
 30
0.0
 40
0.0926516179438437
100
AcDbArc
 50
178.8562122620258
 51
270.0
  0
LINE
  5
1F5
330
2
100
AcDbEntity
  8
0
100
AcDbLine
 10
-3.023838450942364
 20
19.6807300756007
 30
0.0
 11
-3.336338450942364
 21
19.6807300756007
 31
0.0
  0
LINE
  5
1F6
330
2
100
AcDbEntity
  8
0
100
AcDbLine
 10
3.632514181135839
 20
19.80648116215888
 30
0.0
 11
3.632514181135839
 21
15.77523116215888
 31
0.0
  0
LINE
  5
1F7
330
2
100
AcDbEntity
  8
0
100
AcDbLine
 10
3.726264181135839
 20
19.80648116215888
 30
0.0
 11
3.726264181135839
 21
15.77523116215888
 31
0.0
  0
LINE
  5
1F8
330
2
100
AcDbEntity
  8
0
100
AcDbLine
 10
3.038767189882869
 20
15.86973224871704
 30
0.0
 11
3.351267189882869
 21
15.86973224871704
 31
0.0
  0
ARC
  5
1F9
330
2
100
AcDbEntity
  8
0
100
AcDbCircle
 10
3.038767189882861
 20
15.7770806307732
 30
0.0
 40
0.0926516179438437
100
AcDbArc
 50
89.99999999999953
 51
181.1437877379737
  0
LINE
  5
1FA
330
2
100
AcDbEntity
  8
0
100
AcDbLine
 10
3.44390034687029
 20
15.77523116215888
 30
0.0
 11
3.726264181135839
 21
15.77523116215888
 31
0.0
  0
ARC
  5
1FB
330
2
100
AcDbEntity
  8
0
100
AcDbCircle
 10
3.351267189882865
 20
15.7770806307732
 30
0.0
 40
0.0926516179438437
100
AcDbArc
 50
358.8562122620253
 51
89.99999999999953
  0
LINE
  5
1FC
330
2
100
AcDbEntity
  8
0
100
AcDbLine
 10
3.038767189882883
 20
19.6807300756007
 30
0.0
 11
3.351267189882883
 21
19.6807300756007
 31
0.0
  0
LINE
  5
1FD
330
2
100
AcDbEntity
  8
0
100
AcDbLine
 10
-0.1134508901126399
 20
16.89614642174178
 30
0.0
 11
0.0074643694702594
 21
17.01706168132468
 31
0.0
  0
LINE
  5
1FE
330
2
100
AcDbEntity
  8
0
100
AcDbLine
 10
0.0074643694702594
 20
16.77523116215888
 30
0.0
 11
-0.1134508901126399
 21
16.89614642174178
 31
0.0
  0
LINE
  5
1FF
330
2
100
AcDbEntity
  8
0
100
AcDbLine
 10
0.0074643694702594
 20
16.77523116215888
 30
0.0
 11
0.1283796290531587
 21
16.89614642174178
 31
0.0
  0
LINE
  5
200
330
2
100
AcDbEntity
  8
0
100
AcDbLine
 10
0.1283796290531587
 20
16.89614642174178
 30
0.0
 11
0.0074643694702594
 21
17.01706168132468
 31
0.0
  0
ARC
  5
201
330
2
100
AcDbEntity
  8
0
100
AcDbCircle
 10
3.038767189882879
 20
19.77338169354454
 30
0.0
 40
0.0926516179438437
100
AcDbArc
 50
178.8562122620258
 51
270.0
  0
LINE
  5
202
330
2
100
AcDbEntity
  8
0
100
AcDbLine
 10
3.820014181135839
 20
19.90023116215888
 30
0.0
 11
6.34467750707897
 21
19.90023116215888
 31
0.0
  0
LINE
  5
203
330
2
100
AcDbEntity
  8
0
100
AcDbLine
 10
3.820014181135839
 20
19.99398116215888
 30
0.0
 11
6.34467750707897
 21
19.99398116215888
 31
0.0
  0
LINE
  5
204
330
2
100
AcDbEntity
  8
0
100
AcDbLine
 10
3.739478986448972
 20
19.26044638802254
 30
0.0
 11
4.076324945977071
 21
19.10547807521613
 31
0.0
  0
LINE
  5
205
330
2
100
AcDbEntity
  8
0
100
AcDbLine
 10
4.030889909575606
 20
19.0614747271353
 30
0.0
 11
3.739478986448972
 21
19.1934847713778
 31
0.0
  0
LINE
  5
206
330
2
100
AcDbEntity
  8
0
100
AcDbLine
 10
4.076324945977071
 20
19.10547807521613
 30
0.0
 11
4.030889909575606
 21
19.0614747271353
 31
0.0
  0
LINE
  5
207
330
2
100
AcDbEntity
  8
0
100
AcDbLine
 10
3.443900346870308
 20
19.77523116215886
 30
0.0
 11
3.632514181135839
 21
19.77523116215886
 31
0.0
  0
ARC
  5
208
330
2
100
AcDbEntity
  8
0
100
AcDbCircle
 10
3.351267189882883
 20
19.77338169354454
 30
0.0
 40
0.0926516179438437
100
AcDbArc
 50
270.0
 51
1.143787737974199
  0
ARC
  5
209
330
2
100
AcDbEntity
  8
0
100
AcDbCircle
 10
3.820014181135839
 20
19.80648116215888
 30
0.0
 40
0.09375
100
AcDbArc
 50
90.0
 51
180.0
  0
ARC
  5
20A
330
2
100
AcDbEntity
  8
0
100
AcDbCircle
 10
3.820014181135839
 20
19.80648116215888
 30
0.0
 40
0.1875
100
AcDbArc
 50
90.0
 51
180.0
  0
LINE
  5
20B
330
2
100
AcDbEntity
  8
0
100
AcDbLine
 10
6.34467750707897
 20
19.99398116215888
 30
0.0
 11
6.34467750707897
 21
19.90023116215888
 31
0.0
  0
LINE
  5
20C
330
2
100
AcDbEntity
  8
0
100
AcDbLine
 10
-6.082580756640802
 20
6.134708953173053
 30
0.0
 11
-6.32185745193744
 21
5.895432257876415
 31
0.0
  0
ARC
  5
20D
330
2
100
AcDbEntity
  8
0
100
AcDbCircle
 10
3.830007471616021
 20
5.981260614393669
 30
0.0
 40
0.1292554313189278
100
AcDbArc
 50
319.9646803214859
 51
42.82036873051739
  0
LINE
  5
20E
330
2
100
AcDbEntity
  8
0
100
AcDbLine
 10
6.082580756640812
 20
6.126785228390396
 30
0.0
 11
6.321857451937444
 21
5.887508533093758
 31
0.0
  0
LINE
  5
20F
330
2
100
AcDbEntity
  8
0
100
AcDbLine
 10
3.726264181135839
 20
0.1874999999999965
 30
0.0
 11
3.726264181135839
 21
8.718749999999993
 31
0.0
  0
LINE
  5
210
330
2
100
AcDbEntity
  8
0
100
AcDbLine
 10
3.632514181135839
 20
0.1875
 30
0.0
 11
3.632514181135839
 21
8.718749999999993
 31
0.0
  0
LINE
  5
211
330
2
100
AcDbEntity
  8
0
100
AcDbLine
 10
-3.632514181135839
 20
0.1875
 30
0.0
 11
-3.632514181135839
 21
8.718750000000004
 31
0.0
  0
LINE
  5
212
330
2
100
AcDbEntity
  8
0
100
AcDbLine
 10
-3.726264181135839
 20
0.1875
 30
0.0
 11
-3.726264181135839
 21
8.718750000000004
 31
0.0
  0
CIRCLE
  5
213
330
2
100
AcDbEntity
  8
0
100
AcDbCircle
 10
5.608464181135847
 20
5.843699999999995
 30
0.0
 40
0.0855
  0
CIRCLE
  5
214
330
2
100
AcDbEntity
  8
0
100
AcDbCircle
 10
-5.608464181135837
 20
5.851623724782655
 30
0.0
 40
0.0855
  0
LINE
  5
215
330
2
100
AcDbEntity
  8
0
100
AcDbLine
 10
-3.538764181135839
 20
0.09375
 30
0.0
 11
3.538764181135839
 21
0.09375
 31
0.0
  0
LINE
  5
216
330
2
100
AcDbEntity
  8
0
100
AcDbLine
 10
-3.538764181135839
 20
0.0000000000000018
 30
0.0
 11
3.538764181135839
 21
-0.0000000000000018
 31
0.0
  0
LINE
  5
217
330
2
100
AcDbEntity
  8
0
100
AcDbLine
 10
-5.094066143145447
 20
1.891697038856236
 30
0.0
 11
-3.765639018399277
 21
0.5632699141100801
 31
0.0
  0
ARC
  5
218
330
2
100
AcDbEntity
  8
0
100
AcDbCircle
 10
-3.538764181135839
 20
0.1875
 30
0.0
 40
0.1875
100
AcDbArc
 50
180.0
 51
270.0
  0
ARC
  5
219
330
2
100
AcDbEntity
  8
0
100
AcDbCircle
 10
-3.538764181135839
 20
0.1875
 30
0.0
 40
0.09375
100
AcDbArc
 50
180.0
 51
269.9999999999998
  0
ARC
  5
21A
330
2
100
AcDbEntity
  8
0
100
AcDbCircle
 10
-4.295969104289192
 20
0.0329398282201918
 30
0.0
 40
0.75
100
AcDbArc
 50
40.57047427469522
 51
45.00000000000046
  0
CIRCLE
  5
21B
330
2
100
AcDbEntity
  8
0
100
AcDbCircle
 10
-5.795964181135837
 20
4.476623724782655
 30
0.0
 40
0.0855
  0
ARC
  5
21C
330
2
100
AcDbEntity
  8
0
100
AcDbCircle
 10
-2.795969104289167
 20
4.189794077712563
 30
0.0
 40
3.25
100
AcDbArc
 50
180.0
 51
225.0000000000005
  0
LINE
  5
21D
330
2
100
AcDbEntity
  8
0
100
AcDbLine
 10
-6.045969104289164
 20
4.189794077712563
 30
0.0
 11
-6.045969104289121
 21
4.744543910228103
 31
0.0
  0
LINE
  5
21E
330
2
100
AcDbEntity
  8
0
100
AcDbLine
 10
-6.358469104289121
 20
5.807043910228096
 30
0.0
 11
-6.358469104289121
 21
5.16059730082138
 31
0.0
  0
LINE
  5
21F
330
2
100
AcDbEntity
  8
0
100
AcDbLine
 10
-6.32185745193744
 20
5.07220895317306
 30
0.0
 11
-6.082580756640802
 21
4.832932257876422
 31
0.0
  0
ARC
  5
220
330
2
100
AcDbEntity
  8
0
100
AcDbCircle
 10
-6.233469104289121
 20
5.16059730082138
 30
0.0
 40
0.125
100
AcDbArc
 50
180.0
 51
225.0000000000003
  0
ARC
  5
221
330
2
100
AcDbEntity
  8
0
100
AcDbCircle
 10
-6.170969104289121
 20
4.744543910228103
 30
0.0
 40
0.125
100
AcDbArc
 50
0.0
 51
45.00000000000014
  0
ARC
  5
222
330
2
100
AcDbEntity
  8
0
100
AcDbCircle
 10
-6.233469104289121
 20
5.807043910228096
 30
0.0
 40
0.125
100
AcDbArc
 50
134.9999999999996
 51
180.0
  0
CIRCLE
  5
223
330
2
100
AcDbEntity
  8
0
100
AcDbCircle
 10
-6.108464181135837
 20
5.476623724782655
 30
0.0
 40
0.0855
  0
CIRCLE
  5
224
330
2
100
AcDbEntity
  8
0
100
AcDbCircle
 10
-4.483464181135823
 20
3.476623724782655
 30
0.0
 40
0.0855
  0
LINE
  5
225
330
2
100
AcDbEntity
  8
0
100
AcDbLine
 10
-3.928971641150774
 20
1.24011329186677
 30
0.0
 11
-3.737875057503757
 21
1.24011329186677
 31
0.0
  0
LINE
  5
226
330
2
100
AcDbEntity
  8
0
100
AcDbLine
 10
-3.924814815072061
 20
1.411113291866769
 30
0.0
 11
-3.737875057503757
 21
1.411113291866766
 31
0.0
  0
ARC
  5
227
330
2
100
AcDbEntity
  8
0
100
AcDbCircle
 10
-3.830007471616014
 20
1.323258103333046
 30
0.0
 40
0.1292554313189278
100
AcDbArc
 50
137.1796312694826
 51
220.0353196785141
  0
CIRCLE
  5
228
330
2
100
AcDbEntity
  8
0
100
AcDbCircle
 10
-4.483464181135823
 20
1.789123724782655
 30
0.0
 40
0.0855
  0
CIRCLE
  5
229
330
2
100
AcDbEntity
  8
0
100
AcDbCircle
 10
-5.045964181135837
 20
2.476623724782655
 30
0.0
 40
0.0855
  0
CIRCLE
  5
22A
330
2
100
AcDbEntity
  8
0
100
AcDbCircle
 10
-5.358464181135837
 20
3.226623724782655
 30
0.0
 40
0.0855
  0
LINE
  5
22B
330
2
100
AcDbEntity
  8
0
100
AcDbLine
 10
-3.924814815072061
 20
2.434669432007866
 30
0.0
 11
-3.737875057503757
 21
2.434669432007866
 31
0.0
  0
LINE
  5
22C
330
2
100
AcDbEntity
  8
0
100
AcDbLine
 10
-3.928971641150774
 20
2.263669432007866
 30
0.0
 11
-3.737875057503757
 21
2.263669432007866
 31
0.0
  0
ARC
  5
22D
330
2
100
AcDbEntity
  8
0
100
AcDbCircle
 10
-3.830007471616014
 20
2.346814243474146
 30
0.0
 40
0.1292554313189278
100
AcDbArc
 50
137.1796312694826
 51
220.0353196785141
  0
ARC
  5
22E
330
2
100
AcDbEntity
  8
0
100
AcDbCircle
 10
-4.295964181135823
 20
2.976623724782662
 30
0.0
 40
0.0855
100
AcDbArc
 50
270.0
 51
90.00000000000003
  0
ARC
  5
22F
330
2
100
AcDbEntity
  8
0
100
AcDbCircle
 10
-4.420964181135823
 20
2.976623724782662
 30
0.0
 40
0.0855
100
AcDbArc
 50
90.00000000000003
 51
270.0
  0
LINE
  5
230
330
2
100
AcDbEntity
  8
0
100
AcDbLine
 10
-4.420964181135823
 20
2.891123724782659
 30
0.0
 11
-4.295964181135823
 21
2.891123724782659
 31
0.0
  0
LINE
  5
231
330
2
100
AcDbEntity
  8
0
100
AcDbLine
 10
-4.420964181135823
 20
3.062123724782659
 30
0.0
 11
-4.295964181135823
 21
3.062123724782659
 31
0.0
  0
LINE
  5
232
330
2
100
AcDbEntity
  8
0
100
AcDbLine
 10
-3.924814815072061
 20
3.395090333598205
 30
0.0
 11
-3.737875057503757
 21
3.395090333598201
 31
0.0
  0
LINE
  5
233
330
2
100
AcDbEntity
  8
0
100
AcDbLine
 10
-3.928971641150774
 20
3.224090333598205
 30
0.0
 11
-3.737875057503757
 21
3.224090333598205
 31
0.0
  0
ARC
  5
234
330
2
100
AcDbEntity
  8
0
100
AcDbCircle
 10
-3.830007471616014
 20
3.307235145064482
 30
0.0
 40
0.1292554313189278
100
AcDbArc
 50
137.1796312694826
 51
220.0353196785141
  0
CIRCLE
  5
235
330
2
100
AcDbEntity
  8
0
100
AcDbCircle
 10
-5.608464181135837
 20
3.851623724782655
 30
0.0
 40
0.0855
  0
CIRCLE
  5
236
330
2
100
AcDbEntity
  8
0
100
AcDbCircle
 10
-4.87496910428936
 20
3.656149999999954
 30
0.0
 40
0.0855
  0
CIRCLE
  5
237
330
2
100
AcDbEntity
  8
0
100
AcDbCircle
 10
-5.045964181135837
 20
4.226623724782655
 30
0.0
 40
0.0855
  0
ARC
  5
238
330
2
100
AcDbEntity
  8
0
100
AcDbCircle
 10
-4.420964181135823
 20
4.476623724782662
 30
0.0
 40
0.0855
100
AcDbArc
 50
90.00000000000003
 51
270.0
  0
ARC
  5
239
330
2
100
AcDbEntity
  8
0
100
AcDbCircle
 10
-4.295964181135823
 20
4.476623724782662
 30
0.0
 40
0.0855
100
AcDbArc
 50
270.0
 51
90.00000000000003
  0
LINE
  5
23A
330
2
100
AcDbEntity
  8
0
100
AcDbLine
 10
-4.420964181135823
 20
4.391123724782659
 30
0.0
 11
-4.295964181135823
 21
4.391123724782659
 31
0.0
  0
LINE
  5
23B
330
2
100
AcDbEntity
  8
0
100
AcDbLine
 10
-4.420964181135823
 20
4.562123724782659
 30
0.0
 11
-4.295964181135823
 21
4.562123724782659
 31
0.0
  0
LINE
  5
23C
330
2
100
AcDbEntity
  8
0
100
AcDbLine
 10
-3.924814815072061
 20
4.420559662786296
 30
0.0
 11
-3.737875057503757
 21
4.420559662786292
 31
0.0
  0
LINE
  5
23D
330
2
100
AcDbEntity
  8
0
100
AcDbLine
 10
-3.928971641150774
 20
4.249559662786297
 30
0.0
 11
-3.737875057503757
 21
4.249559662786297
 31
0.0
  0
ARC
  5
23E
330
2
100
AcDbEntity
  8
0
100
AcDbCircle
 10
-3.830007471616014
 20
4.332704474252573
 30
0.0
 40
0.1292554313189278
100
AcDbArc
 50
137.1796312694826
 51
220.0353196785141
  0
CIRCLE
  5
23F
330
2
100
AcDbEntity
  8
0
100
AcDbCircle
 10
-5.358469104289355
 20
5.218649999999951
 30
0.0
 40
0.0855
  0
ARC
  5
240
330
2
100
AcDbEntity
  8
0
100
AcDbCircle
 10
-3.830007471616014
 20
5.356260614393669
 30
0.0
 40
0.1292554313189278
100
AcDbArc
 50
137.1796312694826
 51
220.0353196785141
  0
ARC
  5
241
330
2
100
AcDbEntity
  8
0
100
AcDbCircle
 10
-4.295964181135823
 20
4.976623724782662
 30
0.0
 40
0.0855
100
AcDbArc
 50
270.0
 51
90.00000000000003
  0
ARC
  5
242
330
2
100
AcDbEntity
  8
0
100
AcDbCircle
 10
-4.420964181135823
 20
4.976623724782662
 30
0.0
 40
0.0855
100
AcDbArc
 50
90.00000000000003
 51
270.0
  0
LINE
  5
243
330
2
100
AcDbEntity
  8
0
100
AcDbLine
 10
-4.420964181135823
 20
5.062123724782659
 30
0.0
 11
-4.295964181135823
 21
5.062123724782659
 31
0.0
  0
LINE
  5
244
330
2
100
AcDbEntity
  8
0
100
AcDbLine
 10
-4.420964181135823
 20
4.891123724782659
 30
0.0
 11
-4.295964181135823
 21
4.891123724782659
 31
0.0
  0
LINE
  5
245
330
2
100
AcDbEntity
  8
0
100
AcDbLine
 10
-3.928971641150774
 20
5.273115802927393
 30
0.0
 11
-3.737875057503757
 21
5.273115802927393
 31
0.0
  0
CIRCLE
  5
246
330
2
100
AcDbEntity
  8
0
100
AcDbCircle
 10
-4.483464181135823
 20
5.601623724782655
 30
0.0
 40
0.0855
  0
LINE
  5
247
330
2
100
AcDbEntity
  8
0
100
AcDbLine
 10
-3.924814815072061
 20
5.444115802927392
 30
0.0
 11
-3.737875057503757
 21
5.444115802927389
 31
0.0
  0
LINE
  5
248
330
2
100
AcDbEntity
  8
0
100
AcDbLine
 10
5.094066143145472
 20
1.89169703885629
 30
0.0
 11
3.726264181135836
 21
0.523895076846669
 31
0.0
  0
ARC
  5
249
330
2
100
AcDbEntity
  8
0
100
AcDbCircle
 10
3.830007471616021
 20
0.9482581033330462
 30
0.0
 40
0.1292554313189278
100
AcDbArc
 50
319.9646803214859
 51
42.82036873051739
  0
ARC
  5
24A
330
2
100
AcDbEntity
  8
0
100
AcDbCircle
 10
3.538764181135839
 20
0.1874999999999965
 30
0.0
 40
0.1875
100
AcDbArc
 50
270.0
 51
0.0
  0
ARC
  5
24B
330
2
100
AcDbEntity
  8
0
100
AcDbCircle
 10
3.538764181135839
 20
0.1875
 30
0.0
 40
0.09375
100
AcDbArc
 50
270.0
 51
0.0
  0
LINE
  5
24C
330
2
100
AcDbEntity
  8
0
100
AcDbLine
 10
3.928971641150781
 20
0.8651132918667699
 30
0.0
 11
3.737875057503764
 21
0.8651132918667699
 31
0.0
  0
ARC
  5
24D
330
2
100
AcDbEntity
  8
0
100
AcDbCircle
 10
2.795969104289188
 20
4.18979407771262
 30
0.0
 40
3.25
100
AcDbArc
 50
314.9999999999996
 51
0.000000000000007
  0
CIRCLE
  5
24E
330
2
100
AcDbEntity
  8
0
100
AcDbCircle
 10
4.483464181135837
 20
3.468699999999998
 30
0.0
 40
0.0855
  0
CIRCLE
  5
24F
330
2
100
AcDbEntity
  8
0
100
AcDbCircle
 10
4.483469104289373
 20
1.781150000000011
 30
0.0
 40
0.0855
  0
CIRCLE
  5
250
330
2
100
AcDbEntity
  8
0
100
AcDbCircle
 10
4.483464181135837
 20
1.781199999999995
 30
0.0
 40
0.0855
  0
LINE
  5
251
330
2
100
AcDbEntity
  8
0
100
AcDbLine
 10
3.924814815072075
 20
1.036113291866769
 30
0.0
 11
3.737875057503764
 21
1.036113291866766
 31
0.0
  0
LINE
  5
252
330
2
100
AcDbEntity
  8
0
100
AcDbLine
 10
3.928971641150781
 20
1.888669432007866
 30
0.0
 11
3.737875057503764
 21
1.888669432007866
 31
0.0
  0
LINE
  5
253
330
2
100
AcDbEntity
  8
0
100
AcDbLine
 10
3.924814815072075
 20
2.059669432007866
 30
0.0
 11
3.737875057503764
 21
2.059669432007866
 31
0.0
  0
ARC
  5
254
330
2
100
AcDbEntity
  8
0
100
AcDbCircle
 10
3.830007471616021
 20
1.971814243474146
 30
0.0
 40
0.1292554313189278
100
AcDbArc
 50
319.9646803214859
 51
42.82036873051739
  0
ARC
  5
255
330
2
100
AcDbEntity
  8
0
100
AcDbCircle
 10
4.420964181135833
 20
2.976623724782662
 30
0.0
 40
0.0855
100
AcDbArc
 50
270.0
 51
89.99999999999999
  0
LINE
  5
256
330
2
100
AcDbEntity
  8
0
100
AcDbLine
 10
3.928971641150781
 20
2.849090333598205
 30
0.0
 11
3.737875057503764
 21
2.849090333598205
 31
0.0
  0
LINE
  5
257
330
2
100
AcDbEntity
  8
0
100
AcDbLine
 10
3.924814815072075
 20
3.020090333598205
 30
0.0
 11
3.737875057503764
 21
3.020090333598201
 31
0.0
  0
LINE
  5
258
330
2
100
AcDbEntity
  8
0
100
AcDbLine
 10
4.420964181135833
 20
3.062123724782666
 30
0.0
 11
4.295964181135833
 21
3.062123724782666
 31
0.0
  0
LINE
  5
259
330
2
100
AcDbEntity
  8
0
100
AcDbLine
 10
4.420964181135833
 20
2.891123724782666
 30
0.0
 11
4.295964181135833
 21
2.891123724782666
 31
0.0
  0
ARC
  5
25A
330
2
100
AcDbEntity
  8
0
100
AcDbCircle
 10
4.295964181135833
 20
2.976623724782662
 30
0.0
 40
0.0855
100
AcDbArc
 50
89.99999999999999
 51
270.0
  0
ARC
  5
25B
330
2
100
AcDbEntity
  8
0
100
AcDbCircle
 10
3.830007471616021
 20
2.932235145064482
 30
0.0
 40
0.1292554313189278
100
AcDbArc
 50
319.9646803214859
 51
42.82036873051739
  0
CIRCLE
  5
25C
330
2
100
AcDbEntity
  8
0
100
AcDbCircle
 10
5.045969104289373
 20
2.468650000000011
 30
0.0
 40
0.0855
  0
CIRCLE
  5
25D
330
2
100
AcDbEntity
  8
0
100
AcDbCircle
 10
5.045964181135847
 20
2.468699999999998
 30
0.0
 40
0.0855
  0
CIRCLE
  5
25E
330
2
100
AcDbEntity
  8
0
100
AcDbCircle
 10
5.358464181135847
 20
3.218699999999998
 30
0.0
 40
0.0855
  0
CIRCLE
  5
25F
330
2
100
AcDbEntity
  8
0
100
AcDbCircle
 10
5.608464181135847
 20
3.843699999999995
 30
0.0
 40
0.0855
  0
ARC
  5
260
330
2
100
AcDbEntity
  8
0
100
AcDbCircle
 10
4.420964181135833
 20
4.468699999999998
 30
0.0
 40
0.0855
100
AcDbArc
 50
270.0
 51
89.99999999999999
  0
ARC
  5
261
330
2
100
AcDbEntity
  8
0
100
AcDbCircle
 10
3.830007471616021
 20
3.957704474252573
 30
0.0
 40
0.1292554313189278
100
AcDbArc
 50
319.9646803214859
 51
42.82036873051739
  0
LINE
  5
262
330
2
100
AcDbEntity
  8
0
100
AcDbLine
 10
3.928971641150781
 20
3.874559662786297
 30
0.0
 11
3.737875057503764
 21
3.874559662786297
 31
0.0
  0
LINE
  5
263
330
2
100
AcDbEntity
  8
0
100
AcDbLine
 10
3.924814815072075
 20
4.045559662786296
 30
0.0
 11
3.737875057503764
 21
4.045559662786292
 31
0.0
  0
ARC
  5
264
330
2
100
AcDbEntity
  8
0
100
AcDbCircle
 10
4.295964181135833
 20
4.468699999999998
 30
0.0
 40
0.0855
100
AcDbArc
 50
89.99999999999999
 51
270.0
  0
LINE
  5
265
330
2
100
AcDbEntity
  8
0
100
AcDbLine
 10
4.420964181135833
 20
4.383200000000002
 30
0.0
 11
4.295964181135833
 21
4.383200000000002
 31
0.0
  0
LINE
  5
266
330
2
100
AcDbEntity
  8
0
100
AcDbLine
 10
4.420964181135833
 20
4.554200000000002
 30
0.0
 11
4.295964181135833
 21
4.554200000000002
 31
0.0
  0
CIRCLE
  5
267
330
2
100
AcDbEntity
  8
0
100
AcDbCircle
 10
4.874969104289381
 20
3.656150000000011
 30
0.0
 40
0.0855
  0
CIRCLE
  5
268
330
2
100
AcDbEntity
  8
0
100
AcDbCircle
 10
5.045969104289373
 20
4.218650000000011
 30
0.0
 40
0.0855
  0
CIRCLE
  5
269
330
2
100
AcDbEntity
  8
0
100
AcDbCircle
 10
5.045964181135847
 20
4.218699999999998
 30
0.0
 40
0.0855
  0
CIRCLE
  5
26A
330
2
100
AcDbEntity
  8
0
100
AcDbCircle
 10
4.483464181135837
 20
5.593699999999995
 30
0.0
 40
0.0855
  0
ARC
  5
26B
330
2
100
AcDbEntity
  8
0
100
AcDbCircle
 10
4.420964181135833
 20
4.968700000000002
 30
0.0
 40
0.0855
100
AcDbArc
 50
270.0
 51
89.99999999999999
  0
LINE
  5
26C
330
2
100
AcDbEntity
  8
0
100
AcDbLine
 10
3.928971641150781
 20
4.898115802927393
 30
0.0
 11
3.737875057503764
 21
4.898115802927393
 31
0.0
  0
LINE
  5
26D
330
2
100
AcDbEntity
  8
0
100
AcDbLine
 10
3.924814815072075
 20
5.069115802927392
 30
0.0
 11
3.737875057503764
 21
5.069115802927389
 31
0.0
  0
LINE
  5
26E
330
2
100
AcDbEntity
  8
0
100
AcDbLine
 10
4.420964181135833
 20
4.883200000000002
 30
0.0
 11
4.295964181135833
 21
4.883200000000002
 31
0.0
  0
LINE
  5
26F
330
2
100
AcDbEntity
  8
0
100
AcDbLine
 10
4.420964181135833
 20
5.054200000000002
 30
0.0
 11
4.295964181135833
 21
5.054200000000002
 31
0.0
  0
ARC
  5
270
330
2
100
AcDbEntity
  8
0
100
AcDbCircle
 10
4.295964181135833
 20
4.968700000000002
 30
0.0
 40
0.0855
100
AcDbArc
 50
89.99999999999999
 51
270.0
  0
ARC
  5
271
330
2
100
AcDbEntity
  8
0
100
AcDbCircle
 10
3.830007471616021
 20
4.981260614393669
 30
0.0
 40
0.1292554313189278
100
AcDbArc
 50
319.9646803214859
 51
42.82036873051739
  0
LINE
  5
272
330
2
100
AcDbEntity
  8
0
100
AcDbLine
 10
3.928971641150781
 20
5.898115802927393
 30
0.0
 11
3.737875057503764
 21
5.898115802927393
 31
0.0
  0
CIRCLE
  5
273
330
2
100
AcDbEntity
  8
0
100
AcDbCircle
 10
5.358464181135847
 20
5.218699999999995
 30
0.0
 40
0.0855
  0
LINE
  5
274
330
2
100
AcDbEntity
  8
0
100
AcDbLine
 10
6.045969104289188
 20
4.189794077712616
 30
0.0
 11
6.045969104289188
 21
4.72932330470341
 31
0.0
  0
CIRCLE
  5
275
330
2
100
AcDbEntity
  8
0
100
AcDbCircle
 10
5.795964181135847
 20
4.468699999999998
 30
0.0
 40
0.0855
  0
LINE
  5
276
330
2
100
AcDbEntity
  8
0
100
AcDbLine
 10
6.358469104289132
 20
5.799120185445439
 30
0.0
 11
6.358469104289132
 21
5.152673576038719
 31
0.0
  0
LINE
  5
277
330
2
100
AcDbEntity
  8
0
100
AcDbLine
 10
6.321857451937444
 20
5.0642852283904
 30
0.0
 11
6.082580756640812
 21
4.825008533093765
 31
0.0
  0
ARC
  5
278
330
2
100
AcDbEntity
  8
0
100
AcDbCircle
 10
6.170969104289188
 20
4.729323304703414
 30
0.0
 40
0.125
100
AcDbArc
 50
134.9999999999995
 51
180.0
  0
ARC
  5
279
330
2
100
AcDbEntity
  8
0
100
AcDbCircle
 10
6.170969104289132
 20
4.736620185445446
 30
0.0
 40
0.125
100
AcDbArc
 50
134.9999999999999
 51
180.0
  0
ARC
  5
27A
330
2
100
AcDbEntity
  8
0
100
AcDbCircle
 10
6.233469104289132
 20
5.152673576038719
 30
0.0
 40
0.125
100
AcDbArc
 50
314.9999999999997
 51
0.0
  0
CIRCLE
  5
27B
330
2
100
AcDbEntity
  8
0
100
AcDbCircle
 10
6.108464181135847
 20
5.468699999999995
 30
0.0
 40
0.0855
  0
ARC
  5
27C
330
2
100
AcDbEntity
  8
0
100
AcDbCircle
 10
6.233469104289132
 20
5.799120185445439
 30
0.0
 40
0.125
100
AcDbArc
 50
0.0
 51
45.00000000000033
  0
CIRCLE
  5
27D
330
2
100
AcDbEntity
  8
0
100
AcDbCircle
 10
-5.795964181135837
 20
6.476623724782662
 30
0.0
 40
0.0855
  0
CIRCLE
  5
27E
330
2
100
AcDbEntity
  8
0
100
AcDbCircle
 10
-5.795964181135837
 20
8.476673724782661
 30
0.0
 40
0.0855
  0
LINE
  5
27F
330
2
100
AcDbEntity
  8
0
100
AcDbLine
 10
-6.045969104289114
 20
8.718750000000004
 30
0.0
 11
-3.632514181135839
 21
8.71875
 31
0.0
  0
LINE
  5
280
330
2
100
AcDbEntity
  8
0
100
AcDbLine
 10
-6.045969104289121
 20
8.223097402433744
 30
0.0
 11
-6.045969104289114
 21
8.718750000000007
 31
0.0
  0
ARC
  5
281
330
2
100
AcDbEntity
  8
0
100
AcDbCircle
 10
-6.233469104289121
 20
7.16059730082138
 30
0.0
 40
0.125
100
AcDbArc
 50
180.0
 51
225.0000000000003
  0
LINE
  5
282
330
2
100
AcDbEntity
  8
0
100
AcDbLine
 10
-6.045969104289121
 20
6.223097402433744
 30
0.0
 11
-6.045969104289114
 21
6.726623724782652
 31
0.0
  0
LINE
  5
283
330
2
100
AcDbEntity
  8
0
100
AcDbLine
 10
-6.045969104289121
 20
6.726623724782652
 30
0.0
 11
-6.045969104289121
 21
6.223097300821372
 31
0.0
  0
ARC
  5
284
330
2
100
AcDbEntity
  8
0
100
AcDbCircle
 10
-6.170969104289121
 20
6.223097300821372
 30
0.0
 40
0.125
100
AcDbArc
 50
315.0
 51
0.0
  0
LINE
  5
285
330
2
100
AcDbEntity
  8
0
100
AcDbLine
 10
-6.32185745193744
 20
7.07220895317306
 30
0.0
 11
-6.082580756640802
 21
6.832932257876422
 31
0.0
  0
ARC
  5
286
330
2
100
AcDbEntity
  8
0
100
AcDbCircle
 10
-6.170969104289121
 20
6.744543910228103
 30
0.0
 40
0.125
100
AcDbArc
 50
0.0
 51
45.00000000000014
  0
LINE
  5
287
330
2
100
AcDbEntity
  8
0
100
AcDbLine
 10
-6.358469104289121
 20
7.807043910228096
 30
0.0
 11
-6.358469104289121
 21
7.16059730082138
 31
0.0
  0
CIRCLE
  5
288
330
2
100
AcDbEntity
  8
0
100
AcDbCircle
 10
-6.108464181135837
 20
7.476623724782655
 30
0.0
 40
0.0855
  0
LINE
  5
289
330
2
100
AcDbEntity
  8
0
100
AcDbLine
 10
-6.082580756640802
 20
8.134708953173053
 30
0.0
 11
-6.32185745193744
 21
7.895432257876415
 31
0.0
  0
ARC
  5
28A
330
2
100
AcDbEntity
  8
0
100
AcDbCircle
 10
-6.233469104289121
 20
7.807043910228096
 30
0.0
 40
0.125
100
AcDbArc
 50
134.9999999999996
 51
180.0
  0
ARC
  5
28B
330
2
100
AcDbEntity
  8
0
100
AcDbCircle
 10
-6.170969104289121
 20
8.223097300821372
 30
0.0
 40
0.125
100
AcDbArc
 50
315.0
 51
0.0
  0
ARC
  5
28C
330
2
100
AcDbEntity
  8
0
100
AcDbCircle
 10
-4.295964181135823
 20
8.476623724782662
 30
0.0
 40
0.0855
100
AcDbArc
 50
270.0
 51
90.00000000000003
  0
ARC
  5
28D
330
2
100
AcDbEntity
  8
0
100
AcDbCircle
 10
-4.420964181135823
 20
8.476623724782662
 30
0.0
 40
0.0855
100
AcDbArc
 50
90.00000000000003
 51
270.0
  0
ARC
  5
28E
330
2
100
AcDbEntity
  8
0
100
AcDbCircle
 10
-3.830007471616014
 20
8.3421508451721
 30
0.0
 40
0.1292554313189278
100
AcDbArc
 50
137.1796312694826
 51
220.0353196785141
  0
CIRCLE
  5
28F
330
2
100
AcDbEntity
  8
0
100
AcDbCircle
 10
-5.358464181135837
 20
7.226623724782655
 30
0.0
 40
0.0855
  0
CIRCLE
  5
290
330
2
100
AcDbEntity
  8
0
100
AcDbCircle
 10
-5.045964181135837
 20
6.226623724782662
 30
0.0
 40
0.0855
  0
ARC
  5
291
330
2
100
AcDbEntity
  8
0
100
AcDbCircle
 10
-4.420964181135823
 20
6.476623724782662
 30
0.0
 40
0.0855
100
AcDbArc
 50
90.00000000000003
 51
270.0
  0
ARC
  5
292
330
2
100
AcDbEntity
  8
0
100
AcDbCircle
 10
-4.295964181135823
 20
6.476623724782662
 30
0.0
 40
0.0855
100
AcDbArc
 50
270.0
 51
90.00000000000003
  0
LINE
  5
293
330
2
100
AcDbEntity
  8
0
100
AcDbLine
 10
-4.420964181135823
 20
6.391123724782659
 30
0.0
 11
-4.295964181135823
 21
6.391123724782659
 31
0.0
  0
LINE
  5
294
330
2
100
AcDbEntity
  8
0
100
AcDbLine
 10
-3.924814815072061
 20
6.444115802927392
 30
0.0
 11
-3.737875057503757
 21
6.444115802927389
 31
0.0
  0
LINE
  5
295
330
2
100
AcDbEntity
  8
0
100
AcDbLine
 10
-3.928971641150774
 20
6.273115802927393
 30
0.0
 11
-3.737875057503757
 21
6.273115802927393
 31
0.0
  0
LINE
  5
296
330
2
100
AcDbEntity
  8
0
100
AcDbLine
 10
-3.726264181135839
 20
6.526623724782652
 30
0.0
 11
-3.726264181135839
 21
6.426623724782651
 31
0.0
  0
ARC
  5
297
330
2
100
AcDbEntity
  8
0
100
AcDbCircle
 10
-3.830007471616014
 20
6.356260614393669
 30
0.0
 40
0.1292554313189278
100
AcDbArc
 50
137.1796312694826
 51
220.0353196785141
  0
LINE
  5
298
330
2
100
AcDbEntity
  8
0
100
AcDbLine
 10
-4.420964181135823
 20
6.562123724782659
 30
0.0
 11
-4.295964181135823
 21
6.562123724782659
 31
0.0
  0
CIRCLE
  5
299
330
2
100
AcDbEntity
  8
0
100
AcDbCircle
 10
-4.483464181135823
 20
7.726623724782655
 30
0.0
 40
0.0855
  0
LINE
  5
29A
330
2
100
AcDbEntity
  8
0
100
AcDbLine
 10
-3.924814815072061
 20
7.430006033705823
 30
0.0
 11
-3.737875057503757
 21
7.430006033705819
 31
0.0
  0
LINE
  5
29B
330
2
100
AcDbEntity
  8
0
100
AcDbLine
 10
-3.928971641150774
 20
7.259006033705823
 30
0.0
 11
-3.737875057503757
 21
7.259006033705823
 31
0.0
  0
ARC
  5
29C
330
2
100
AcDbEntity
  8
0
100
AcDbCircle
 10
-3.830007471616014
 20
7.3421508451721
 30
0.0
 40
0.1292554313189278
100
AcDbArc
 50
137.1796312694826
 51
220.0353196785141
  0
LINE
  5
29D
330
2
100
AcDbEntity
  8
0
100
AcDbLine
 10
-4.420964181135823
 20
8.391123724782659
 30
0.0
 11
-4.295964181135823
 21
8.391123724782659
 31
0.0
  0
LINE
  5
29E
330
2
100
AcDbEntity
  8
0
100
AcDbLine
 10
-3.928971641150774
 20
8.259006033705823
 30
0.0
 11
-3.737875057503757
 21
8.259006033705823
 31
0.0
  0
LINE
  5
29F
330
2
100
AcDbEntity
  8
0
100
AcDbLine
 10
-4.420964181135823
 20
8.562123724782659
 30
0.0
 11
-4.295964181135823
 21
8.562123724782659
 31
0.0
  0
LINE
  5
2A0
330
2
100
AcDbEntity
  8
0
100
AcDbLine
 10
-3.924814815072061
 20
8.430006033705823
 30
0.0
 11
-3.737875057503757
 21
8.430006033705819
 31
0.0
  0
ARC
  5
2A1
330
2
100
AcDbEntity
  8
0
100
AcDbCircle
 10
4.420964181135833
 20
8.468700000000002
 30
0.0
 40
0.0855
100
AcDbArc
 50
270.0
 51
89.99999999999999
  0
ARC
  5
2A2
330
2
100
AcDbEntity
  8
0
100
AcDbCircle
 10
4.295964181135833
 20
8.468700000000002
 30
0.0
 40
0.0855
100
AcDbArc
 50
89.99999999999999
 51
270.0
  0
LINE
  5
2A3
330
2
100
AcDbEntity
  8
0
100
AcDbLine
 10
6.045969104289124
 20
8.215173677651087
 30
0.0
 11
6.045969104289124
 21
8.718699999999991
 31
0.0
  0
LINE
  5
2A4
330
2
100
AcDbEntity
  8
0
100
AcDbLine
 10
6.045969104289124
 20
8.718699999999991
 30
0.0
 11
6.045969104289132
 21
8.215173576038716
 31
0.0
  0
CIRCLE
  5
2A5
330
2
100
AcDbEntity
  8
0
100
AcDbCircle
 10
5.79596418113584
 20
8.46875
 30
0.0
 40
0.0855
  0
CIRCLE
  5
2A6
330
2
100
AcDbEntity
  8
0
100
AcDbCircle
 10
5.358464181135847
 20
7.218699999999995
 30
0.0
 40
0.0855
  0
ARC
  5
2A7
330
2
100
AcDbEntity
  8
0
100
AcDbCircle
 10
4.420964181135833
 20
6.468700000000002
 30
0.0
 40
0.0855
100
AcDbArc
 50
270.0
 51
89.99999999999999
  0
ARC
  5
2A8
330
2
100
AcDbEntity
  8
0
100
AcDbCircle
 10
4.295964181135833
 20
6.468700000000002
 30
0.0
 40
0.0855
100
AcDbArc
 50
89.99999999999999
 51
270.0
  0
LINE
  5
2A9
330
2
100
AcDbEntity
  8
0
100
AcDbLine
 10
3.924814815072075
 20
6.069115802927392
 30
0.0
 11
3.737875057503764
 21
6.069115802927389
 31
0.0
  0
LINE
  5
2AA
330
2
100
AcDbEntity
  8
0
100
AcDbLine
 10
4.420964181135833
 20
6.383200000000002
 30
0.0
 11
4.295964181135833
 21
6.383200000000002
 31
0.0
  0
LINE
  5
2AB
330
2
100
AcDbEntity
  8
0
100
AcDbLine
 10
3.928971641150781
 20
6.884006033705823
 30
0.0
 11
3.737875057503764
 21
6.884006033705823
 31
0.0
  0
LINE
  5
2AC
330
2
100
AcDbEntity
  8
0
100
AcDbLine
 10
3.924814815072075
 20
7.055006033705823
 30
0.0
 11
3.737875057503764
 21
7.055006033705819
 31
0.0
  0
LINE
  5
2AD
330
2
100
AcDbEntity
  8
0
100
AcDbLine
 10
4.420964181135833
 20
6.554200000000002
 30
0.0
 11
4.295964181135833
 21
6.554200000000002
 31
0.0
  0
ARC
  5
2AE
330
2
100
AcDbEntity
  8
0
100
AcDbCircle
 10
3.830007471616021
 20
6.9671508451721
 30
0.0
 40
0.1292554313189278
100
AcDbArc
 50
319.9646803214859
 51
42.82036873051739
  0
CIRCLE
  5
2AF
330
2
100
AcDbEntity
  8
0
100
AcDbCircle
 10
5.04596418113584
 20
6.218700000000002
 30
0.0
 40
0.0855
  0
CIRCLE
  5
2B0
330
2
100
AcDbEntity
  8
0
100
AcDbCircle
 10
4.483464181135837
 20
7.718699999999995
 30
0.0
 40
0.0855
  0
LINE
  5
2B1
330
2
100
AcDbEntity
  8
0
100
AcDbLine
 10
3.924814815072075
 20
8.055006033705823
 30
0.0
 11
3.737875057503764
 21
8.055006033705819
 31
0.0
  0
LINE
  5
2B2
330
2
100
AcDbEntity
  8
0
100
AcDbLine
 10
3.928971641150781
 20
7.884006033705823
 30
0.0
 11
3.737875057503764
 21
7.884006033705823
 31
0.0
  0
LINE
  5
2B3
330
2
100
AcDbEntity
  8
0
100
AcDbLine
 10
4.420964181135833
 20
8.383200000000002
 30
0.0
 11
4.295964181135833
 21
8.383200000000002
 31
0.0
  0
ARC
  5
2B4
330
2
100
AcDbEntity
  8
0
100
AcDbCircle
 10
3.830007471616021
 20
7.9671508451721
 30
0.0
 40
0.1292554313189278
100
AcDbArc
 50
319.9646803214859
 51
42.82036873051739
  0
ARC
  5
2B5
330
2
100
AcDbEntity
  8
0
100
AcDbCircle
 10
6.233469104289132
 20
7.152673576038719
 30
0.0
 40
0.125
100
AcDbArc
 50
314.9999999999997
 51
0.0
  0
LINE
  5
2B6
330
2
100
AcDbEntity
  8
0
100
AcDbLine
 10
6.045969104289132
 20
6.718699999999991
 30
0.0
 11
6.045969104289132
 21
6.215173576038716
 31
0.0
  0
CIRCLE
  5
2B7
330
2
100
AcDbEntity
  8
0
100
AcDbCircle
 10
5.79596418113584
 20
6.468700000000002
 30
0.0
 40
0.0855
  0
LINE
  5
2B8
330
2
100
AcDbEntity
  8
0
100
AcDbLine
 10
6.045969104289124
 20
6.215173677651087
 30
0.0
 11
6.045969104289132
 21
6.736620185445446
 31
0.0
  0
ARC
  5
2B9
330
2
100
AcDbEntity
  8
0
100
AcDbCircle
 10
6.170969104289132
 20
6.215173576038716
 30
0.0
 40
0.125
100
AcDbArc
 50
180.0
 51
225.0000000000001
  0
LINE
  5
2BA
330
2
100
AcDbEntity
  8
0
100
AcDbLine
 10
6.321857451937444
 20
7.0642852283904
 30
0.0
 11
6.082580756640812
 21
6.825008533093765
 31
0.0
  0
ARC
  5
2BB
330
2
100
AcDbEntity
  8
0
100
AcDbCircle
 10
6.170969104289132
 20
6.736620185445446
 30
0.0
 40
0.125
100
AcDbArc
 50
134.9999999999999
 51
180.0
  0
LINE
  5
2BC
330
2
100
AcDbEntity
  8
0
100
AcDbLine
 10
6.358469104289132
 20
7.799120185445439
 30
0.0
 11
6.358469104289132
 21
7.152673576038719
 31
0.0
  0
CIRCLE
  5
2BD
330
2
100
AcDbEntity
  8
0
100
AcDbCircle
 10
6.108464181135847
 20
7.468699999999995
 30
0.0
 40
0.0855
  0
LINE
  5
2BE
330
2
100
AcDbEntity
  8
0
100
AcDbLine
 10
6.082580756640812
 20
8.126785228390396
 30
0.0
 11
6.321857451937444
 21
7.887508533093758
 31
0.0
  0
ARC
  5
2BF
330
2
100
AcDbEntity
  8
0
100
AcDbCircle
 10
6.170969104289132
 20
8.215173576038716
 30
0.0
 40
0.125
100
AcDbArc
 50
180.0
 51
225.0000000000001
  0
ARC
  5
2C0
330
2
100
AcDbEntity
  8
0
100
AcDbCircle
 10
6.233469104289132
 20
7.799120185445439
 30
0.0
 40
0.125
100
AcDbArc
 50
0.0
 51
45.00000000000033
  0
LINE
  5
2C1
330
2
100
AcDbEntity
  8
0
100
AcDbLine
 10
3.632514181135839
 20
8.718749999999993
 30
0.0
 11
6.045969104289124
 21
8.718699999999991
 31
0.0
  0
LINE
  5
2C2
330
2
100
AcDbEntity
  8
0
100
AcDbLine
 10
4.420964181135833
 20
8.554200000000002
 30
0.0
 11
4.295964181135833
 21
8.554200000000002
 31
0.0
  0
LINE
  5
2CF
330
2
100
AcDbEntity
  8
0
100
AcDbLine
 10
-14.21682891902685
 20
0.5207269749706214
 30
0.0
 11
-14.21682891902685
 21
6.718699999999991
 31
0.0
  0
LINE
  5
2D0
330
2
100
AcDbEntity
  8
0
100
AcDbLine
 10
-12.57314549453182
 20
6.126785228390396
 30
0.0
 11
-12.81242218982845
 21
5.887508533093758
 31
0.0
  0
ARC
  5
2D1
330
2
100
AcDbEntity
  8
0
100
AcDbCircle
 10
-13.31773032027698
 20
6.345291977737562
 30
0.0
 40
0.0855
100
AcDbArc
 50
269.9998349343467
 51
90.00016506565325
  0
ARC
  5
2D2
330
2
100
AcDbEntity
  8
0
100
AcDbCircle
 10
-13.33809775038799
 20
6.345291977737562
 30
0.0
 40
0.0855
100
AcDbArc
 50
269.9998349343467
 51
90.00016506565325
  0
ARC
  5
2D3
330
2
100
AcDbEntity
  8
0
100
AcDbCircle
 10
-13.27932891902685
 20
6.345291977737199
 30
0.0
 40
0.0855
100
AcDbArc
 50
270.0
 51
90.0
  0
LINE
  5
2D4
330
2
100
AcDbEntity
  8
0
100
AcDbLine
 10
-13.48332891902686
 20
6.430791977737203
 30
0.0
 11
-13.48332891902686
 21
6.259791977737207
 31
0.0
  0
LINE
  5
2D5
330
2
100
AcDbEntity
  8
0
100
AcDbLine
 10
-14.31057891902685
 20
0.5207269749706196
 30
0.0
 11
-14.31057891902685
 21
8.718749999999996
 31
0.0
  0
LINE
  5
2D6
330
2
100
AcDbEntity
  8
0
100
AcDbLine
 10
-14.03899909280374
 20
-0.000000000000048
 30
0.0
 11
-10.03899909280374
 21
-0.0000000000000515
 31
0.0
  0
LINE
  5
2D7
330
2
100
AcDbEntity
  8
0
  6
HIDDEN
100
AcDbLine
 10
-14.04665689732727
 20
0.0937499999999538
 30
0.0
 11
-10.1458191834118
 21
0.0937499999999503
 31
0.0
  0
LINE
  5
2D8
330
2
100
AcDbEntity
  8
0
100
AcDbLine
 10
-11.58463088103646
 20
1.891697038856329
 30
0.0
 11
-10.25620375629029
 21
0.5632699141101725
 31
0.0
  0
ARC
  5
2D9
330
2
100
AcDbEntity
  8
0
100
AcDbCircle
 10
-10.77912442519101
 20
0.0381109601173435
 30
0.0
 40
0.7411058985883523
100
AcDbArc
 50
357.0522961293112
 51
45.12236102234991
  0
ARC
  5
2DA
330
2
100
AcDbEntity
  8
0
100
AcDbCircle
 10
-9.286533842180177
 20
4.189794077712655
 30
0.0
 40
3.25
100
AcDbArc
 50
180.0
 51
225.0000000000005
  0
LINE
  5
2DB
330
2
100
AcDbEntity
  8
0
100
AcDbLine
 10
-12.53653384218013
 20
4.189794077712655
 30
0.0
 11
-12.53653384218013
 21
4.736620185445439
 31
0.0
  0
LINE
  5
2DC
330
2
100
AcDbEntity
  8
0
100
AcDbLine
 10
-12.84903384218013
 20
5.799120185445439
 30
0.0
 11
-12.84903384218013
 21
5.152673576038716
 31
0.0
  0
ARC
  5
2DD
330
2
100
AcDbEntity
  8
0
100
AcDbCircle
 10
-12.72403384218013
 20
5.152673576038716
 30
0.0
 40
0.125
100
AcDbArc
 50
180.0
 51
225.0000000000003
  0
ARC
  5
2DE
330
2
100
AcDbEntity
  8
0
100
AcDbCircle
 10
-12.66153384218013
 20
4.736620185445439
 30
0.0
 40
0.125
100
AcDbArc
 50
0.000000000000007
 51
45.00000000000016
  0
LINE
  5
2DF
330
2
100
AcDbEntity
  8
0
100
AcDbLine
 10
-12.81242218982845
 20
5.064285228390396
 30
0.0
 11
-12.57314549453182
 21
4.825008533093758
 31
0.0
  0
ARC
  5
2E0
330
2
100
AcDbEntity
  8
0
100
AcDbCircle
 10
-12.72403384218013
 20
5.799120185445439
 30
0.0
 40
0.125
100
AcDbArc
 50
134.9999999999999
 51
180.0
  0
ARC
  5
2E1
330
2
100
AcDbEntity
  8
0
100
AcDbCircle
 10
-13.33358184773643
 20
1.345291977737558
 30
0.0
 40
0.0855
100
AcDbArc
 50
269.9998349343467
 51
90.00016506565325
  0
ARC
  5
2E2
330
2
100
AcDbEntity
  8
0
100
AcDbCircle
 10
-13.31321441762542
 20
1.345291977737558
 30
0.0
 40
0.0855
100
AcDbArc
 50
269.9998349343467
 51
90.00016506565325
  0
ARC
  5
2E3
330
2
100
AcDbEntity
  8
0
100
AcDbCircle
 10
-13.27932891902685
 20
1.345291977737203
 30
0.0
 40
0.0855
100
AcDbArc
 50
270.0
 51
90.0
  0
LINE
  5
2E4
330
2
100
AcDbEntity
  8
0
100
AcDbLine
 10
-13.48332891902686
 20
1.430791977737203
 30
0.0
 11
-13.48332891902686
 21
1.259791977737203
 31
0.0
  0
ARC
  5
2E5
330
2
100
AcDbEntity
  8
0
100
AcDbCircle
 10
-14.51080160983715
 20
0.0851195516645653
 30
0.0
 40
0.479419391717371
100
AcDbArc
 50
349.7730786820562
 51
65.31458597567358
  0
LINE
  5
2E6
330
2
100
AcDbEntity
  8
0
100
AcDbLine
 10
-13.27932891902685
 20
1.259791977737203
 30
0.0
 11
-13.48332891902686
 21
1.259791977737203
 31
0.0
  0
LINE
  5
2E7
330
2
100
AcDbEntity
  8
0
100
AcDbLine
 10
-14.21682891902685
 20
0.5207269749706196
 30
0.0
 11
-14.31057891902685
 21
0.5207269749706196
 31
0.0
  0
LINE
  5
2E8
330
2
100
AcDbEntity
  8
0
100
AcDbLine
 10
-13.27932891902685
 20
1.430791977737203
 30
0.0
 11
-13.48332891902686
 21
1.430791977737203
 31
0.0
  0
ARC
  5
2E9
330
2
100
AcDbEntity
  8
0
100
AcDbCircle
 10
-13.33458638591989
 20
2.345291977737558
 30
0.0
 40
0.0855
100
AcDbArc
 50
269.9998349343467
 51
90.00016506565325
  0
LINE
  5
2EA
330
2
100
AcDbEntity
  8
0
100
AcDbLine
 10
-13.27932891902685
 20
2.430791977737203
 30
0.0
 11
-13.48332891902686
 21
2.430791977737203
 31
0.0
  0
LINE
  5
2EB
330
2
100
AcDbEntity
  8
0
100
AcDbLine
 10
-13.27932891902685
 20
2.259791977737203
 30
0.0
 11
-13.48332891902686
 21
2.259791977737203
 31
0.0
  0
LINE
  5
2EC
330
2
100
AcDbEntity
  8
0
100
AcDbLine
 10
-13.48332891902686
 20
2.430791977737203
 30
0.0
 11
-13.48332891902686
 21
2.259791977737203
 31
0.0
  0
ARC
  5
2ED
330
2
100
AcDbEntity
  8
0
100
AcDbCircle
 10
-13.31421895580888
 20
2.345291977737558
 30
0.0
 40
0.0855
100
AcDbArc
 50
269.9998349343467
 51
90.00016506565325
  0
ARC
  5
2EE
330
2
100
AcDbEntity
  8
0
100
AcDbCircle
 10
-13.27932891902685
 20
2.345291977737203
 30
0.0
 40
0.0855
100
AcDbArc
 50
270.0
 51
90.0
  0
LINE
  5
2EF
330
2
100
AcDbEntity
  8
0
100
AcDbLine
 10
-13.48332891902686
 20
3.430791977737206
 30
0.0
 11
-13.48332891902686
 21
3.259791977737203
 31
0.0
  0
ARC
  5
2F0
330
2
100
AcDbEntity
  8
0
100
AcDbCircle
 10
-13.33985343262205
 20
3.345291977737562
 30
0.0
 40
0.0855
100
AcDbArc
 50
269.9998349343467
 51
90.00016506565325
  0
LINE
  5
2F1
330
2
100
AcDbEntity
  8
0
100
AcDbLine
 10
-13.27932891902685
 20
3.259791977737207
 30
0.0
 11
-13.48332891902686
 21
3.259791977737207
 31
0.0
  0
LINE
  5
2F2
330
2
100
AcDbEntity
  8
0
100
AcDbLine
 10
-13.27932891902685
 20
3.430791977737206
 30
0.0
 11
-13.48332891902686
 21
3.430791977737206
 31
0.0
  0
ARC
  5
2F3
330
2
100
AcDbEntity
  8
0
100
AcDbCircle
 10
-13.31948600251104
 20
3.345291977737562
 30
0.0
 40
0.0855
100
AcDbArc
 50
269.9998349343467
 51
90.00016506565325
  0
ARC
  5
2F4
330
2
100
AcDbEntity
  8
0
100
AcDbCircle
 10
-13.27932891902685
 20
3.345291977737203
 30
0.0
 40
0.0855
100
AcDbArc
 50
270.0
 51
90.0
  0
ARC
  5
2F5
330
2
100
AcDbEntity
  8
0
100
AcDbCircle
 10
-13.31948600251104
 20
4.345291977737555
 30
0.0
 40
0.0855
100
AcDbArc
 50
269.9998349343467
 51
90.00016506565325
  0
ARC
  5
2F6
330
2
100
AcDbEntity
  8
0
100
AcDbCircle
 10
-13.33985343262205
 20
4.345291977737555
 30
0.0
 40
0.0855
100
AcDbArc
 50
269.9998349343467
 51
90.00016506565325
  0
ARC
  5
2F7
330
2
100
AcDbEntity
  8
0
100
AcDbCircle
 10
-13.27932891902685
 20
4.345291977737199
 30
0.0
 40
0.0855
100
AcDbArc
 50
270.0
 51
90.0
  0
LINE
  5
2F8
330
2
100
AcDbEntity
  8
0
100
AcDbLine
 10
-13.48332891902686
 20
4.430791977737203
 30
0.0
 11
-13.48332891902686
 21
4.259791977737203
 31
0.0
  0
LINE
  5
2F9
330
2
100
AcDbEntity
  8
0
100
AcDbLine
 10
-13.27932891902685
 20
4.259791977737203
 30
0.0
 11
-13.48332891902686
 21
4.259791977737203
 31
0.0
  0
LINE
  5
2FA
330
2
100
AcDbEntity
  8
0
100
AcDbLine
 10
-13.27932891902685
 20
4.430791977737203
 30
0.0
 11
-13.48332891902686
 21
4.430791977737199
 31
0.0
  0
ARC
  5
2FB
330
2
100
AcDbEntity
  8
0
100
AcDbCircle
 10
-13.33809775038799
 20
5.345291977737562
 30
0.0
 40
0.0855
100
AcDbArc
 50
269.9998349343467
 51
90.00016506565325
  0
LINE
  5
2FC
330
2
100
AcDbEntity
  8
0
100
AcDbLine
 10
-13.27932891902685
 20
5.259791977737203
 30
0.0
 11
-13.48332891902686
 21
5.259791977737203
 31
0.0
  0
LINE
  5
2FD
330
2
100
AcDbEntity
  8
0
100
AcDbLine
 10
-13.27932891902685
 20
5.430791977737203
 30
0.0
 11
-13.48332891902686
 21
5.430791977737203
 31
0.0
  0
LINE
  5
2FE
330
2
100
AcDbEntity
  8
0
100
AcDbLine
 10
-13.48332891902686
 20
5.430791977737203
 30
0.0
 11
-13.48332891902686
 21
5.259791977737207
 31
0.0
  0
ARC
  5
2FF
330
2
100
AcDbEntity
  8
0
100
AcDbCircle
 10
-13.31773032027698
 20
5.345291977737562
 30
0.0
 40
0.0855
100
AcDbArc
 50
269.9998349343467
 51
90.00016506565325
  0
ARC
  5
300
330
2
100
AcDbEntity
  8
0
100
AcDbCircle
 10
-13.27932891902685
 20
5.345291977737199
 30
0.0
 40
0.0855
100
AcDbArc
 50
270.0
 51
90.0
  0
LINE
  5
301
330
2
100
AcDbEntity
  8
0
100
AcDbLine
 10
-13.27932891902685
 20
6.259791977737203
 30
0.0
 11
-13.48332891902686
 21
6.259791977737203
 31
0.0
  0
LINE
  5
302
330
2
100
AcDbEntity
  8
0
100
AcDbLine
 10
-12.53653384218013
 20
8.718699999999991
 30
0.0
 11
-14.31057891902685
 21
8.718749999999979
 31
0.0
  0
LINE
  5
303
330
2
100
AcDbEntity
  8
0
100
AcDbLine
 10
-12.53653384218013
 20
8.215173576038716
 30
0.0
 11
-12.53653384218013
 21
8.718699999999991
 31
0.0
  0
LINE
  5
304
330
2
100
AcDbEntity
  8
0
100
AcDbLine
 10
-12.53653384218013
 20
8.718699999999991
 30
0.0
 11
-12.53653384218013
 21
8.215173319994442
 31
0.0
  0
ARC
  5
305
330
2
100
AcDbEntity
  8
0
100
AcDbCircle
 10
-12.72403384218013
 20
7.152673576038716
 30
0.0
 40
0.125
100
AcDbArc
 50
180.0
 51
225.0000000000003
  0
LINE
  5
306
330
2
100
AcDbEntity
  8
0
100
AcDbLine
 10
-12.53653384218013
 20
6.718699999999991
 30
0.0
 11
-12.53653384218013
 21
6.215173319994442
 31
0.0
  0
LINE
  5
307
330
2
100
AcDbEntity
  8
0
100
AcDbLine
 10
-12.53653384218013
 20
6.215173576038716
 30
0.0
 11
-12.53653384218013
 21
6.718699999999991
 31
0.0
  0
ARC
  5
308
330
2
100
AcDbEntity
  8
0
100
AcDbCircle
 10
-12.66153384218013
 20
6.215173576038716
 30
0.0
 40
0.125
100
AcDbArc
 50
314.9999999999999
 51
0.000000000000007
  0
ARC
  5
309
330
2
100
AcDbEntity
  8
0
100
AcDbCircle
 10
-12.66153384218013
 20
6.736620185445439
 30
0.0
 40
0.125
100
AcDbArc
 50
0.000000000000007
 51
45.00000000000016
  0
LINE
  5
30A
330
2
100
AcDbEntity
  8
0
100
AcDbLine
 10
-12.81242218982845
 20
7.064285228390396
 30
0.0
 11
-12.57314549453182
 21
6.825008533093758
 31
0.0
  0
LINE
  5
30B
330
2
100
AcDbEntity
  8
0
100
AcDbLine
 10
-12.84903384218013
 20
7.799120185445439
 30
0.0
 11
-12.84903384218013
 21
7.152673576038716
 31
0.0
  0
ARC
  5
30C
330
2
100
AcDbEntity
  8
0
100
AcDbCircle
 10
-12.72403384218013
 20
7.799120185445439
 30
0.0
 40
0.125
100
AcDbArc
 50
134.9999999999999
 51
180.0
  0
ARC
  5
30D
330
2
100
AcDbEntity
  8
0
100
AcDbCircle
 10
-12.66153384218013
 20
8.215173576038716
 30
0.0
 40
0.125
100
AcDbArc
 50
314.9999999999999
 51
0.000000000000007
  0
LINE
  5
30E
330
2
100
AcDbEntity
  8
0
100
AcDbLine
 10
-12.57314549453182
 20
8.126785228390396
 30
0.0
 11
-12.81242218982845
 21
7.887508533093758
 31
0.0
  0
LINE
  5
30F
330
2
100
AcDbEntity
  8
0
100
AcDbLine
 10
-14.21682891902685
 20
8.71875
 30
0.0
 11
-14.21682891902685
 21
6.418699999999987
 31
0.0
  0
LINE
  5
310
330
2
100
AcDbEntity
  8
0
100
AcDbLine
 10
-13.27932891902685
 20
6.430791977737203
 30
0.0
 11
-13.48332891902686
 21
6.430791977737203
 31
0.0
  0
LINE
  5
311
330
2
100
AcDbEntity
  8
0
100
AcDbLine
 10
-13.27932891902685
 20
7.430791977737195
 30
0.0
 11
-13.48332891902686
 21
7.430791977737195
 31
0.0
  0
LINE
  5
312
330
2
100
AcDbEntity
  8
0
100
AcDbLine
 10
-13.27932891902685
 20
7.259791977737196
 30
0.0
 11
-13.48332891902686
 21
7.259791977737196
 31
0.0
  0
ARC
  5
313
330
2
100
AcDbEntity
  8
0
100
AcDbCircle
 10
-13.33843024779726
 20
7.345291977737199
 30
0.0
 40
0.0855
100
AcDbArc
 50
269.9998349343467
 51
90.00016506565325
  0
LINE
  5
314
330
2
100
AcDbEntity
  8
0
100
AcDbLine
 10
-13.27932891902685
 20
7.430791977737203
 30
0.0
 11
-13.46682891902685
 21
7.430791977737203
 31
0.0
  0
LINE
  5
315
330
2
100
AcDbEntity
  8
0
100
AcDbLine
 10
-13.27932891902685
 20
7.259791977737203
 30
0.0
 11
-13.46682891902685
 21
7.259791977737203
 31
0.0
  0
LINE
  5
316
330
2
100
AcDbEntity
  8
0
100
AcDbLine
 10
-13.48332891902686
 20
7.430791977737195
 30
0.0
 11
-13.48332891902686
 21
7.259791977737196
 31
0.0
  0
ARC
  5
317
330
2
100
AcDbEntity
  8
0
100
AcDbCircle
 10
-13.27932891902685
 20
7.345291977737199
 30
0.0
 40
0.0855
100
AcDbArc
 50
269.9998349343467
 51
90.00016506565325
  0
ARC
  5
318
330
2
100
AcDbEntity
  8
0
100
AcDbCircle
 10
-13.31806281768625
 20
7.345291977737199
 30
0.0
 40
0.0855
100
AcDbArc
 50
269.9998349343467
 51
90.00016506565325
  0
ARC
  5
319
330
2
100
AcDbEntity
  8
0
100
AcDbCircle
 10
-13.27932891902685
 20
7.345291977737199
 30
0.0
 40
0.0855
100
AcDbArc
 50
270.0
 51
90.0
  0
LINE
  5
31A
330
2
100
AcDbEntity
  8
0
100
AcDbLine
 10
-13.27932891902685
 20
8.259791977737203
 30
0.0
 11
-13.46682891902685
 21
8.259791977737203
 31
0.0
  0
LINE
  5
31B
330
2
100
AcDbEntity
  8
0
100
AcDbLine
 10
-13.27932891902685
 20
8.430791977737203
 30
0.0
 11
-13.46682891902685
 21
8.430791977737203
 31
0.0
  0
ARC
  5
31C
330
2
100
AcDbEntity
  8
0
100
AcDbCircle
 10
-13.33843024779726
 20
8.345291977737199
 30
0.0
 40
0.0855
100
AcDbArc
 50
269.9998349343467
 51
90.00016506565325
  0
LINE
  5
31D
330
2
100
AcDbEntity
  8
0
100
AcDbLine
 10
-13.27932891902685
 20
8.259791977737196
 30
0.0
 11
-13.48332891902686
 21
8.259791977737196
 31
0.0
  0
LINE
  5
31E
330
2
100
AcDbEntity
  8
0
100
AcDbLine
 10
-13.27932891902685
 20
8.430791977737195
 30
0.0
 11
-13.48332891902686
 21
8.430791977737195
 31
0.0
  0
LINE
  5
31F
330
2
100
AcDbEntity
  8
0
100
AcDbLine
 10
-13.48332891902686
 20
8.430791977737195
 30
0.0
 11
-13.48332891902686
 21
8.259791977737196
 31
0.0
  0
ARC
  5
320
330
2
100
AcDbEntity
  8
0
100
AcDbCircle
 10
-13.31806281768625
 20
8.345291977737199
 30
0.0
 40
0.0855
100
AcDbArc
 50
269.9998349343467
 51
90.00016506565325
  0
ARC
  5
321
330
2
100
AcDbEntity
  8
0
100
AcDbCircle
 10
-13.27932891902685
 20
8.345291977737199
 30
0.0
 40
0.0855
100
AcDbArc
 50
269.9998349343467
 51
90.00016506565325
  0
ARC
  5
322
330
2
100
AcDbEntity
  8
0
100
AcDbCircle
 10
-13.27932891902685
 20
8.345291977737199
 30
0.0
 40
0.0855
100
AcDbArc
 50
270.0
 51
90.0
  0
ENDSEC
  0
SECTION
  2
OBJECTS
  0
DICTIONARY
  5
9
330
0
100
AcDbDictionary
281
     1
  3
ACAD_COLOR
350
182
  3
ACAD_GROUP
350
23
  3
ACAD_LAYOUT
350
D
  3
ACAD_MATERIAL
350
181
  3
ACAD_MLINESTYLE
350
24
  3
ACAD_PLOTSETTINGS
350
25
  3
ACAD_PLOTSTYLENAME
350
8
  3
ACAD_TABLESTYLE
350
183
  3
ACDBHEADERROUNDTRIPXREC
350
346
  3
AcDbVariableDictionary
350
17D
  0
DICTIONARY
  5
3
330
2
100
AcDbDictionary
280
     1
281
     1
  3
ACAD_SORTENTS
360
18A
  0
DICTIONARY
  5
182
102
{ACAD_REACTORS
330
9
102
}
330
9
100
AcDbDictionary
281
     1
  0
DICTIONARY
  5
23
102
{ACAD_REACTORS
330
9
102
}
330
9
100
AcDbDictionary
281
     1
  0
DICTIONARY
  5
D
102
{ACAD_REACTORS
330
9
102
}
330
9
100
AcDbDictionary
281
     1
  3
Layout1
350
13
  3
Model
350
C
  0
DICTIONARY
  5
181
102
{ACAD_REACTORS
330
9
102
}
330
9
100
AcDbDictionary
281
     1
  0
DICTIONARY
  5
24
102
{ACAD_REACTORS
330
9
102
}
330
9
100
AcDbDictionary
281
     1
  3
STANDARD
350
27
  0
DICTIONARY
  5
25
102
{ACAD_REACTORS
330
9
102
}
330
9
100
AcDbDictionary
281
     1
  0
ACDBDICTIONARYWDFLT
  5
8
102
{ACAD_REACTORS
330
9
102
}
330
9
100
AcDbDictionary
281
     1
  3
Normal
350
7
100
AcDbDictionaryWithDefault
340
7
  0
DICTIONARY
  5
183
102
{ACAD_REACTORS
330
9
102
}
330
9
100
AcDbDictionary
281
     1
  3
Standard
350
184
  0
DICTIONARY
  5
346
102
{ACAD_REACTORS
330
9
102
}
330
9
100
AcDbDictionary
281
     1
  3
COLORDICT
350
347
  3
MATERIALDICT
350
348
  0
DICTIONARY
  5
17D
102
{ACAD_REACTORS
330
9
102
}
330
9
100
AcDbDictionary
281
     1
  3
CTABLESTYLE
350
2CA
  3
HIDETEXT
350
345
  0
SORTENTSTABLE
  5
18A
102
{ACAD_REACTORS
330
3
102
}
330
3
100
AcDbSortentsTable
330
2
331
23A
  5
1BC
331
1BE
  5
29F
331
1C5
  5
2A6
331
1EF
  5
252
331
2A0
  5
222
331
279
  5
1FB
331
20A
  5
26D
331
2A8
  5
22A
331
220
  5
1A2
331
1E9
  5
24C
331
2A7
  5
229
331
2AA
  5
22C
331
291
  5
213
331
1FE
  5
261
331
1AA
  5
28B
331
1DE
  5
2BF
331
270
  5
1F2
331
245
  5
1C7
331
28D
  5
20F
331
213
  5
195
331
2A1
  5
223
331
276
  5
1F8
331
1E8
  5
24B
331
274
  5
1F6
331
1DC
  5
2BD
331
19E
  5
27F
331
1B3
  5
294
331
295
  5
217
331
27C
  5
1FE
331
218
  5
19A
331
2AE
  5
230
331
2BD
  5
23F
331
28B
  5
20D
331
209
  5
26C
331
20D
  5
18F
331
206
  5
269
331
1EE
  5
251
331
278
  5
1FA
331
20F
  5
191
331
22D
  5
1AF
331
217
  5
199
331
24A
  5
1CC
331
1E0
  5
2C1
331
22E
  5
1B0
331
272
  5
1F4
331
23D
  5
1BF
331
27A
  5
1FC
331
250
  5
1D2
331
1D3
  5
2B4
331
259
  5
1DB
331
2B0
  5
232
331
21E
  5
1A0
331
249
  5
1CB
331
297
  5
219
331
2BA
  5
23C
331
25E
  5
1E0
331
20E
  5
190
331
1C3
  5
2A4
331
246
  5
1C8
331
2B8
  5
23A
331
1AC
  5
28D
331
225
  5
1A7
331
202
  5
265
331
29B
  5
21D
331
196
  5
277
331
22F
  5
1B1
331
1E2
  5
245
331
28E
  5
210
331
1EC
  5
24F
331
29F
  5
221
331
1A3
  5
284
331
27D
  5
1FF
331
19D
  5
27E
331
22C
  5
1AE
331
21C
  5
19E
331
2C0
  5
242
331
21D
  5
19F
331
191
  5
272
331
1C4
  5
2A5
331
257
  5
1D9
331
229
  5
1AB
331
263
  5
1E5
331
288
  5
20A
331
1AF
  5
290
331
26A
  5
1EC
331
273
  5
1F5
331
233
  5
1B5
331
226
  5
1A8
331
212
  5
194
331
24B
  5
1CD
331
192
  5
273
331
1BB
  5
29C
331
1FA
  5
25D
331
1CD
  5
2AE
331
26C
  5
1EE
331
1BA
  5
29B
331
2B3
  5
235
331
2B7
  5
239
331
1FB
  5
25E
331
232
  5
1B4
331
275
  5
1F7
331
19A
  5
27B
331
254
  5
1D6
331
27B
  5
1FD
331
247
  5
1C9
331
194
  5
275
331
223
  5
1A5
331
280
  5
202
331
2B2
  5
234
331
25B
  5
1DD
331
1F8
  5
25B
331
265
  5
1E7
331
2BC
  5
23E
331
23E
  5
1C0
331
260
  5
1E2
331
1D8
  5
2B9
331
253
  5
1D5
331
243
  5
1C5
331
1D0
  5
2B1
331
1DA
  5
2BB
331
193
  5
274
331
277
  5
1F9
331
2AB
  5
22D
331
210
  5
192
331
23C
  5
1BE
331
26D
  5
1EF
331
242
  5
1C4
331
25D
  5
1DF
331
2B6
  5
238
331
1F3
  5
256
331
25F
  5
1E1
331
267
  5
1E9
331
1E6
  5
249
331
1E7
  5
24A
331
283
  5
205
331
19B
  5
27C
331
266
  5
1E8
331
1C8
  5
2A9
331
1E1
  5
2C2
331
208
  5
26B
331
1A0
  5
281
331
252
  5
1D4
331
214
  5
196
331
22A
  5
1AC
331
237
  5
1B9
331
239
  5
1BB
331
1EA
  5
24D
331
26F
  5
1F1
331
298
  5
21A
331
1BD
  5
29E
331
236
  5
1B8
331
21A
  5
19C
331
256
  5
1D8
331
1DD
  5
2BE
331
240
  5
1C2
331
19F
  5
280
331
29E
  5
220
331
1F0
  5
253
331
1C2
  5
2A3
331
287
  5
209
331
1A5
  5
286
331
190
  5
271
331
1AD
  5
28E
331
268
  5
1EA
331
28A
  5
20C
331
1F5
  5
258
331
197
  5
278
331
1E3
  5
246
331
251
  5
1D3
331
261
  5
1E3
331
1A7
  5
288
331
2A6
  5
228
331
248
  5
1CA
331
2A9
  5
22B
331
28C
  5
20E
331
293
  5
215
331
299
  5
21B
331
1D7
  5
2B8
331
1B1
  5
292
331
228
  5
1AA
331
24D
  5
1CF
331
25C
  5
1DE
331
294
  5
216
331
25A
  5
1DC
331
20C
  5
18E
331
18E
  5
26F
331
21F
  5
1A1
331
1A6
  5
287
331
1FF
  5
262
331
2A4
  5
226
331
271
  5
1F3
331
286
  5
208
331
2AC
  5
22E
331
222
  5
1A4
331
24C
  5
1CE
331
198
  5
279
331
200
  5
263
331
26E
  5
1F0
331
195
  5
276
331
264
  5
1E6
331
292
  5
214
331
1AB
  5
28C
331
1FD
  5
260
331
2B9
  5
23B
331
1CC
  5
2AD
331
1D4
  5
2B5
331
2A2
  5
224
331
1A4
  5
285
331
1D6
  5
2B7
331
2A5
  5
227
331
20B
  5
26E
331
258
  5
1DA
331
1B8
  5
299
331
205
  5
268
331
24E
  5
1D0
331
1B9
  5
29A
331
1BF
  5
2A0
331
29C
  5
21E
331
1CA
  5
2AB
331
2B4
  5
236
331
199
  5
27A
331
1B2
  5
293
331
227
  5
1A9
331
282
  5
204
331
1ED
  5
250
331
1C6
  5
2A7
331
1F7
  5
25A
331
2BE
  5
240
331
289
  5
20B
331
1B0
  5
291
331
23B
  5
1BD
331
1F4
  5
257
331
216
  5
198
331
1E4
  5
247
331
1A9
  5
28A
331
285
  5
207
331
1C0
  5
2A1
331
281
  5
203
331
262
  5
1E4
331
201
  5
264
331
284
  5
206
331
296
  5
218
331
1F1
  5
254
331
1A8
  5
289
331
203
  5
266
331
2B1
  5
233
331
204
  5
267
331
22B
  5
1AD
331
224
  5
1A6
331
1B7
  5
298
331
211
  5
193
331
1F2
  5
255
331
27E
  5
200
331
1AE
  5
28F
331
29A
  5
21C
331
23F
  5
1C1
331
234
  5
1B6
331
2BF
  5
241
331
1D5
  5
2B6
331
2A3
  5
225
331
1B5
  5
296
331
2AD
  5
22F
331
1F6
  5
259
331
1A2
  5
283
331
238
  5
1BA
331
1D1
  5
2B2
331
1C1
  5
2A2
331
18F
  5
270
331
1DB
  5
2BC
331
1CB
  5
2AC
331
26B
  5
1ED
331
29D
  5
21F
331
231
  5
1B3
331
28F
  5
211
331
241
  5
1C3
331
1DF
  5
2C0
331
1CE
  5
2AF
331
221
  5
1A3
331
244
  5
1C6
331
1F9
  5
25C
331
215
  5
197
331
1D2
  5
2B3
331
1C9
  5
2AA
331
2C1
  5
243
331
219
  5
19B
331
1FC
  5
25F
331
1CF
  5
2B0
331
269
  5
1EB
331
2C2
  5
244
331
255
  5
1D7
331
2BB
  5
23D
331
1E5
  5
248
331
1B6
  5
297
331
230
  5
1B2
331
207
  5
26A
331
1EB
  5
24E
331
2B5
  5
237
331
1C7
  5
2A8
331
1B4
  5
295
331
19C
  5
27D
331
1BC
  5
29D
331
290
  5
212
331
27F
  5
201
331
21B
  5
19D
331
2AF
  5
231
331
1D9
  5
2BA
331
1A1
  5
282
331
235
  5
1B7
331
24F
  5
1D1
  0
LAYOUT
  5
13
102
{ACAD_REACTORS
330
D
102
}
102
{ACAD_XDICTIONARY
360
349
102
}
330
D
100
AcDbPlotSettings
  1

  2
HP LaserJet 2100 Series PS
  4

  6

 40
0.0
 41
0.0
 42
0.0
 43
0.0
 44
0.0
 45
0.0
 46
0.0
 47
0.0
 48
0.0
 49
0.0
140
0.0
141
0.0
142
1.0
143
1.0
 70
   688
 72
     0
 73
     0
 74
     5
  7

 75
    16
147
1.0
148
0.0
149
0.0
100
AcDbLayout
  1
Layout1
 70
     0
 71
     1
 10
0.0
 20
0.0
 11
12.0
 21
9.0
 12
0.0
 22
0.0
 32
0.0
 14
1.000000000000000E+20
 24
1.000000000000000E+20
 34
1.000000000000000E+20
 15
-1.000000000000000E+20
 25
-1.000000000000000E+20
 35
-1.000000000000000E+20
146
0.0
 13
0.0
 23
0.0
 33
0.0
 16
1.0
 26
0.0
 36
0.0
 17
0.0
 27
1.0
 37
0.0
 76
     0
330
E
  0
LAYOUT
  5
C
102
{ACAD_REACTORS
330
D
102
}
102
{ACAD_XDICTIONARY
360
34B
102
}
330
D
100
AcDbPlotSettings
  1

  2
HP LaserJet 2100 Series PS
  4
Letter
  6

 40
5.365749835968018
 41
5.408084392547607
 42
5.4080810546875
 43
5.365753173828125
 44
215.8999938964844
 45
279.3999938964844
 46
0.0
 47
0.0
 48
0.0
 49
0.0
140
0.0
141
0.0
142
1.0
143
3.971318409846261
 70
 11952
 72
     0
 73
     1
 74
     2
  7

 75
     0
147
0.2518055458662435
148
0.0
149
0.0
100
AcDbLayout
  1
Model
 70
     1
 71
     0
 10
0.0
 20
0.0
 11
12.0
 21
9.0
 12
0.0
 22
0.0
 32
0.0
 14
0.0
 24
0.0
 34
0.0
 15
0.0
 25
0.0
 35
0.0
146
0.0
 13
0.0
 23
0.0
 33
0.0
 16
1.0
 26
0.0
 36
0.0
 17
0.0
 27
1.0
 37
0.0
 76
     0
330
2
  0
MLINESTYLE
  5
27
102
{ACAD_REACTORS
330
24
102
}
330
24
100
AcDbMlineStyle
  2
STANDARD
 70
     0
  3

 62
   256
 51
90.0
 52
90.0
 71
     2
 49
0.5
 62
   256
  6
BYLAYER
 49
-0.5
 62
   256
  6
BYLAYER
  0
ACDBPLACEHOLDER
  5
7
102
{ACAD_REACTORS
330
8
102
}
330
8
  0
ACAD_PROXY_OBJECT
  5
184
102
{ACAD_REACTORS
330
183
102
}
330
183
100
AcDbProxyObject
 90
      499
 91
      537
 95
   983063
 70
     0
 93
     1841
310
4214DD185B99185C9928B81E85EB51B8AE3F2E07A17AD46E2B8FC02B5E8DC0F42B1CFD028000000C1008070000C3001FDFF8000000C1003FBFF000000182007F7FE00000030400FEFFC00000060801FDFF8000000C1003FBFF00000018200000000000000681FA0B0000001820100E000186003FBFF000000182007F7FE000
310
00030400FEFFC00000060801FDFF8000000C1003FBFF000000182007F7FE000000304000AD7A3703D0AC73F4160000003040201C00030C007F7FE00000030400FEFFC00000060801FDFF8000000C1003FBFF000000182007F7FE00000030400FEFFC000000608000
340
16
340
16
340
16
 94
        0
  0
XRECORD
  5
347
102
{ACAD_REACTORS
330
346
102
}
330
346
100
AcDbXrecord
340
182
  0
XRECORD
  5
348
102
{ACAD_REACTORS
330
346
102
}
330
346
100
AcDbXrecord
340
181
  0
DICTIONARYVAR
  5
2CA
102
{ACAD_REACTORS
330
17D
102
}
330
17D
100
DictionaryVariables
280
     0
  1
STANDARD
  0
DICTIONARYVAR
  5
345
102
{ACAD_REACTORS
330
17D
102
}
330
17D
100
DictionaryVariables
280
     0
  1
0
  0
DICTIONARY
  5
349
330
13
100
AcDbDictionary
280
     1
281
     1
  3
ACAD_XREC_ROUNDTRIP
360
34A
  0
DICTIONARY
  5
34B
330
C
100
AcDbDictionary
280
     1
281
     1
  3
ACAD_XREC_ROUNDTRIP
360
34C
  0
XRECORD
  5
34A
102
{ACAD_REACTORS
330
349
102
}
330
349
100
AcDbXrecord
102
SHADEPLOT
 70
     0
102
SHADEPLOTRESLEVEL
 70
     2
102
SHADEPLOTCUSTOMDPI
 70
   300
  0
XRECORD
  5
34C
102
{ACAD_REACTORS
330
34B
102
}
330
34B
100
AcDbXrecord
102
SHADEPLOT
 70
     0
102
SHADEPLOTRESLEVEL
 70
     2
102
SHADEPLOTCUSTOMDPI
 70
   300
  0
ENDSEC
  0
EOF
