  0
SECTION
  2
HEADER
  9
$ACADVER
  1
AC1015
  9
$ACADMAINTVER
 70
     6
  9
$DWGCODEPAGE
  3
ANSI_1252
  9
$INSBASE
 10
0.0
 20
0.0
 30
0.0
  9
$EXTMIN
 10
-15.05791652656802
 20
-0.1325825214724777
 30
0.0
  9
$EXTMAX
 10
15.05791652656802
 20
19.35513375333412
 30
0.0
  9
$LIMMIN
 10
0.0
 20
0.0
  9
$LIMMAX
 10
42.0
 20
32.0
  9
$ORTHOMODE
 70
     1
  9
$REGENMODE
 70
     1
  9
$FILLMODE
 70
     1
  9
$QTEXTMODE
 70
     0
  9
$MIRRTEXT
 70
     1
  9
$LTSCALE
 40
0.5
  9
$ATTMODE
 70
     1
  9
$TEXTSIZE
 40
0.36
  9
$TRACEWID
 40
0.05
  9
$TEXTSTYLE
  7
STANDARD
  9
$CLAYER
  8
0
  9
$CELTYPE
  6
BYLAYER
  9
$CECOLOR
 62
   256
  9
$CELTSCALE
 40
1.0
  9
$DISPSILH
 70
     0
  9
$DIMSCALE
 40
4.0
  9
$DIMASZ
 40
0.125
  9
$DIMEXO
 40
0.062
  9
$DIMDLI
 40
0.375
  9
$DIMRND
 40
0.0
  9
$DIMDLE
 40
0.0
  9
$DIMEXE
 40
0.08
  9
$DIMTP
 40
0.0
  9
$DIMTM
 40
0.0
  9
$DIMTXT
 40
0.09
  9
$DIMCEN
 40
-0.06
  9
$DIMTSZ
 40
0.0
  9
$DIMTOL
 70
     0
  9
$DIMLIM
 70
     0
  9
$DIMTIH
 70
     1
  9
$DIMTOH
 70
     1
  9
$DIMSE1
 70
     0
  9
$DIMSE2
 70
     0
  9
$DIMTAD
 70
     0
  9
$DIMZIN
 70
     0
  9
$DIMBLK
  1

  9
$DIMASO
 70
     0
  9
$DIMSHO
 70
     0
  9
$DIMPOST
  1

  9
$DIMAPOST
  1

  9
$DIMALT
 70
     0
  9
$DIMALTD
 70
     2
  9
$DIMALTF
 40
25.4
  9
$DIMLFAC
 40
1.0
  9
$DIMTOFL
 70
     0
  9
$DIMTVP
 40
0.0
  9
$DIMTIX
 70
     0
  9
$DIMSOXD
 70
     0
  9
$DIMSAH
 70
     0
  9
$DIMBLK1
  1

  9
$DIMBLK2
  1

  9
$DIMSTYLE
  2
STANDARD
  9
$DIMCLRD
 70
     0
  9
$DIMCLRE
 70
     0
  9
$DIMCLRT
 70
     0
  9
$DIMTFAC
 40
1.0
  9
$DIMGAP
 40
0.09
  9
$DIMJUST
 70
     0
  9
$DIMSD1
 70
     0
  9
$DIMSD2
 70
     0
  9
$DIMTOLJ
 70
     1
  9
$DIMTZIN
 70
     0
  9
$DIMALTZ
 70
     0
  9
$DIMALTTZ
 70
     0
  9
$DIMUPT
 70
     0
  9
$DIMDEC
 70
     5
  9
$DIMTDEC
 70
     5
  9
$DIMALTU
 70
     5
  9
$DIMALTTD
 70
     2
  9
$DIMTXSTY
  7
STANDARD
  9
$DIMAUNIT
 70
     0
  9
$DIMADEC
 70
     0
  9
$DIMALTRND
 40
0.0
  9
$DIMAZIN
 70
     0
  9
$DIMDSEP
 70
    46
  9
$DIMATFIT
 70
     3
  9
$DIMFRAC
 70
     2
  9
$DIMLDRBLK
  1

  9
$DIMLUNIT
 70
     5
  9
$DIMLWD
 70
    -2
  9
$DIMLWE
 70
    -2
  9
$DIMTMOVE
 70
     2
  9
$LUNITS
 70
     5
  9
$LUPREC
 70
     5
  9
$SKETCHINC
 40
0.1
  9
$FILLETRAD
 40
0.125
  9
$AUNITS
 70
     0
  9
$AUPREC
 70
     0
  9
$MENU
  1
qa
  9
$ELEVATION
 40
0.0
  9
$PELEVATION
 40
0.0
  9
$THICKNESS
 40
0.0
  9
$LIMCHECK
 70
     0
  9
$CHAMFERA
 40
0.0
  9
$CHAMFERB
 40
0.0
  9
$CHAMFERC
 40
0.0
  9
$CHAMFERD
 40
0.0
  9
$SKPOLY
 70
     0
  9
$TDCREATE
 40
2450274.782277546
  9
$TDUCREATE
 40
2450275.11561088
  9
$TDUPDATE
 40
2454165.975513484
  9
$TDUUPDATE
 40
2454166.308846817
  9
$TDINDWG
 40
0.1095091782
  9
$TDUSRTIMER
 40
0.1095091782
  9
$USRTIMER
 70
     1
  9
$ANGBASE
 50
0.0
  9
$ANGDIR
 70
     0
  9
$PDMODE
 70
     0
  9
$PDSIZE
 40
0.0
  9
$PLINEWID
 40
0.0
  9
$SPLFRAME
 70
     0
  9
$SPLINETYPE
 70
     6
  9
$SPLINESEGS
 70
     8
  9
$HANDSEED
  5
692
  9
$SURFTAB1
 70
     6
  9
$SURFTAB2
 70
     6
  9
$SURFTYPE
 70
     6
  9
$SURFU
 70
     6
  9
$SURFV
 70
     6
  9
$UCSBASE
  2

  9
$UCSNAME
  2

  9
$UCSORG
 10
0.0
 20
0.0
 30
0.0
  9
$UCSXDIR
 10
1.0
 20
0.0
 30
0.0
  9
$UCSYDIR
 10
0.0
 20
1.0
 30
0.0
  9
$UCSORTHOREF
  2

  9
$UCSORTHOVIEW
 70
     0
  9
$UCSORGTOP
 10
0.0
 20
0.0
 30
0.0
  9
$UCSORGBOTTOM
 10
0.0
 20
0.0
 30
0.0
  9
$UCSORGLEFT
 10
0.0
 20
0.0
 30
0.0
  9
$UCSORGRIGHT
 10
0.0
 20
0.0
 30
0.0
  9
$UCSORGFRONT
 10
0.0
 20
0.0
 30
0.0
  9
$UCSORGBACK
 10
0.0
 20
0.0
 30
0.0
  9
$PUCSBASE
  2

  9
$PUCSNAME
  2

  9
$PUCSORG
 10
0.0
 20
0.0
 30
0.0
  9
$PUCSXDIR
 10
1.0
 20
0.0
 30
0.0
  9
$PUCSYDIR
 10
0.0
 20
1.0
 30
0.0
  9
$PUCSORTHOREF
  2

  9
$PUCSORTHOVIEW
 70
     0
  9
$PUCSORGTOP
 10
0.0
 20
0.0
 30
0.0
  9
$PUCSORGBOTTOM
 10
0.0
 20
0.0
 30
0.0
  9
$PUCSORGLEFT
 10
0.0
 20
0.0
 30
0.0
  9
$PUCSORGRIGHT
 10
0.0
 20
0.0
 30
0.0
  9
$PUCSORGFRONT
 10
0.0
 20
0.0
 30
0.0
  9
$PUCSORGBACK
 10
0.0
 20
0.0
 30
0.0
  9
$USERI1
 70
     0
  9
$USERI2
 70
     0
  9
$USERI3
 70
     0
  9
$USERI4
 70
     0
  9
$USERI5
 70
     0
  9
$USERR1
 40
0.0
  9
$USERR2
 40
0.0
  9
$USERR3
 40
0.0
  9
$USERR4
 40
0.0
  9
$USERR5
 40
0.0
  9
$WORLDVIEW
 70
     1
  9
$SHADEDGE
 70
     3
  9
$SHADEDIF
 70
    70
  9
$TILEMODE
 70
     1
  9
$MAXACTVP
 70
    16
  9
$PINSBASE
 10
0.0
 20
0.0
 30
0.0
  9
$PLIMCHECK
 70
     0
  9
$PEXTMIN
 10
1.000000000000000E+20
 20
1.000000000000000E+20
 30
1.000000000000000E+20
  9
$PEXTMAX
 10
-1.000000000000000E+20
 20
-1.000000000000000E+20
 30
-1.000000000000000E+20
  9
$PLIMMIN
 10
0.0
 20
0.0
  9
$PLIMMAX
 10
12.0
 20
9.0
  9
$UNITMODE
 70
     0
  9
$VISRETAIN
 70
     0
  9
$PLINEGEN
 70
     0
  9
$PSLTSCALE
 70
     0
  9
$TREEDEPTH
 70
  3020
  9
$CMLSTYLE
  2
STANDARD
  9
$CMLJUST
 70
     0
  9
$CMLSCALE
 40
1.0
  9
$PROXYGRAPHICS
 70
     1
  9
$MEASUREMENT
 70
     0
  9
$CELWEIGHT
370
    -1
  9
$ENDCAPS
280
     0
  9
$JOINSTYLE
280
     0
  9
$LWDISPLAY
290
     0
  9
$INSUNITS
 70
     0
  9
$HYPERLINKBASE
  1

  9
$STYLESHEET
  1

  9
$XEDIT
290
     1
  9
$CEPSNTYPE
380
     0
  9
$PSTYLEMODE
290
     1
  9
$FINGERPRINTGUID
  2
{9FFF1F56-90A8-11D5-BE3F-00508B5FCD51}
  9
$VERSIONGUID
  2
{457C9729-9AED-405C-A57B-A2A3E58CEA5C}
  9
$EXTNAMES
290
     1
  9
$PSVPSCALE
 40
0.0
  9
$OLESTARTUP
290
     0
  0
ENDSEC
  0
SECTION
  2
CLASSES
  0
CLASS
  1
DICTIONARYVAR
  2
AcDbDictionaryVar
  3
AutoCAD 2000
 90
        0
280
     0
281
     0
  0
CLASS
  1
LWPOLYLINE
  2
AcDbPolyline
  3
AutoCAD 2000
 90
        0
280
     0
281
     1
  0
CLASS
  1
ACDBDICTIONARYWDFLT
  2
AcDbDictionaryWithDefault
  3
AutoCAD 2000
 90
        0
280
     0
281
     0
  0
CLASS
  1
ACDBPLACEHOLDER
  2
AcDbPlaceHolder
  3
ObjectDBX Classes
 90
        0
280
     0
281
     0
  0
CLASS
  1
LAYOUT
  2
AcDbLayout
  3
ObjectDBX Classes
 90
        0
280
     0
281
     0
  0
CLASS
  1
LONG_TRANSACTION
  2
AcDbLongTransaction
  3
ObjectDBX Classes
 90
   -65536
280
     1
281
     0
  0
CLASS
  1
LWPOLYLINE
  2
AcDbPolyline
  3
AutoCAD 2000
 90
        0
280
     0
281
     1
  0
CLASS
  1
HATCH
  2
AcDbHatch
  3
AutoCAD 2000
 90
        0
280
     0
281
     1
  0
CLASS
  1
XRECORD
  2
AcDbXrecord
  3
AutoCAD 2000
 90
        0
280
     0
281
     0
  0
CLASS
  1
LONG_TRANSACTION
  2
AcDbLongTransaction
  3
ObjectDBX Classes
 90
   -65536
280
     1
281
     0
  0
CLASS
  1
LWPOLYLINE
  2
AcDbPolyline
  3
AutoCAD 2000
 90
        0
280
     0
281
     1
  0
CLASS
  1
HATCH
  2
AcDbHatch
  3
AutoCAD 2000
 90
        0
280
     0
281
     1
  0
CLASS
  1
XRECORD
  2
AcDbXrecord
  3
AutoCAD 2000
 90
        0
280
     0
281
     0
  0
CLASS
  1
LONG_TRANSACTION
  2
AcDbLongTransaction
  3
ObjectDBX Classes
 90
   -65536
280
     1
281
     0
  0
CLASS
  1
LWPOLYLINE
  2
AcDbPolyline
  3
AutoCAD 2000
 90
        0
280
     0
281
     1
  0
CLASS
  1
HATCH
  2
AcDbHatch
  3
AutoCAD 2000
 90
        0
280
     0
281
     1
  0
CLASS
  1
XRECORD
  2
AcDbXrecord
  3
AutoCAD 2000
 90
        0
280
     0
281
     0
  0
CLASS
  1
LONG_TRANSACTION
  2
AcDbLongTransaction
  3
ObjectDBX Classes
 90
   -65536
280
     1
281
     0
  0
CLASS
  1
LWPOLYLINE
  2
AcDbPolyline
  3
AutoCAD 2000
 90
        0
280
     0
281
     1
  0
CLASS
  1
HATCH
  2
AcDbHatch
  3
AutoCAD 2000
 90
        0
280
     0
281
     1
  0
CLASS
  1
XRECORD
  2
AcDbXrecord
  3
AutoCAD 2000
 90
        0
280
     0
281
     0
  0
CLASS
  1
LONG_TRANSACTION
  2
AcDbLongTransaction
  3
ObjectDBX Classes
 90
   -65536
280
     1
281
     0
  0
CLASS
  1
LWPOLYLINE
  2
AcDbPolyline
  3
AutoCAD 2000
 90
        0
280
     0
281
     1
  0
CLASS
  1
HATCH
  2
AcDbHatch
  3
AutoCAD 2000
 90
        0
280
     0
281
     1
  0
CLASS
  1
XRECORD
  2
AcDbXrecord
  3
AutoCAD 2000
 90
        0
280
     0
281
     0
  0
CLASS
  1
LONG_TRANSACTION
  2
AcDbLongTransaction
  3
ObjectDBX Classes
 90
   -65536
280
     1
281
     0
  0
CLASS
  1
LWPOLYLINE
  2
AcDbPolyline
  3
AutoCAD 2000
 90
        0
280
     0
281
     1
  0
CLASS
  1
HATCH
  2
AcDbHatch
  3
AutoCAD 2000
 90
        0
280
     0
281
     1
  0
CLASS
  1
XRECORD
  2
AcDbXrecord
  3
AutoCAD 2000
 90
        0
280
     0
281
     0
  0
CLASS
  1
LONG_TRANSACTION
  2
AcDbLongTransaction
  3
ObjectDBX Classes
 90
   -65536
280
     1
281
     0
  0
CLASS
  1
LWPOLYLINE
  2
AcDbPolyline
  3
AutoCAD 2000
 90
        0
280
     0
281
     1
  0
CLASS
  1
HATCH
  2
AcDbHatch
  3
AutoCAD 2000
 90
        0
280
     0
281
     1
  0
CLASS
  1
XRECORD
  2
AcDbXrecord
  3
AutoCAD 2000
 90
        0
280
     0
281
     0
  0
CLASS
  1
LONG_TRANSACTION
  2
AcDbLongTransaction
  3
ObjectDBX Classes
 90
   -65536
280
     1
281
     0
  0
CLASS
  1
LWPOLYLINE
  2
AcDbPolyline
  3
AutoCAD 2000
 90
        0
280
     0
281
     1
  0
CLASS
  1
HATCH
  2
AcDbHatch
  3
AutoCAD 2000
 90
        0
280
     0
281
     1
  0
CLASS
  1
XRECORD
  2
AcDbXrecord
  3
AutoCAD 2000
 90
        0
280
     0
281
     0
  0
CLASS
  1
TABLESTYLE
  2
AcDbTableStyle
  3
ObjectDBX Classes
 90
     2047
280
     1
281
     0
  0
CLASS
  1
SORTENTSTABLE
  2
AcDbSortentsTable
  3
AutoCAD 2000
 90
        0
280
     0
281
     0
  0
ENDSEC
  0
SECTION
  2
TABLES
  0
TABLE
  2
VPORT
  5
1D
330
0
100
AcDbSymbolTable
 70
     3
  0
VPORT
  5
684
330
1D
100
AcDbSymbolTableRecord
100
AcDbViewportTableRecord
  2
*Active
 70
     0
 10
0.0
 20
0.0
 11
1.0
 21
1.0
 12
9.266493205459728
 22
11.86566035488786
 13
0.0
 23
0.0
 14
0.063
 24
0.063
 15
0.25
 25
0.25
 16
0.0
 26
0.0
 36
1.0
 17
0.0
 27
0.0
 37
0.0
 40
32.53562308797138
 41
1.814583333333333
 42
50.0
 43
0.0
 44
0.0
 50
0.0
 51
0.0
 71
     0
 72
   100
 73
     1
 74
     0
 75
     0
 76
     0
 77
     0
 78
     0
281
     0
 65
     1
110
0.0
120
0.0
130
0.0
111
1.0
121
0.0
131
0.0
112
0.0
122
1.0
132
0.0
 79
     0
146
0.0
  0
ENDTAB
  0
TABLE
  2
LTYPE
  5
18
330
0
100
AcDbSymbolTable
 70
     2
  0
LTYPE
  5
19
330
18
100
AcDbSymbolTableRecord
100
AcDbLinetypeTableRecord
  2
BYBLOCK
 70
     0
  3

 72
    65
 73
     0
 40
0.0
  0
LTYPE
  5
1A
330
18
100
AcDbSymbolTableRecord
100
AcDbLinetypeTableRecord
  2
BYLAYER
 70
     0
  3

 72
    65
 73
     0
 40
0.0
  0
LTYPE
  5
A
330
18
100
AcDbSymbolTableRecord
100
AcDbLinetypeTableRecord
  2
CONTINUOUS
 70
     0
  3
Solid line
 72
    65
 73
     0
 40
0.0
  0
LTYPE
  5
14F
330
18
100
AcDbSymbolTableRecord
100
AcDbLinetypeTableRecord
  2
DASHED
 70
     0
  3
__ __ __ __ __ __ __ __ __ __ __ __ __ __ __
 72
    65
 73
     2
 40
0.75
 49
0.5
 74
     0
 49
-0.25
 74
     0
  0
ENDTAB
  0
TABLE
  2
LAYER
  5
14
330
0
100
AcDbSymbolTable
 70
     1
  0
LAYER
  5
6
330
14
100
AcDbSymbolTableRecord
100
AcDbLayerTableRecord
  2
0
 70
     0
 62
     7
  6
CONTINUOUS
370
    -3
390
7
  0
ENDTAB
  0
TABLE
  2
STYLE
  5
15
330
0
100
AcDbSymbolTable
 70
     1
  0
STYLE
  5
16
330
15
100
AcDbSymbolTableRecord
100
AcDbTextStyleTableRecord
  2
STANDARD
 70
     0
 40
0.0
 41
1.0
 50
0.0
 71
     0
 42
0.36
  3
TXT
  4

  0
ENDTAB
  0
TABLE
  2
VIEW
  5
1B
330
0
100
AcDbSymbolTable
 70
     0
  0
ENDTAB
  0
TABLE
  2
UCS
  5
1C
330
0
100
AcDbSymbolTable
 70
     0
  0
ENDTAB
  0
TABLE
  2
APPID
  5
1F
330
0
100
AcDbSymbolTable
 70
     1
  0
APPID
  5
20
330
1F
100
AcDbSymbolTableRecord
100
AcDbRegAppTableRecord
  2
ACAD
 70
     0
  0
ENDTAB
  0
TABLE
  2
DIMSTYLE
  5
21
330
0
100
AcDbSymbolTable
 70
     1
100
AcDbDimStyleTable
  0
DIMSTYLE
105
28
330
21
100
AcDbSymbolTableRecord
100
AcDbDimStyleTableRecord
  2
STANDARD
 70
     0
  3

  4

340
16
  0
ENDTAB
  0
TABLE
  2
BLOCK_RECORD
  5
1
330
0
100
AcDbSymbolTable
 70
     0
  0
BLOCK_RECORD
  5
2
102
{ACAD_XDICTIONARY
360
3
102
}
330
1
100
AcDbSymbolTableRecord
100
AcDbBlockTableRecord
  2
*MODEL_SPACE
340
C
  0
BLOCK_RECORD
  5
E
330
1
100
AcDbSymbolTableRecord
100
AcDbBlockTableRecord
  2
*PAPER_SPACE
340
13
  0
ENDTAB
  0
ENDSEC
  0
SECTION
  2
BLOCKS
  0
BLOCK
  5
5
330
2
100
AcDbEntity
  8
0
100
AcDbBlockBegin
  2
*MODEL_SPACE
 70
     0
 10
0.0
 20
0.0
 30
0.0
  3
*MODEL_SPACE
  1

  4

  0
ENDBLK
  5
B
330
2
100
AcDbEntity
  8
0
100
AcDbBlockEnd
  0
BLOCK
  5
11
330
E
100
AcDbEntity
 67
     1
  8
0
100
AcDbBlockBegin
  2
*PAPER_SPACE
 70
     0
 10
0.0
 20
0.0
 30
0.0
  3
*PAPER_SPACE
  1

  4

  0
ENDBLK
  5
12
330
E
100
AcDbEntity
 67
     1
  8
0
100
AcDbBlockEnd
  0
ENDSEC
  0
SECTION
  2
ENTITIES
  0
LINE
  5
212
330
2
100
AcDbEntity
  8
0
100
AcDbLine
 10
-1.064480418491286
 20
4.970585228390402
 30
0.0
 11
-1.303757113787924
 21
4.731308533093763
 31
0.0
  0
LINE
  5
213
330
2
100
AcDbEntity
  8
0
  6
Continuous
100
AcDbLine
 10
0.3399263107071135
 20
0.3608099917670344
 30
0.0
 11
0.3399263107071135
 21
6.624999999999993
 31
0.0
  0
LINE
  5
214
330
2
100
AcDbEntity
  8
0
  6
Continuous
100
AcDbLine
 10
0.4336763107071135
 20
0.4357542728370714
 30
0.0
 11
0.4336763107071135
 21
10.62499999999999
 31
0.0
  0
LINE
  5
215
330
2
100
AcDbEntity
  8
0
100
AcDbLine
 10
-2.292271727283321
 20
1.805293919598324
 30
0.0
 11
-3.620698852029477
 21
0.4768667948521674
 31
0.0
  0
LINE
  5
216
330
2
100
AcDbEntity
  8
0
  6
DASHED
100
AcDbLine
 10
0.1672574213117599
 20
0.0000000000000018
 30
0.0
 11
-3.822543416998499
 21
0.0000000000000018
 31
0.0
  0
LINE
  5
217
330
2
100
AcDbEntity
  8
0
  6
Continuous
100
AcDbLine
 10
0.1319436512512624
 20
-0.0937499999999982
 30
0.0
 11
-3.839285971897979
 21
-0.0937499999999982
 31
0.0
  0
ARC
  5
218
330
2
100
AcDbEntity
  8
0
100
AcDbCircle
 10
-3.090368766139577
 20
-0.0534632910377191
 30
0.0
 40
0.75
100
AcDbArc
 50
134.9999999999993
 51
183.0791598220299
  0
ARC
  5
219
330
2
100
AcDbEntity
  8
0
100
AcDbCircle
 10
-4.590368766139605
 20
4.10339095845465
 30
0.0
 40
3.25
100
AcDbArc
 50
314.9999999999993
 51
0.0
  0
ARC
  5
21D
330
2
100
AcDbEntity
  8
0
100
AcDbCircle
 10
0.7870422402379234
 20
-0.1163295214628821
 30
0.0
 40
0.6554876017758128
100
AcDbArc
 50
122.6216211627862
 51
178.0259469940233
  0
LINE
  5
221
330
2
100
AcDbEntity
  8
0
100
AcDbLine
 10
-1.340368766139591
 20
4.10339095845465
 30
0.0
 11
-1.340368766139591
 21
4.642920185445444
 31
0.0
  0
ARC
  5
222
330
2
100
AcDbEntity
  8
0
100
AcDbCircle
 10
-1.215368766139605
 20
4.642920185445444
 30
0.0
 40
0.125
100
AcDbArc
 50
134.9999999999999
 51
180.0
  0
LINE
  5
22F
330
2
100
AcDbEntity
  8
0
100
AcDbLine
 10
-1.303757113787924
 20
10.0330852283904
 30
0.0
 11
-1.064480418491286
 21
9.793808533093763
 31
0.0
  0
LINE
  5
230
330
2
100
AcDbEntity
  8
0
100
AcDbLine
 10
0.3399263107071135
 20
10.625
 30
0.0
 11
0.3399263107071135
 21
6.324999999999992
 31
0.0
  0
LINE
  5
231
330
2
100
AcDbEntity
  8
0
100
AcDbLine
 10
-1.027868766139605
 20
7.705420185445444
 30
0.0
 11
-1.027868766139605
 21
7.058973576038721
 31
0.0
  0
LINE
  5
232
330
2
100
AcDbEntity
  8
0
100
AcDbLine
 10
-1.064480418491286
 20
6.970585228390402
 30
0.0
 11
-1.303757113787924
 21
6.731308533093763
 31
0.0
  0
LINE
  5
233
330
2
100
AcDbEntity
  8
0
100
AcDbLine
 10
-1.303757113787924
 20
6.033085228390402
 30
0.0
 11
-1.064480418491286
 21
5.793808533093763
 31
0.0
  0
LINE
  5
234
330
2
100
AcDbEntity
  8
0
100
AcDbLine
 10
-1.340368766139605
 20
6.121473576038721
 30
0.0
 11
-1.340368766139605
 21
6.624999999999996
 31
0.0
  0
LINE
  5
235
330
2
100
AcDbEntity
  8
0
100
AcDbLine
 10
-1.340368766139605
 20
6.624999999999996
 30
0.0
 11
-1.340368766139605
 21
6.121473319994447
 31
0.0
  0
ARC
  5
236
330
2
100
AcDbEntity
  8
0
100
AcDbCircle
 10
-1.215368766139605
 20
6.121473576038721
 30
0.0
 40
0.125
100
AcDbArc
 50
180.0
 51
225.0000000000001
  0
ARC
  5
237
330
2
100
AcDbEntity
  8
0
100
AcDbCircle
 10
-1.215368766139605
 20
6.642920185445444
 30
0.0
 40
0.125
100
AcDbArc
 50
134.9999999999999
 51
180.0
  0
LINE
  5
238
330
2
100
AcDbEntity
  8
0
100
AcDbLine
 10
-1.027868766139605
 20
5.705420185445444
 30
0.0
 11
-1.027868766139605
 21
5.058973576038721
 31
0.0
  0
ARC
  5
23A
330
2
100
AcDbEntity
  8
0
100
AcDbCircle
 10
-1.152868766139605
 20
5.058973576038721
 30
0.0
 40
0.125
100
AcDbArc
 50
314.9999999999998
 51
0.0
  0
ARC
  5
23E
330
2
100
AcDbEntity
  8
0
100
AcDbCircle
 10
-1.152868766139605
 20
5.705420185445444
 30
0.0
 40
0.125
100
AcDbArc
 50
0.0
 51
45.00000000000015
  0
ARC
  5
246
330
2
100
AcDbEntity
  8
0
100
AcDbCircle
 10
-1.152868766139605
 20
7.058973576038721
 30
0.0
 40
0.125
100
AcDbArc
 50
314.9999999999998
 51
0.0
  0
LINE
  5
247
330
2
100
AcDbEntity
  8
0
100
AcDbLine
 10
-1.064480418491286
 20
8.970585228390402
 30
0.0
 11
-1.303757113787924
 21
8.731308533093763
 31
0.0
  0
LINE
  5
248
330
2
100
AcDbEntity
  8
0
100
AcDbLine
 10
-1.303757113787924
 20
8.033085228390402
 30
0.0
 11
-1.064480418491286
 21
7.793808533093763
 31
0.0
  0
ARC
  5
249
330
2
100
AcDbEntity
  8
0
100
AcDbCircle
 10
-1.215368766139605
 20
8.121473576038721
 30
0.0
 40
0.125
100
AcDbArc
 50
180.0
 51
225.0000000000001
  0
LINE
  5
24A
330
2
100
AcDbEntity
  8
0
100
AcDbLine
 10
-1.340368766139605
 20
8.624999999999996
 30
0.0
 11
-1.340368766139605
 21
8.121473319994447
 31
0.0
  0
LINE
  5
24B
330
2
100
AcDbEntity
  8
0
100
AcDbLine
 10
-1.340368766139605
 20
8.121473576038721
 30
0.0
 11
-1.340368766139605
 21
8.624999999999996
 31
0.0
  0
LINE
  5
24C
330
2
100
AcDbEntity
  8
0
100
AcDbLine
 10
-1.340368766139605
 20
8.624999999999996
 30
0.0
 11
-1.340368766139605
 21
8.121473319994447
 31
0.0
  0
LINE
  5
24D
330
2
100
AcDbEntity
  8
0
100
AcDbLine
 10
-1.340368766139605
 20
8.121473576038721
 30
0.0
 11
-1.340368766139605
 21
8.624999999999996
 31
0.0
  0
ARC
  5
24E
330
2
100
AcDbEntity
  8
0
100
AcDbCircle
 10
-1.215368766139605
 20
8.642920185445444
 30
0.0
 40
0.125
100
AcDbArc
 50
134.9999999999999
 51
180.0
  0
ARC
  5
254
330
2
100
AcDbEntity
  8
0
100
AcDbCircle
 10
-1.152868766139605
 20
7.705420185445444
 30
0.0
 40
0.125
100
AcDbArc
 50
0.0
 51
45.00000000000015
  0
LINE
  5
255
330
2
100
AcDbEntity
  8
0
100
AcDbLine
 10
-1.027868766139605
 20
9.705420185445444
 30
0.0
 11
-1.027868766139605
 21
9.058973576038721
 31
0.0
  0
ARC
  5
25B
330
2
100
AcDbEntity
  8
0
100
AcDbCircle
 10
-1.152868766139605
 20
9.058973576038721
 30
0.0
 40
0.125
100
AcDbArc
 50
314.9999999999998
 51
0.0
  0
ARC
  5
25E
330
2
100
AcDbEntity
  8
0
100
AcDbCircle
 10
-1.152868766139605
 20
9.705420185445444
 30
0.0
 40
0.125
100
AcDbArc
 50
0.0
 51
45.00000000000015
  0
LINE
  5
25F
330
2
100
AcDbEntity
  8
0
100
AcDbLine
 10
-1.340368766139605
 20
10.625
 30
0.0
 11
0.4336763107071135
 21
10.625
 31
0.0
  0
LINE
  5
260
330
2
100
AcDbEntity
  8
0
100
AcDbLine
 10
-1.340368766139605
 20
10.12147357603872
 30
0.0
 11
-1.340368766139605
 21
10.625
 31
0.0
  0
LINE
  5
261
330
2
100
AcDbEntity
  8
0
100
AcDbLine
 10
-1.340368766139605
 20
10.625
 30
0.0
 11
-1.340368766139605
 21
10.12147331999445
 31
0.0
  0
ARC
  5
262
330
2
100
AcDbEntity
  8
0
100
AcDbCircle
 10
-1.215368766139605
 20
10.12147357603872
 30
0.0
 40
0.125
100
AcDbArc
 50
180.0
 51
225.0000000000001
  0
LINE
  5
599
330
2
100
AcDbEntity
  8
0
100
AcDbLine
 10
-0.3935736892928787
 20
2.95316936849445
 30
0.0
 11
-0.3935736892928787
 21
2.803542975433238
 31
0.0
  0
ARC
  5
59A
330
2
100
AcDbEntity
  8
0
100
AcDbCircle
 10
-0.5658193370433367
 20
2.874999999999645
 30
0.0
 40
0.0855
100
AcDbArc
 50
89.99983493434672
 51
270.0001650656533
  0
ARC
  5
59B
330
2
100
AcDbEntity
  8
0
100
AcDbCircle
 10
-0.5454519069323283
 20
2.874999999999645
 30
0.0
 40
0.0855
100
AcDbArc
 50
89.99983493434672
 51
270.0001650656533
  0
ARC
  5
59C
330
2
100
AcDbEntity
  8
0
100
AcDbCircle
 10
-0.5975736892928865
 20
2.875
 30
0.0
 40
0.0855
100
AcDbArc
 50
90.0
 51
270.0
  0
LINE
  5
59D
330
2
100
AcDbEntity
  8
0
100
AcDbLine
 10
-0.5975736892928865
 20
2.7895
 30
0.0
 11
-0.4100736892928865
 21
2.7895
 31
0.0
  0
LINE
  5
59F
330
2
100
AcDbEntity
  8
0
100
AcDbLine
 10
-0.5975736892928865
 20
2.9605
 30
0.0
 11
-0.4100736892928865
 21
2.9605
 31
0.0
  0
LINE
  5
5A0
330
2
100
AcDbEntity
  8
0
100
AcDbLine
 10
-0.3935736892928787
 20
3.952687535223113
 30
0.0
 11
-0.3935736892928787
 21
3.803061142161901
 31
0.0
  0
ARC
  5
5A1
330
2
100
AcDbEntity
  8
0
100
AcDbCircle
 10
-0.5407517307528593
 20
3.874999999999645
 30
0.0
 40
0.0855
100
AcDbArc
 50
89.99983493434672
 51
270.0001650656533
  0
ARC
  5
5A2
330
2
100
AcDbEntity
  8
0
100
AcDbCircle
 10
-0.5611191608638677
 20
3.874999999999645
 30
0.0
 40
0.0855
100
AcDbArc
 50
89.99983493434672
 51
270.0001650656533
  0
ARC
  5
5A3
330
2
100
AcDbEntity
  8
0
100
AcDbCircle
 10
-0.5975736892928865
 20
3.875
 30
0.0
 40
0.0855
100
AcDbArc
 50
90.0
 51
270.0
  0
LINE
  5
5A4
330
2
100
AcDbEntity
  8
0
100
AcDbLine
 10
-0.5975736892928865
 20
3.9605
 30
0.0
 11
-0.4100736892928865
 21
3.9605
 31
0.0
  0
LINE
  5
5A5
330
2
100
AcDbEntity
  8
0
100
AcDbLine
 10
-0.5975736892928865
 20
3.7895
 30
0.0
 11
-0.4100736892928865
 21
3.7895
 31
0.0
  0
ARC
  5
5A6
330
2
100
AcDbEntity
  8
0
100
AcDbCircle
 10
-0.5611191608637824
 20
4.875000000000359
 30
0.0
 40
0.0855
100
AcDbArc
 50
89.99983493434672
 51
270.0001650656533
  0
ARC
  5
5A7
330
2
100
AcDbEntity
  8
0
100
AcDbCircle
 10
-0.5407517307527741
 20
4.875000000000359
 30
0.0
 40
0.0855
100
AcDbArc
 50
89.99983493434672
 51
270.0001650656533
  0
LINE
  5
5A8
330
2
100
AcDbEntity
  8
0
100
AcDbLine
 10
-0.3935736892928787
 20
4.936735662197435
 30
0.0
 11
-0.3935736892928787
 21
4.787109269136224
 31
0.0
  0
ARC
  5
5A9
330
2
100
AcDbEntity
  8
0
100
AcDbCircle
 10
-0.5975736892928865
 20
4.875
 30
0.0
 40
0.0855
100
AcDbArc
 50
90.0
 51
270.0
  0
LINE
  5
5AA
330
2
100
AcDbEntity
  8
0
100
AcDbLine
 10
-0.5975736892928865
 20
4.960500000000003
 30
0.0
 11
-0.4100736892928865
 21
4.960500000000003
 31
0.0
  0
LINE
  5
5AB
330
2
100
AcDbEntity
  8
0
100
AcDbLine
 10
-0.5975736892928865
 20
4.789500000000004
 30
0.0
 11
-0.4100736892928865
 21
4.789500000000004
 31
0.0
  0
LINE
  5
5AC
330
2
100
AcDbEntity
  8
0
100
AcDbLine
 10
-0.3935736892928787
 20
5.952687535223113
 30
0.0
 11
-0.3935736892928787
 21
5.803061142161901
 31
0.0
  0
ARC
  5
5AD
330
2
100
AcDbEntity
  8
0
100
AcDbCircle
 10
-0.5975736892928865
 20
5.875
 30
0.0
 40
0.0855
100
AcDbArc
 50
89.99983493434672
 51
270.0001650656533
  0
LINE
  5
5AE
330
2
100
AcDbEntity
  8
0
100
AcDbLine
 10
-0.5975736892928865
 20
5.960499999999996
 30
0.0
 11
-0.3935736892928787
 21
5.960499999999996
 31
0.0
  0
LINE
  5
5AF
330
2
100
AcDbEntity
  8
0
100
AcDbLine
 10
-0.5975736892928865
 20
5.789499999999997
 30
0.0
 11
-0.3935736892928787
 21
5.789499999999997
 31
0.0
  0
ARC
  5
5B0
330
2
100
AcDbEntity
  8
0
100
AcDbCircle
 10
-0.5384723605224764
 20
5.875
 30
0.0
 40
0.0855
100
AcDbArc
 50
89.99983493434672
 51
270.0001650656533
  0
ARC
  5
5B1
330
2
100
AcDbEntity
  8
0
100
AcDbCircle
 10
-0.5588397906334848
 20
5.875
 30
0.0
 40
0.0855
100
AcDbArc
 50
89.99983493434672
 51
270.0001650656533
  0
ARC
  5
5B2
330
2
100
AcDbEntity
  8
0
100
AcDbCircle
 10
-0.5975736892928865
 20
5.875
 30
0.0
 40
0.0855
100
AcDbArc
 50
90.0
 51
270.0
  0
LINE
  5
5B3
330
2
100
AcDbEntity
  8
0
100
AcDbLine
 10
-0.5975736892928865
 20
5.960500000000003
 30
0.0
 11
-0.4100736892928865
 21
5.960500000000003
 31
0.0
  0
LINE
  5
5B4
330
2
100
AcDbEntity
  8
0
100
AcDbLine
 10
-0.5975736892928865
 20
5.789500000000004
 30
0.0
 11
-0.4100736892928865
 21
5.789500000000004
 31
0.0
  0
LINE
  5
5B9
330
2
100
AcDbEntity
  8
0
100
AcDbLine
 10
-0.3935736892928787
 20
6.952687535223109
 30
0.0
 11
-0.3935736892928787
 21
6.803061142161898
 31
0.0
  0
ARC
  5
5BA
330
2
100
AcDbEntity
  8
0
100
AcDbCircle
 10
-0.5975736892928865
 20
6.874999999999996
 30
0.0
 40
0.0855
100
AcDbArc
 50
90.0
 51
270.0
  0
LINE
  5
5BB
330
2
100
AcDbEntity
  8
0
100
AcDbLine
 10
-0.5975736892928865
 20
6.7895
 30
0.0
 11
-0.4100736892928865
 21
6.7895
 31
0.0
  0
LINE
  5
5BC
330
2
100
AcDbEntity
  8
0
100
AcDbLine
 10
-0.5975736892928865
 20
6.9605
 30
0.0
 11
-0.4100736892928865
 21
6.9605
 31
0.0
  0
ARC
  5
5BD
330
2
100
AcDbEntity
  8
0
100
AcDbCircle
 10
-0.5588397906334848
 20
6.874999999999996
 30
0.0
 40
0.0855
100
AcDbArc
 50
89.99983493434672
 51
270.0001650656533
  0
ARC
  5
5BE
330
2
100
AcDbEntity
  8
0
100
AcDbCircle
 10
-0.5384723605224764
 20
6.874999999999996
 30
0.0
 40
0.0855
100
AcDbArc
 50
89.99983493434672
 51
270.0001650656533
  0
LINE
  5
5BF
330
2
100
AcDbEntity
  8
0
100
AcDbLine
 10
-0.5975736892928865
 20
6.789499999999993
 30
0.0
 11
-0.3935736892928787
 21
6.789499999999993
 31
0.0
  0
LINE
  5
5C0
330
2
100
AcDbEntity
  8
0
100
AcDbLine
 10
-0.5975736892928865
 20
6.960499999999993
 30
0.0
 11
-0.3935736892928787
 21
6.960499999999993
 31
0.0
  0
ARC
  5
5C1
330
2
100
AcDbEntity
  8
0
100
AcDbCircle
 10
-0.5975736892928865
 20
6.874999999999996
 30
0.0
 40
0.0855
100
AcDbArc
 50
89.99983493434672
 51
270.0001650656533
  0
ARC
  5
5C8
330
2
100
AcDbEntity
  8
0
100
AcDbCircle
 10
-0.5975736892928865
 20
7.874999999999996
 30
0.0
 40
0.0855
100
AcDbArc
 50
89.99983493434672
 51
270.0001650656533
  0
LINE
  5
5C9
330
2
100
AcDbEntity
  8
0
100
AcDbLine
 10
-0.5975736892928865
 20
7.960499999999993
 30
0.0
 11
-0.3935736892928787
 21
7.960499999999993
 31
0.0
  0
LINE
  5
5CA
330
2
100
AcDbEntity
  8
0
100
AcDbLine
 10
-0.5975736892928865
 20
7.789499999999993
 30
0.0
 11
-0.3935736892928787
 21
7.789499999999993
 31
0.0
  0
ARC
  5
5CB
330
2
100
AcDbEntity
  8
0
100
AcDbCircle
 10
-0.5384723605224764
 20
7.874999999999996
 30
0.0
 40
0.0855
100
AcDbArc
 50
89.99983493434672
 51
270.0001650656533
  0
ARC
  5
5CC
330
2
100
AcDbEntity
  8
0
100
AcDbCircle
 10
-0.5588397906334848
 20
7.874999999999996
 30
0.0
 40
0.0855
100
AcDbArc
 50
89.99983493434672
 51
270.0001650656533
  0
LINE
  5
5CD
330
2
100
AcDbEntity
  8
0
100
AcDbLine
 10
-0.5975736892928865
 20
7.9605
 30
0.0
 11
-0.4100736892928865
 21
7.9605
 31
0.0
  0
LINE
  5
5CE
330
2
100
AcDbEntity
  8
0
100
AcDbLine
 10
-0.5975736892928865
 20
7.7895
 30
0.0
 11
-0.4100736892928865
 21
7.7895
 31
0.0
  0
ARC
  5
5CF
330
2
100
AcDbEntity
  8
0
100
AcDbCircle
 10
-0.5975736892928865
 20
7.874999999999996
 30
0.0
 40
0.0855
100
AcDbArc
 50
90.0
 51
270.0
  0
LINE
  5
5D0
330
2
100
AcDbEntity
  8
0
100
AcDbLine
 10
-0.3935736892928787
 20
7.952687535223109
 30
0.0
 11
-0.3935736892928787
 21
7.803061142161898
 31
0.0
  0
LINE
  5
5D5
330
2
100
AcDbEntity
  8
0
100
AcDbLine
 10
-0.5975736892928865
 20
8.789499999999993
 30
0.0
 11
-0.3935736892928787
 21
8.789499999999993
 31
0.0
  0
ARC
  5
5D6
330
2
100
AcDbEntity
  8
0
100
AcDbCircle
 10
-0.5384723605224764
 20
8.874999999999996
 30
0.0
 40
0.0855
100
AcDbArc
 50
89.99983493434672
 51
270.0001650656533
  0
ARC
  5
5D7
330
2
100
AcDbEntity
  8
0
100
AcDbCircle
 10
-0.5588397906334848
 20
8.874999999999996
 30
0.0
 40
0.0855
100
AcDbArc
 50
89.99983493434672
 51
270.0001650656533
  0
LINE
  5
5D8
330
2
100
AcDbEntity
  8
0
100
AcDbLine
 10
-0.5975736892928865
 20
8.9605
 30
0.0
 11
-0.4100736892928865
 21
8.9605
 31
0.0
  0
LINE
  5
5D9
330
2
100
AcDbEntity
  8
0
100
AcDbLine
 10
-0.5975736892928865
 20
8.7895
 30
0.0
 11
-0.4100736892928865
 21
8.7895
 31
0.0
  0
ARC
  5
5DA
330
2
100
AcDbEntity
  8
0
100
AcDbCircle
 10
-0.5975736892928865
 20
8.874999999999996
 30
0.0
 40
0.0855
100
AcDbArc
 50
90.0
 51
270.0
  0
LINE
  5
5DB
330
2
100
AcDbEntity
  8
0
100
AcDbLine
 10
-0.3935736892928787
 20
8.952687535223109
 30
0.0
 11
-0.3935736892928787
 21
8.803061142161898
 31
0.0
  0
LINE
  5
5DC
330
2
100
AcDbEntity
  8
0
100
AcDbLine
 10
-0.3935736892928787
 20
9.952687535223109
 30
0.0
 11
-0.3935736892928787
 21
9.803061142161898
 31
0.0
  0
ARC
  5
5DD
330
2
100
AcDbEntity
  8
0
100
AcDbCircle
 10
-0.5975736892928865
 20
9.874999999999996
 30
0.0
 40
0.0855
100
AcDbArc
 50
90.0
 51
270.0
  0
ARC
  5
5DE
330
2
100
AcDbEntity
  8
0
100
AcDbCircle
 10
-0.5588397906334848
 20
9.874999999999996
 30
0.0
 40
0.0855
100
AcDbArc
 50
89.99983493434672
 51
270.0001650656533
  0
ARC
  5
5DF
330
2
100
AcDbEntity
  8
0
100
AcDbCircle
 10
-0.5384723605224764
 20
9.874999999999996
 30
0.0
 40
0.0855
100
AcDbArc
 50
89.99983493434672
 51
270.0001650656533
  0
LINE
  5
5E3
330
2
100
AcDbEntity
  8
0
100
AcDbLine
 10
-0.5975736892928865
 20
9.7895
 30
0.0
 11
-0.4100736892928865
 21
9.7895
 31
0.0
  0
LINE
  5
5E4
330
2
100
AcDbEntity
  8
0
100
AcDbLine
 10
-0.5975736892928865
 20
9.789499999999993
 30
0.0
 11
-0.3935736892928787
 21
9.789499999999993
 31
0.0
  0
LINE
  5
5E6
330
2
100
AcDbEntity
  8
0
100
AcDbLine
 10
-0.5975736892928865
 20
9.9605
 30
0.0
 11
-0.4100736892928865
 21
9.9605
 31
0.0
  0
LINE
  5
5EE
330
2
100
AcDbEntity
  8
0
100
AcDbLine
 10
-0.3935736892928787
 20
0.9696030747914648
 30
0.0
 11
-0.3935736892928787
 21
0.8199766817302532
 31
0.0
  0
ARC
  5
5EF
330
2
100
AcDbEntity
  8
0
100
AcDbCircle
 10
-0.5658193370433367
 20
0.8914337062966595
 30
0.0
 40
0.0855
100
AcDbArc
 50
89.99983493434672
 51
270.0001650656533
  0
ARC
  5
5F0
330
2
100
AcDbEntity
  8
0
100
AcDbCircle
 10
-0.5454519069323283
 20
0.8914337062966595
 30
0.0
 40
0.0855
100
AcDbArc
 50
89.99983493434672
 51
270.0001650656533
  0
ARC
  5
5F1
330
2
100
AcDbEntity
  8
0
100
AcDbCircle
 10
-0.5975736892928865
 20
0.8914337062970148
 30
0.0
 40
0.0855
100
AcDbArc
 50
90.0
 51
270.0
  0
LINE
  5
5F2
330
2
100
AcDbEntity
  8
0
100
AcDbLine
 10
-0.5975736892928865
 20
0.8059337062970151
 30
0.0
 11
-0.4100736892928865
 21
0.8059337062970151
 31
0.0
  0
LINE
  5
5F3
330
2
100
AcDbEntity
  8
0
100
AcDbLine
 10
-0.5975736892928865
 20
0.9769337062970145
 30
0.0
 11
-0.4100736892928865
 21
0.9769337062970145
 31
0.0
  0
LINE
  5
5F4
330
2
100
AcDbEntity
  8
0
100
AcDbLine
 10
-0.3935736892928787
 20
1.969121241520128
 30
0.0
 11
-0.3935736892928787
 21
1.819494848458916
 31
0.0
  0
ARC
  5
5F5
330
2
100
AcDbEntity
  8
0
100
AcDbCircle
 10
-0.5407517307528593
 20
1.89143370629666
 30
0.0
 40
0.0855
100
AcDbArc
 50
89.99983493434672
 51
270.0001650656533
  0
ARC
  5
5F6
330
2
100
AcDbEntity
  8
0
100
AcDbCircle
 10
-0.5611191608638677
 20
1.89143370629666
 30
0.0
 40
0.0855
100
AcDbArc
 50
89.99983493434672
 51
270.0001650656533
  0
ARC
  5
5F7
330
2
100
AcDbEntity
  8
0
100
AcDbCircle
 10
-0.5975736892928865
 20
1.891433706297015
 30
0.0
 40
0.0855
100
AcDbArc
 50
90.0
 51
270.0
  0
LINE
  5
5F8
330
2
100
AcDbEntity
  8
0
100
AcDbLine
 10
-0.5975736892928865
 20
1.976933706297015
 30
0.0
 11
-0.4100736892928865
 21
1.976933706297015
 31
0.0
  0
LINE
  5
5F9
330
2
100
AcDbEntity
  8
0
100
AcDbLine
 10
-0.5975736892928865
 20
1.805933706297015
 30
0.0
 11
-0.4100736892928865
 21
1.805933706297015
 31
0.0
  0
ENDSEC
  0
SECTION
  2
OBJECTS
  0
DICTIONARY
  5
9
330
0
100
AcDbDictionary
281
     1
  3
ACAD_COLOR
350
1DA
  3
ACAD_GROUP
350
23
  3
ACAD_LAYOUT
350
D
  3
ACAD_MATERIAL
350
1D9
  3
ACAD_MLINESTYLE
350
24
  3
ACAD_PLOTSETTINGS
350
25
  3
ACAD_PLOTSTYLENAME
350
8
  3
ACAD_TABLESTYLE
350
1DB
  3
ACDBHEADERROUNDTRIPXREC
350
68B
  3
AcDbVariableDictionary
350
1D5
  0
DICTIONARY
  5
3
330
2
100
AcDbDictionary
280
     1
281
     1
  3
ACAD_SORTENTS
360
1E2
  0
DICTIONARY
  5
1DA
102
{ACAD_REACTORS
330
9
102
}
330
9
100
AcDbDictionary
281
     1
  0
DICTIONARY
  5
23
102
{ACAD_REACTORS
330
9
102
}
330
9
100
AcDbDictionary
281
     1
  0
DICTIONARY
  5
D
102
{ACAD_REACTORS
330
9
102
}
330
9
100
AcDbDictionary
281
     1
  3
Layout1
350
13
  3
Model
350
C
  0
DICTIONARY
  5
1D9
102
{ACAD_REACTORS
330
9
102
}
330
9
100
AcDbDictionary
281
     1
  0
DICTIONARY
  5
24
102
{ACAD_REACTORS
330
9
102
}
330
9
100
AcDbDictionary
281
     1
  3
STANDARD
350
27
  0
DICTIONARY
  5
25
102
{ACAD_REACTORS
330
9
102
}
330
9
100
AcDbDictionary
281
     1
  0
ACDBDICTIONARYWDFLT
  5
8
102
{ACAD_REACTORS
330
9
102
}
330
9
100
AcDbDictionary
281
     1
  3
Normal
350
7
100
AcDbDictionaryWithDefault
340
7
  0
DICTIONARY
  5
1DB
102
{ACAD_REACTORS
330
9
102
}
330
9
100
AcDbDictionary
281
     1
  3
Standard
350
1DC
  0
DICTIONARY
  5
68B
102
{ACAD_REACTORS
330
9
102
}
330
9
100
AcDbDictionary
281
     1
  3
COLORDICT
350
68C
  3
MATERIALDICT
350
68D
  0
DICTIONARY
  5
1D5
102
{ACAD_REACTORS
330
9
102
}
330
9
100
AcDbDictionary
281
     1
  3
CTABLESTYLE
350
379
  3
HIDETEXT
350
68A
  0
SORTENTSTABLE
  5
1E2
102
{ACAD_REACTORS
330
3
102
}
330
3
100
AcDbSortentsTable
330
2
331
0
  5
205
331
221
  5
306
331
25F
  5
344
331
215
  5
2FA
331
247
  5
32C
331
214
  5
2F9
331
25E
  5
343
331
262
  5
347
331
254
  5
339
331
21D
  5
302
331
24B
  5
330
331
218
  5
2FD
331
238
  5
31D
331
23A
  5
31F
331
236
  5
31B
331
231
  5
316
331
213
  5
2F8
331
25B
  5
340
331
216
  5
2FB
331
222
  5
307
331
233
  5
318
331
261
  5
346
331
248
  5
32D
331
249
  5
32E
331
246
  5
32B
331
260
  5
345
331
24E
  5
333
331
219
  5
2FE
331
235
  5
31A
331
232
  5
317
331
24A
  5
32F
331
22F
  5
314
331
24C
  5
331
331
24D
  5
332
331
230
  5
315
331
234
  5
319
331
212
  5
2F7
331
237
  5
31C
331
23E
  5
323
331
255
  5
33A
331
217
  5
2FC
  0
LAYOUT
  5
13
102
{ACAD_REACTORS
330
D
102
}
102
{ACAD_XDICTIONARY
360
68E
102
}
330
D
100
AcDbPlotSettings
  1

  2
HP LaserJet 2100 Series PS
  4

  6

 40
0.0
 41
0.0
 42
0.0
 43
0.0
 44
0.0
 45
0.0
 46
0.0
 47
0.0
 48
0.0
 49
0.0
140
0.0
141
0.0
142
1.0
143
1.0
 70
   688
 72
     0
 73
     0
 74
     5
  7

 75
    16
147
1.0
148
0.0
149
0.0
100
AcDbLayout
  1
Layout1
 70
     0
 71
     1
 10
0.0
 20
0.0
 11
12.0
 21
9.0
 12
0.0
 22
0.0
 32
0.0
 14
1.000000000000000E+20
 24
1.000000000000000E+20
 34
1.000000000000000E+20
 15
-1.000000000000000E+20
 25
-1.000000000000000E+20
 35
-1.000000000000000E+20
146
0.0
 13
0.0
 23
0.0
 33
0.0
 16
1.0
 26
0.0
 36
0.0
 17
0.0
 27
1.0
 37
0.0
 76
     0
330
E
  0
LAYOUT
  5
C
102
{ACAD_REACTORS
330
D
102
}
102
{ACAD_XDICTIONARY
360
690
102
}
330
D
100
AcDbPlotSettings
  1

  2
HP LaserJet 2100 Series PS
  4
Letter
  6

 40
5.365749835968018
 41
5.408084392547607
 42
5.4080810546875
 43
5.365753173828125
 44
215.8999938964844
 45
279.3999938964844
 46
0.0
 47
0.0
 48
0.0
 49
0.0
140
0.0
141
0.0
142
1.0
143
3.971318409846261
 70
 11952
 72
     0
 73
     1
 74
     2
  7

 75
     0
147
0.2518055458662435
148
0.0
149
0.0
100
AcDbLayout
  1
Model
 70
     1
 71
     0
 10
0.0
 20
0.0
 11
12.0
 21
9.0
 12
0.0
 22
0.0
 32
0.0
 14
0.0
 24
0.0
 34
0.0
 15
0.0
 25
0.0
 35
0.0
146
0.0
 13
0.0
 23
0.0
 33
0.0
 16
1.0
 26
0.0
 36
0.0
 17
0.0
 27
1.0
 37
0.0
 76
     0
330
2
  0
MLINESTYLE
  5
27
102
{ACAD_REACTORS
330
24
102
}
330
24
100
AcDbMlineStyle
  2
STANDARD
 70
     0
  3

 62
   256
 51
90.0
 52
90.0
 71
     2
 49
0.5
 62
   256
  6
BYLAYER
 49
-0.5
 62
   256
  6
BYLAYER
  0
ACDBPLACEHOLDER
  5
7
102
{ACAD_REACTORS
330
8
102
}
330
8
  0
ACAD_PROXY_OBJECT
  5
1DC
102
{ACAD_REACTORS
330
1DB
102
}
330
1DB
100
AcDbProxyObject
 90
      499
 91
      537
 95
   983063
 70
     0
 93
     1841
310
4214DD185B99185C9928B81E85EB51B8AE3F2E07A17AD46E2B8FC02B5E8DC0F42B1CFD028000000C1008070000C3001FDFF8000000C1003FBFF000000182007F7FE00000030400FEFFC00000060801FDFF8000000C1003FBFF00000018200000000000000681FA0B0000001820100E000186003FBFF000000182007F7FE000
310
00030400FEFFC00000060801FDFF8000000C1003FBFF000000182007F7FE000000304000AD7A3703D0AC73F4160000003040201C00030C007F7FE00000030400FEFFC00000060801FDFF8000000C1003FBFF000000182007F7FE00000030400FEFFC000000608000
340
16
340
16
340
16
 94
        0
  0
XRECORD
  5
68C
102
{ACAD_REACTORS
330
68B
102
}
330
68B
100
AcDbXrecord
340
1DA
  0
XRECORD
  5
68D
102
{ACAD_REACTORS
330
68B
102
}
330
68B
100
AcDbXrecord
340
1D9
  0
DICTIONARYVAR
  5
379
102
{ACAD_REACTORS
330
1D5
102
}
330
1D5
100
DictionaryVariables
280
     0
  1
STANDARD
  0
DICTIONARYVAR
  5
68A
102
{ACAD_REACTORS
330
1D5
102
}
330
1D5
100
DictionaryVariables
280
     0
  1
0
  0
DICTIONARY
  5
68E
330
13
100
AcDbDictionary
280
     1
281
     1
  3
ACAD_XREC_ROUNDTRIP
360
68F
  0
DICTIONARY
  5
690
330
C
100
AcDbDictionary
280
     1
281
     1
  3
ACAD_XREC_ROUNDTRIP
360
691
  0
XRECORD
  5
68F
102
{ACAD_REACTORS
330
68E
102
}
330
68E
100
AcDbXrecord
102
SHADEPLOT
 70
     0
102
SHADEPLOTRESLEVEL
 70
     2
102
SHADEPLOTCUSTOMDPI
 70
   300
  0
XRECORD
  5
691
102
{ACAD_REACTORS
330
690
102
}
330
690
100
AcDbXrecord
102
SHADEPLOT
 70
     0
102
SHADEPLOTRESLEVEL
 70
     2
102
SHADEPLOTCUSTOMDPI
 70
   300
  0
ENDSEC
  0
EOF
