  0
SECTION
  2
HEADER
  9
$ACADVER
  1
AC1015
  9
$ACADMAINTVER
 70
     6
  9
$DWGCODEPAGE
  3
ANSI_1252
  9
$INSBASE
 10
0.0
 20
0.0
 30
0.0
  9
$EXTMIN
 10
-15.0619775887053
 20
-0.1347735371696359
 30
-0.0000000000112498
  9
$EXTMAX
 10
15.05885486303089
 20
19.35555650207151
 30
0.0000000000002956
  9
$LIMMIN
 10
0.0
 20
0.0
  9
$LIMMAX
 10
42.0
 20
32.0
  9
$ORTHOMODE
 70
     1
  9
$REGENMODE
 70
     1
  9
$FILLMODE
 70
     1
  9
$QTEXTMODE
 70
     0
  9
$MIRRTEXT
 70
     1
  9
$LTSCALE
 40
0.5
  9
$ATTMODE
 70
     1
  9
$TEXTSIZE
 40
0.36
  9
$TRACEWID
 40
0.05
  9
$TEXTSTYLE
  7
STANDARD
  9
$CLAYER
  8
0
  9
$CELTYPE
  6
BYLAYER
  9
$CECOLOR
 62
   256
  9
$CELTSCALE
 40
1.0
  9
$DISPSILH
 70
     0
  9
$DIMSCALE
 40
4.0
  9
$DIMASZ
 40
0.125
  9
$DIMEXO
 40
0.062
  9
$DIMDLI
 40
0.375
  9
$DIMRND
 40
0.0
  9
$DIMDLE
 40
0.0
  9
$DIMEXE
 40
0.08
  9
$DIMTP
 40
0.0
  9
$DIMTM
 40
0.0
  9
$DIMTXT
 40
0.09
  9
$DIMCEN
 40
-0.06
  9
$DIMTSZ
 40
0.0
  9
$DIMTOL
 70
     0
  9
$DIMLIM
 70
     0
  9
$DIMTIH
 70
     1
  9
$DIMTOH
 70
     1
  9
$DIMSE1
 70
     0
  9
$DIMSE2
 70
     0
  9
$DIMTAD
 70
     0
  9
$DIMZIN
 70
     0
  9
$DIMBLK
  1

  9
$DIMASO
 70
     0
  9
$DIMSHO
 70
     0
  9
$DIMPOST
  1

  9
$DIMAPOST
  1

  9
$DIMALT
 70
     0
  9
$DIMALTD
 70
     2
  9
$DIMALTF
 40
25.4
  9
$DIMLFAC
 40
1.0
  9
$DIMTOFL
 70
     0
  9
$DIMTVP
 40
0.0
  9
$DIMTIX
 70
     0
  9
$DIMSOXD
 70
     0
  9
$DIMSAH
 70
     0
  9
$DIMBLK1
  1

  9
$DIMBLK2
  1

  9
$DIMSTYLE
  2
STANDARD
  9
$DIMCLRD
 70
     0
  9
$DIMCLRE
 70
     0
  9
$DIMCLRT
 70
     0
  9
$DIMTFAC
 40
1.0
  9
$DIMGAP
 40
0.09
  9
$DIMJUST
 70
     0
  9
$DIMSD1
 70
     0
  9
$DIMSD2
 70
     0
  9
$DIMTOLJ
 70
     1
  9
$DIMTZIN
 70
     0
  9
$DIMALTZ
 70
     0
  9
$DIMALTTZ
 70
     0
  9
$DIMUPT
 70
     0
  9
$DIMDEC
 70
     5
  9
$DIMTDEC
 70
     5
  9
$DIMALTU
 70
     5
  9
$DIMALTTD
 70
     2
  9
$DIMTXSTY
  7
STANDARD
  9
$DIMAUNIT
 70
     0
  9
$DIMADEC
 70
     0
  9
$DIMALTRND
 40
0.0
  9
$DIMAZIN
 70
     0
  9
$DIMDSEP
 70
    46
  9
$DIMATFIT
 70
     3
  9
$DIMFRAC
 70
     2
  9
$DIMLDRBLK
  1

  9
$DIMLUNIT
 70
     5
  9
$DIMLWD
 70
    -2
  9
$DIMLWE
 70
    -2
  9
$DIMTMOVE
 70
     2
  9
$LUNITS
 70
     5
  9
$LUPREC
 70
     5
  9
$SKETCHINC
 40
0.1
  9
$FILLETRAD
 40
0.125
  9
$AUNITS
 70
     0
  9
$AUPREC
 70
     0
  9
$MENU
  1
qa
  9
$ELEVATION
 40
0.0
  9
$PELEVATION
 40
0.0
  9
$THICKNESS
 40
0.0
  9
$LIMCHECK
 70
     0
  9
$CHAMFERA
 40
0.0
  9
$CHAMFERB
 40
0.0
  9
$CHAMFERC
 40
0.0
  9
$CHAMFERD
 40
0.0
  9
$SKPOLY
 70
     0
  9
$TDCREATE
 40
2450274.782277546
  9
$TDUCREATE
 40
2450275.11561088
  9
$TDUPDATE
 40
2454165.974906736
  9
$TDUUPDATE
 40
2454166.30824007
  9
$TDINDWG
 40
0.1093359259
  9
$TDUSRTIMER
 40
0.1093359259
  9
$USRTIMER
 70
     1
  9
$ANGBASE
 50
0.0
  9
$ANGDIR
 70
     0
  9
$PDMODE
 70
     0
  9
$PDSIZE
 40
0.0
  9
$PLINEWID
 40
0.0
  9
$SPLFRAME
 70
     0
  9
$SPLINETYPE
 70
     6
  9
$SPLINESEGS
 70
     8
  9
$HANDSEED
  5
683
  9
$SURFTAB1
 70
     6
  9
$SURFTAB2
 70
     6
  9
$SURFTYPE
 70
     6
  9
$SURFU
 70
     6
  9
$SURFV
 70
     6
  9
$UCSBASE
  2

  9
$UCSNAME
  2

  9
$UCSORG
 10
0.0
 20
0.0
 30
0.0
  9
$UCSXDIR
 10
1.0
 20
0.0
 30
0.0
  9
$UCSYDIR
 10
0.0
 20
1.0
 30
0.0
  9
$UCSORTHOREF
  2

  9
$UCSORTHOVIEW
 70
     0
  9
$UCSORGTOP
 10
0.0
 20
0.0
 30
0.0
  9
$UCSORGBOTTOM
 10
0.0
 20
0.0
 30
0.0
  9
$UCSORGLEFT
 10
0.0
 20
0.0
 30
0.0
  9
$UCSORGRIGHT
 10
0.0
 20
0.0
 30
0.0
  9
$UCSORGFRONT
 10
0.0
 20
0.0
 30
0.0
  9
$UCSORGBACK
 10
0.0
 20
0.0
 30
0.0
  9
$PUCSBASE
  2

  9
$PUCSNAME
  2

  9
$PUCSORG
 10
0.0
 20
0.0
 30
0.0
  9
$PUCSXDIR
 10
1.0
 20
0.0
 30
0.0
  9
$PUCSYDIR
 10
0.0
 20
1.0
 30
0.0
  9
$PUCSORTHOREF
  2

  9
$PUCSORTHOVIEW
 70
     0
  9
$PUCSORGTOP
 10
0.0
 20
0.0
 30
0.0
  9
$PUCSORGBOTTOM
 10
0.0
 20
0.0
 30
0.0
  9
$PUCSORGLEFT
 10
0.0
 20
0.0
 30
0.0
  9
$PUCSORGRIGHT
 10
0.0
 20
0.0
 30
0.0
  9
$PUCSORGFRONT
 10
0.0
 20
0.0
 30
0.0
  9
$PUCSORGBACK
 10
0.0
 20
0.0
 30
0.0
  9
$USERI1
 70
     0
  9
$USERI2
 70
     0
  9
$USERI3
 70
     0
  9
$USERI4
 70
     0
  9
$USERI5
 70
     0
  9
$USERR1
 40
0.0
  9
$USERR2
 40
0.0
  9
$USERR3
 40
0.0
  9
$USERR4
 40
0.0
  9
$USERR5
 40
0.0
  9
$WORLDVIEW
 70
     1
  9
$SHADEDGE
 70
     3
  9
$SHADEDIF
 70
    70
  9
$TILEMODE
 70
     1
  9
$MAXACTVP
 70
    16
  9
$PINSBASE
 10
0.0
 20
0.0
 30
0.0
  9
$PLIMCHECK
 70
     0
  9
$PEXTMIN
 10
1.000000000000000E+20
 20
1.000000000000000E+20
 30
1.000000000000000E+20
  9
$PEXTMAX
 10
-1.000000000000000E+20
 20
-1.000000000000000E+20
 30
-1.000000000000000E+20
  9
$PLIMMIN
 10
0.0
 20
0.0
  9
$PLIMMAX
 10
12.0
 20
9.0
  9
$UNITMODE
 70
     0
  9
$VISRETAIN
 70
     0
  9
$PLINEGEN
 70
     0
  9
$PSLTSCALE
 70
     0
  9
$TREEDEPTH
 70
  3020
  9
$CMLSTYLE
  2
STANDARD
  9
$CMLJUST
 70
     0
  9
$CMLSCALE
 40
1.0
  9
$PROXYGRAPHICS
 70
     1
  9
$MEASUREMENT
 70
     0
  9
$CELWEIGHT
370
    -1
  9
$ENDCAPS
280
     0
  9
$JOINSTYLE
280
     0
  9
$LWDISPLAY
290
     0
  9
$INSUNITS
 70
     0
  9
$HYPERLINKBASE
  1

  9
$STYLESHEET
  1

  9
$XEDIT
290
     1
  9
$CEPSNTYPE
380
     0
  9
$PSTYLEMODE
290
     1
  9
$FINGERPRINTGUID
  2
{9FFF1F56-90A8-11D5-BE3F-00508B5FCD51}
  9
$VERSIONGUID
  2
{EF9B0366-CB02-4C55-AC85-5699F3A80181}
  9
$EXTNAMES
290
     1
  9
$PSVPSCALE
 40
0.0
  9
$OLESTARTUP
290
     0
  0
ENDSEC
  0
SECTION
  2
CLASSES
  0
CLASS
  1
DICTIONARYVAR
  2
AcDbDictionaryVar
  3
AutoCAD 2000
 90
        0
280
     0
281
     0
  0
CLASS
  1
LWPOLYLINE
  2
AcDbPolyline
  3
AutoCAD 2000
 90
        0
280
     0
281
     1
  0
CLASS
  1
ACDBDICTIONARYWDFLT
  2
AcDbDictionaryWithDefault
  3
AutoCAD 2000
 90
        0
280
     0
281
     0
  0
CLASS
  1
ACDBPLACEHOLDER
  2
AcDbPlaceHolder
  3
ObjectDBX Classes
 90
        0
280
     0
281
     0
  0
CLASS
  1
LAYOUT
  2
AcDbLayout
  3
ObjectDBX Classes
 90
        0
280
     0
281
     0
  0
CLASS
  1
LONG_TRANSACTION
  2
AcDbLongTransaction
  3
ObjectDBX Classes
 90
   -65536
280
     1
281
     0
  0
CLASS
  1
LWPOLYLINE
  2
AcDbPolyline
  3
AutoCAD 2000
 90
        0
280
     0
281
     1
  0
CLASS
  1
HATCH
  2
AcDbHatch
  3
AutoCAD 2000
 90
        0
280
     0
281
     1
  0
CLASS
  1
XRECORD
  2
AcDbXrecord
  3
AutoCAD 2000
 90
        0
280
     0
281
     0
  0
CLASS
  1
LONG_TRANSACTION
  2
AcDbLongTransaction
  3
ObjectDBX Classes
 90
   -65536
280
     1
281
     0
  0
CLASS
  1
LWPOLYLINE
  2
AcDbPolyline
  3
AutoCAD 2000
 90
        0
280
     0
281
     1
  0
CLASS
  1
HATCH
  2
AcDbHatch
  3
AutoCAD 2000
 90
        0
280
     0
281
     1
  0
CLASS
  1
XRECORD
  2
AcDbXrecord
  3
AutoCAD 2000
 90
        0
280
     0
281
     0
  0
CLASS
  1
LONG_TRANSACTION
  2
AcDbLongTransaction
  3
ObjectDBX Classes
 90
   -65536
280
     1
281
     0
  0
CLASS
  1
LWPOLYLINE
  2
AcDbPolyline
  3
AutoCAD 2000
 90
        0
280
     0
281
     1
  0
CLASS
  1
HATCH
  2
AcDbHatch
  3
AutoCAD 2000
 90
        0
280
     0
281
     1
  0
CLASS
  1
XRECORD
  2
AcDbXrecord
  3
AutoCAD 2000
 90
        0
280
     0
281
     0
  0
CLASS
  1
LONG_TRANSACTION
  2
AcDbLongTransaction
  3
ObjectDBX Classes
 90
   -65536
280
     1
281
     0
  0
CLASS
  1
LWPOLYLINE
  2
AcDbPolyline
  3
AutoCAD 2000
 90
        0
280
     0
281
     1
  0
CLASS
  1
HATCH
  2
AcDbHatch
  3
AutoCAD 2000
 90
        0
280
     0
281
     1
  0
CLASS
  1
XRECORD
  2
AcDbXrecord
  3
AutoCAD 2000
 90
        0
280
     0
281
     0
  0
CLASS
  1
LONG_TRANSACTION
  2
AcDbLongTransaction
  3
ObjectDBX Classes
 90
   -65536
280
     1
281
     0
  0
CLASS
  1
LWPOLYLINE
  2
AcDbPolyline
  3
AutoCAD 2000
 90
        0
280
     0
281
     1
  0
CLASS
  1
HATCH
  2
AcDbHatch
  3
AutoCAD 2000
 90
        0
280
     0
281
     1
  0
CLASS
  1
XRECORD
  2
AcDbXrecord
  3
AutoCAD 2000
 90
        0
280
     0
281
     0
  0
CLASS
  1
LONG_TRANSACTION
  2
AcDbLongTransaction
  3
ObjectDBX Classes
 90
   -65536
280
     1
281
     0
  0
CLASS
  1
LWPOLYLINE
  2
AcDbPolyline
  3
AutoCAD 2000
 90
        0
280
     0
281
     1
  0
CLASS
  1
HATCH
  2
AcDbHatch
  3
AutoCAD 2000
 90
        0
280
     0
281
     1
  0
CLASS
  1
XRECORD
  2
AcDbXrecord
  3
AutoCAD 2000
 90
        0
280
     0
281
     0
  0
CLASS
  1
LONG_TRANSACTION
  2
AcDbLongTransaction
  3
ObjectDBX Classes
 90
   -65536
280
     1
281
     0
  0
CLASS
  1
LWPOLYLINE
  2
AcDbPolyline
  3
AutoCAD 2000
 90
        0
280
     0
281
     1
  0
CLASS
  1
HATCH
  2
AcDbHatch
  3
AutoCAD 2000
 90
        0
280
     0
281
     1
  0
CLASS
  1
XRECORD
  2
AcDbXrecord
  3
AutoCAD 2000
 90
        0
280
     0
281
     0
  0
CLASS
  1
LONG_TRANSACTION
  2
AcDbLongTransaction
  3
ObjectDBX Classes
 90
   -65536
280
     1
281
     0
  0
CLASS
  1
LWPOLYLINE
  2
AcDbPolyline
  3
AutoCAD 2000
 90
        0
280
     0
281
     1
  0
CLASS
  1
HATCH
  2
AcDbHatch
  3
AutoCAD 2000
 90
        0
280
     0
281
     1
  0
CLASS
  1
XRECORD
  2
AcDbXrecord
  3
AutoCAD 2000
 90
        0
280
     0
281
     0
  0
CLASS
  1
TABLESTYLE
  2
AcDbTableStyle
  3
ObjectDBX Classes
 90
     2047
280
     1
281
     0
  0
CLASS
  1
SORTENTSTABLE
  2
AcDbSortentsTable
  3
AutoCAD 2000
 90
        0
280
     0
281
     0
  0
ENDSEC
  0
SECTION
  2
TABLES
  0
TABLE
  2
VPORT
  5
1D
330
0
100
AcDbSymbolTable
 70
     3
  0
VPORT
  5
675
330
1D
100
AcDbSymbolTableRecord
100
AcDbViewportTableRecord
  2
*Active
 70
     0
 10
0.0
 20
0.0
 11
1.0
 21
1.0
 12
13.46901120564735
 22
15.93261323141518
 13
0.0
 23
0.0
 14
0.063
 24
0.063
 15
0.25
 25
0.25
 16
0.0
 26
0.0
 36
1.0
 17
0.0
 27
0.0
 37
0.0
 40
32.53562310312185
 41
1.814583333333333
 42
50.0
 43
0.0
 44
0.0
 50
0.0
 51
0.0
 71
     0
 72
   100
 73
     1
 74
     0
 75
     0
 76
     0
 77
     0
 78
     0
281
     0
 65
     1
110
0.0
120
0.0
130
0.0
111
1.0
121
0.0
131
0.0
112
0.0
122
1.0
132
0.0
 79
     0
146
0.0
  0
ENDTAB
  0
TABLE
  2
LTYPE
  5
18
330
0
100
AcDbSymbolTable
 70
     3
  0
LTYPE
  5
19
330
18
100
AcDbSymbolTableRecord
100
AcDbLinetypeTableRecord
  2
BYBLOCK
 70
     0
  3

 72
    65
 73
     0
 40
0.0
  0
LTYPE
  5
1A
330
18
100
AcDbSymbolTableRecord
100
AcDbLinetypeTableRecord
  2
BYLAYER
 70
     0
  3

 72
    65
 73
     0
 40
0.0
  0
LTYPE
  5
A
330
18
100
AcDbSymbolTableRecord
100
AcDbLinetypeTableRecord
  2
CONTINUOUS
 70
     0
  3
Solid line
 72
    65
 73
     0
 40
0.0
  0
LTYPE
  5
14F
330
18
100
AcDbSymbolTableRecord
100
AcDbLinetypeTableRecord
  2
DASHED
 70
     0
  3
__ __ __ __ __ __ __ __ __ __ __ __ __ __ __
 72
    65
 73
     2
 40
0.75
 49
0.5
 74
     0
 49
-0.25
 74
     0
  0
ENDTAB
  0
TABLE
  2
LAYER
  5
14
330
0
100
AcDbSymbolTable
 70
     6
  0
LAYER
  5
6
330
14
100
AcDbSymbolTableRecord
100
AcDbLayerTableRecord
  2
0
 70
     0
 62
     7
  6
CONTINUOUS
370
    -3
390
7
  0
ENDTAB
  0
TABLE
  2
STYLE
  5
15
330
0
100
AcDbSymbolTable
 70
     1
  0
STYLE
  5
16
330
15
100
AcDbSymbolTableRecord
100
AcDbTextStyleTableRecord
  2
STANDARD
 70
     0
 40
0.0
 41
1.0
 50
0.0
 71
     0
 42
0.36
  3
TXT
  4

  0
ENDTAB
  0
TABLE
  2
VIEW
  5
1B
330
0
100
AcDbSymbolTable
 70
     0
  0
ENDTAB
  0
TABLE
  2
UCS
  5
1C
330
0
100
AcDbSymbolTable
 70
     0
  0
ENDTAB
  0
TABLE
  2
APPID
  5
1F
330
0
100
AcDbSymbolTable
 70
     1
  0
APPID
  5
20
330
1F
100
AcDbSymbolTableRecord
100
AcDbRegAppTableRecord
  2
ACAD
 70
     0
  0
ENDTAB
  0
TABLE
  2
DIMSTYLE
  5
21
330
0
100
AcDbSymbolTable
 70
     1
100
AcDbDimStyleTable
  0
DIMSTYLE
105
28
330
21
100
AcDbSymbolTableRecord
100
AcDbDimStyleTableRecord
  2
STANDARD
 70
     0
  3

  4

340
16
  0
ENDTAB
  0
TABLE
  2
BLOCK_RECORD
  5
1
330
0
100
AcDbSymbolTable
 70
     2
  0
BLOCK_RECORD
  5
2
102
{ACAD_XDICTIONARY
360
3
102
}
330
1
100
AcDbSymbolTableRecord
100
AcDbBlockTableRecord
  2
*MODEL_SPACE
340
C
  0
BLOCK_RECORD
  5
E
330
1
100
AcDbSymbolTableRecord
100
AcDbBlockTableRecord
  2
*PAPER_SPACE
340
13
  0
ENDTAB
  0
ENDSEC
  0
SECTION
  2
BLOCKS
  0
BLOCK
  5
5
330
2
100
AcDbEntity
  8
0
100
AcDbBlockBegin
  2
*MODEL_SPACE
 70
     0
 10
0.0
 20
0.0
 30
0.0
  3
*MODEL_SPACE
  1

  4

  0
ENDBLK
  5
B
330
2
100
AcDbEntity
  8
0
100
AcDbBlockEnd
  0
BLOCK
  5
11
330
E
100
AcDbEntity
 67
     1
  8
0
100
AcDbBlockBegin
  2
*PAPER_SPACE
 70
     0
 10
0.0
 20
0.0
 30
0.0
  3
*PAPER_SPACE
  1

  4

  0
ENDBLK
  5
12
330
E
100
AcDbEntity
 67
     1
  8
0
100
AcDbBlockEnd
  0
ENDSEC
  0
SECTION
  2
ENTITIES
  0
LINE
  5
1E6
330
2
100
AcDbEntity
  8
0
100
AcDbLine
 10
-2.931205293954953
 20
15.09755123186164
 30
0.0
 11
2.946134032895476
 21
15.09755123186163
 31
0.0
  0
LINE
  5
1E7
330
2
100
AcDbEntity
  8
0
100
AcDbLine
 10
-2.931205293954937
 20
19.09755123186165
 30
0.0
 11
2.946134032895493
 21
19.09755123186162
 31
0.0
  0
LINE
  5
1E8
330
2
100
AcDbEntity
  8
0
100
AcDbLine
 10
-3.617585442195242
 20
19.12880123186164
 30
0.0
 11
-3.617585442195239
 21
15.09755123186164
 31
0.0
  0
LINE
  5
1E9
330
2
100
AcDbEntity
  8
0
100
AcDbLine
 10
-3.711335442195241
 20
19.12880123186164
 30
0.0
 11
-3.711335442195241
 21
15.09755123186163
 31
0.0
  0
LINE
  5
1EA
330
2
100
AcDbEntity
  8
0
100
AcDbLine
 10
-3.711335442195242
 20
15.09755123186164
 30
0.0
 11
-3.428971607929803
 21
15.09755123186164
 31
0.0
  0
ARC
  5
1EB
330
2
100
AcDbEntity
  8
0
100
AcDbCircle
 10
-3.023838450942376
 20
15.099400700476
 30
0.0
 40
0.0926516179438437
100
AcDbArc
 50
358.8562122620253
 51
89.99999999999953
  0
LINE
  5
1EC
330
2
100
AcDbEntity
  8
0
100
AcDbLine
 10
-3.02383845094238
 20
15.19205231841985
 30
0.0
 11
-3.33633845094238
 21
15.19205231841985
 31
0.0
  0
ARC
  5
1ED
330
2
100
AcDbEntity
  8
0
100
AcDbCircle
 10
-3.33633845094238
 20
15.09940070047601
 30
0.0
 40
0.0926516179438437
100
AcDbArc
 50
89.99999999999953
 51
181.1437877379737
  0
LINE
  5
1EE
330
2
100
AcDbEntity
  8
0
100
AcDbLine
 10
-3.805085442195241
 20
19.22255123186164
 30
0.0
 11
-6.342922492921034
 21
19.22255123186164
 31
0.0
  0
LINE
  5
1EF
330
2
100
AcDbEntity
  8
0
100
AcDbLine
 10
-3.805085442195242
 20
19.31630123186164
 30
0.0
 11
-6.342922492921034
 21
19.31630123186164
 31
0.0
  0
LINE
  5
1F0
330
2
100
AcDbEntity
  8
0
100
AcDbLine
 10
-6.342922492921034
 20
19.31630123186164
 30
0.0
 11
-6.342922492921034
 21
19.22255123186164
 31
0.0
  0
LINE
  5
1F1
330
2
100
AcDbEntity
  8
0
100
AcDbLine
 10
-4.05476845244913
 20
18.42779814491889
 30
0.0
 11
-4.009333416047666
 21
18.38379479683805
 31
0.0
  0
LINE
  5
1F2
330
2
100
AcDbEntity
  8
0
100
AcDbLine
 10
-4.009333416047666
 20
18.38379479683805
 30
0.0
 11
-3.717922492921032
 21
18.51580484108055
 31
0.0
  0
LINE
  5
1F3
330
2
100
AcDbEntity
  8
0
100
AcDbLine
 10
-3.717922492921032
 20
18.58276645772529
 30
0.0
 11
-4.05476845244913
 21
18.42779814491889
 31
0.0
  0
LINE
  5
1F4
330
2
100
AcDbEntity
  8
0
100
AcDbLine
 10
-3.617585442195242
 20
19.09755123186166
 30
0.0
 11
-3.428971607929787
 21
19.09755123186166
 31
0.0
  0
ARC
  5
1F5
330
2
100
AcDbEntity
  8
0
100
AcDbCircle
 10
-3.805085442195242
 20
19.12880123186164
 30
0.0
 40
0.1875
100
AcDbArc
 50
0.0
 51
90.0
  0
ARC
  5
1F6
330
2
100
AcDbEntity
  8
0
100
AcDbCircle
 10
-3.805085442195241
 20
19.12880123186164
 30
0.0
 40
0.09375
100
AcDbArc
 50
0.0
 51
90.0
  0
ARC
  5
1F7
330
2
100
AcDbEntity
  8
0
100
AcDbCircle
 10
-3.02383845094236
 20
19.09570176324729
 30
0.0
 40
0.0926516179438437
100
AcDbArc
 50
270.0
 51
1.143787737974197
  0
ARC
  5
1F8
330
2
100
AcDbEntity
  8
0
100
AcDbCircle
 10
-3.336338450942364
 20
19.09570176324729
 30
0.0
 40
0.0926516179438437
100
AcDbArc
 50
178.8562122620258
 51
270.0
  0
LINE
  5
1F9
330
2
100
AcDbEntity
  8
0
100
AcDbLine
 10
-3.023838450942364
 20
19.00305014530345
 30
0.0
 11
-3.336338450942364
 21
19.00305014530345
 31
0.0
  0
LINE
  5
1FA
330
2
100
AcDbEntity
  8
0
100
AcDbLine
 10
0.0074643694702594
 20
16.09755123186163
 30
0.0
 11
0.1283796290531587
 21
16.21846649144453
 31
0.0
  0
LINE
  5
1FB
330
2
100
AcDbEntity
  8
0
100
AcDbLine
 10
0.0074643694702594
 20
16.09755123186163
 30
0.0
 11
-0.1134508901126399
 21
16.21846649144453
 31
0.0
  0
LINE
  5
1FC
330
2
100
AcDbEntity
  8
0
100
AcDbLine
 10
0.1283796290531587
 20
16.21846649144453
 30
0.0
 11
0.0074643694702594
 21
16.33938175102743
 31
0.0
  0
LINE
  5
1FD
330
2
100
AcDbEntity
  8
0
100
AcDbLine
 10
-0.1134508901126399
 20
16.21846649144453
 30
0.0
 11
0.0074643694702594
 21
16.33938175102743
 31
0.0
  0
LINE
  5
1FE
330
2
100
AcDbEntity
  8
0
100
AcDbLine
 10
3.632514181135839
 20
19.12880123186163
 30
0.0
 11
3.632514181135839
 21
15.09755123186163
 31
0.0
  0
LINE
  5
1FF
330
2
100
AcDbEntity
  8
0
100
AcDbLine
 10
3.726264181135839
 20
19.12880123186163
 30
0.0
 11
3.726264181135839
 21
15.09755123186163
 31
0.0
  0
LINE
  5
200
330
2
100
AcDbEntity
  8
0
100
AcDbLine
 10
3.038767189882904
 20
15.19205231841978
 30
0.0
 11
3.351267189882904
 21
15.19205231841978
 31
0.0
  0
ARC
  5
201
330
2
100
AcDbEntity
  8
0
100
AcDbCircle
 10
3.038767189882901
 20
15.09940070047594
 30
0.0
 40
0.0926516179438437
100
AcDbArc
 50
89.9999999999996
 51
181.1437877379738
  0
LINE
  5
202
330
2
100
AcDbEntity
  8
0
100
AcDbLine
 10
3.443900346870329
 20
15.09755123186163
 30
0.0
 11
3.726264181135839
 21
15.09755123186163
 31
0.0
  0
ARC
  5
203
330
2
100
AcDbEntity
  8
0
100
AcDbCircle
 10
3.351267189882904
 20
15.09940070047594
 30
0.0
 40
0.0926516179438437
100
AcDbArc
 50
358.8562122620254
 51
89.9999999999996
  0
LINE
  5
204
330
2
100
AcDbEntity
  8
0
100
AcDbLine
 10
3.820014181135839
 20
19.22255123186163
 30
0.0
 11
6.34467750707897
 21
19.22255123186163
 31
0.0
  0
LINE
  5
205
330
2
100
AcDbEntity
  8
0
100
AcDbLine
 10
3.820014181135839
 20
19.31630123186163
 30
0.0
 11
6.34467750707897
 21
19.31630123186163
 31
0.0
  0
LINE
  5
206
330
2
100
AcDbEntity
  8
0
100
AcDbLine
 10
3.739478986448972
 20
18.58276645772529
 30
0.0
 11
4.076324945977071
 21
18.42779814491889
 31
0.0
  0
LINE
  5
207
330
2
100
AcDbEntity
  8
0
100
AcDbLine
 10
4.030889909575606
 20
18.38379479683805
 30
0.0
 11
3.739478986448972
 21
18.51580484108055
 31
0.0
  0
LINE
  5
208
330
2
100
AcDbEntity
  8
0
100
AcDbLine
 10
4.076324945977071
 20
18.42779814491889
 30
0.0
 11
4.030889909575606
 21
18.38379479683805
 31
0.0
  0
LINE
  5
209
330
2
100
AcDbEntity
  8
0
100
AcDbLine
 10
3.038767189882922
 20
19.00305014530347
 30
0.0
 11
3.351267189882922
 21
19.00305014530347
 31
0.0
  0
ARC
  5
20A
330
2
100
AcDbEntity
  8
0
100
AcDbCircle
 10
3.038767189882918
 20
19.09570176324731
 30
0.0
 40
0.0926516179438437
100
AcDbArc
 50
178.8562122620257
 51
269.9999999999999
  0
ARC
  5
20B
330
2
100
AcDbEntity
  8
0
100
AcDbCircle
 10
3.820014181135839
 20
19.12880123186163
 30
0.0
 40
0.1875
100
AcDbArc
 50
90.0
 51
180.0
  0
ARC
  5
20C
330
2
100
AcDbEntity
  8
0
100
AcDbCircle
 10
3.820014181135839
 20
19.12880123186163
 30
0.0
 40
0.09375
100
AcDbArc
 50
90.0
 51
180.0
  0
LINE
  5
20D
330
2
100
AcDbEntity
  8
0
100
AcDbLine
 10
3.443900346870347
 20
19.09755123186162
 30
0.0
 11
3.632514181135839
 21
19.09755123186161
 31
0.0
  0
ARC
  5
20E
330
2
100
AcDbEntity
  8
0
100
AcDbCircle
 10
3.351267189882922
 20
19.09570176324731
 30
0.0
 40
0.0926516179438437
100
AcDbArc
 50
269.9999999999999
 51
1.143787737974131
  0
LINE
  5
20F
330
2
100
AcDbEntity
  8
0
100
AcDbLine
 10
6.34467750707897
 20
19.31630123186164
 30
0.0
 11
6.34467750707897
 21
19.22255123186163
 31
0.0
  0
LINE
  5
212
330
2
100
AcDbEntity
  8
0
100
AcDbLine
 10
13.55975979736962
 20
4.970585228390402
 30
0.0
 11
13.32048310207298
 21
4.731308533093763
 31
0.0
  0
LINE
  5
213
330
2
100
AcDbEntity
  8
0
  6
Continuous
100
AcDbLine
 10
14.96416652656802
 20
0.3608099917670344
 30
0.0
 11
14.96416652656802
 21
6.624999999999993
 31
0.0
  0
LINE
  5
214
330
2
100
AcDbEntity
  8
0
  6
Continuous
100
AcDbLine
 10
15.05791652656802
 20
0.4357542728370714
 30
0.0
 11
15.05791652656802
 21
10.62499999999999
 31
0.0
  0
LINE
  5
215
330
2
100
AcDbEntity
  8
0
100
AcDbLine
 10
12.33196848857759
 20
1.805293919598324
 30
0.0
 11
11.00354136383143
 21
0.4768667948521674
 31
0.0
  0
LINE
  5
216
330
2
100
AcDbEntity
  8
0
  6
DASHED
100
AcDbLine
 10
14.79149763717267
 20
0.0000000000000018
 30
0.0
 11
10.80169679886241
 21
0.0000000000000018
 31
0.0
  0
LINE
  5
217
330
2
100
AcDbEntity
  8
0
  6
Continuous
100
AcDbLine
 10
14.75618386711217
 20
-0.0937499999999982
 30
0.0
 11
10.78495424396293
 21
-0.0937499999999982
 31
0.0
  0
ARC
  5
218
330
2
100
AcDbEntity
  8
0
100
AcDbCircle
 10
11.53387144972133
 20
-0.0534632910377191
 30
0.0
 40
0.75
100
AcDbArc
 50
134.9999999999993
 51
183.0791598220299
  0
ARC
  5
219
330
2
100
AcDbEntity
  8
0
100
AcDbCircle
 10
10.0338714497213
 20
4.10339095845465
 30
0.0
 40
3.25
100
AcDbArc
 50
314.9999999999993
 51
0.0
  0
ARC
  5
21D
330
2
100
AcDbEntity
  8
0
100
AcDbCircle
 10
15.41128245609883
 20
-0.1163295214628821
 30
0.0
 40
0.6554876017758128
100
AcDbArc
 50
122.6216211627862
 51
178.0259469940233
  0
LINE
  5
221
330
2
100
AcDbEntity
  8
0
100
AcDbLine
 10
13.28387144972132
 20
4.10339095845465
 30
0.0
 11
13.28387144972132
 21
4.642920185445444
 31
0.0
  0
ARC
  5
222
330
2
100
AcDbEntity
  8
0
100
AcDbCircle
 10
13.4088714497213
 20
4.642920185445444
 30
0.0
 40
0.125
100
AcDbArc
 50
134.9999999999999
 51
180.0
  0
LINE
  5
22F
330
2
100
AcDbEntity
  8
0
100
AcDbLine
 10
13.32048310207298
 20
10.0330852283904
 30
0.0
 11
13.55975979736962
 21
9.793808533093763
 31
0.0
  0
LINE
  5
230
330
2
100
AcDbEntity
  8
0
100
AcDbLine
 10
14.96416652656802
 20
10.625
 30
0.0
 11
14.96416652656802
 21
6.324999999999992
 31
0.0
  0
LINE
  5
231
330
2
100
AcDbEntity
  8
0
100
AcDbLine
 10
13.5963714497213
 20
7.705420185445444
 30
0.0
 11
13.5963714497213
 21
7.058973576038721
 31
0.0
  0
LINE
  5
232
330
2
100
AcDbEntity
  8
0
100
AcDbLine
 10
13.55975979736962
 20
6.970585228390402
 30
0.0
 11
13.32048310207298
 21
6.731308533093763
 31
0.0
  0
LINE
  5
233
330
2
100
AcDbEntity
  8
0
100
AcDbLine
 10
13.32048310207298
 20
6.033085228390402
 30
0.0
 11
13.55975979736962
 21
5.793808533093763
 31
0.0
  0
LINE
  5
234
330
2
100
AcDbEntity
  8
0
100
AcDbLine
 10
13.2838714497213
 20
6.121473576038721
 30
0.0
 11
13.2838714497213
 21
6.624999999999996
 31
0.0
  0
LINE
  5
235
330
2
100
AcDbEntity
  8
0
100
AcDbLine
 10
13.2838714497213
 20
6.624999999999996
 30
0.0
 11
13.2838714497213
 21
6.121473319994447
 31
0.0
  0
ARC
  5
236
330
2
100
AcDbEntity
  8
0
100
AcDbCircle
 10
13.4088714497213
 20
6.121473576038721
 30
0.0
 40
0.125
100
AcDbArc
 50
180.0
 51
225.0000000000001
  0
ARC
  5
237
330
2
100
AcDbEntity
  8
0
100
AcDbCircle
 10
13.4088714497213
 20
6.642920185445444
 30
0.0
 40
0.125
100
AcDbArc
 50
134.9999999999999
 51
180.0
  0
LINE
  5
238
330
2
100
AcDbEntity
  8
0
100
AcDbLine
 10
13.5963714497213
 20
5.705420185445444
 30
0.0
 11
13.5963714497213
 21
5.058973576038721
 31
0.0
  0
ARC
  5
23A
330
2
100
AcDbEntity
  8
0
100
AcDbCircle
 10
13.4713714497213
 20
5.058973576038721
 30
0.0
 40
0.125
100
AcDbArc
 50
314.9999999999998
 51
0.0
  0
ARC
  5
23E
330
2
100
AcDbEntity
  8
0
100
AcDbCircle
 10
13.4713714497213
 20
5.705420185445444
 30
0.0
 40
0.125
100
AcDbArc
 50
0.0
 51
45.00000000000015
  0
ARC
  5
246
330
2
100
AcDbEntity
  8
0
100
AcDbCircle
 10
13.4713714497213
 20
7.058973576038721
 30
0.0
 40
0.125
100
AcDbArc
 50
314.9999999999998
 51
0.0
  0
LINE
  5
247
330
2
100
AcDbEntity
  8
0
100
AcDbLine
 10
13.55975979736962
 20
8.970585228390402
 30
0.0
 11
13.32048310207298
 21
8.731308533093763
 31
0.0
  0
LINE
  5
248
330
2
100
AcDbEntity
  8
0
100
AcDbLine
 10
13.32048310207298
 20
8.033085228390402
 30
0.0
 11
13.55975979736962
 21
7.793808533093763
 31
0.0
  0
ARC
  5
249
330
2
100
AcDbEntity
  8
0
100
AcDbCircle
 10
13.4088714497213
 20
8.121473576038721
 30
0.0
 40
0.125
100
AcDbArc
 50
180.0
 51
225.0000000000001
  0
LINE
  5
24A
330
2
100
AcDbEntity
  8
0
100
AcDbLine
 10
13.2838714497213
 20
8.624999999999996
 30
0.0
 11
13.2838714497213
 21
8.121473319994447
 31
0.0
  0
LINE
  5
24B
330
2
100
AcDbEntity
  8
0
100
AcDbLine
 10
13.2838714497213
 20
8.121473576038721
 30
0.0
 11
13.2838714497213
 21
8.624999999999996
 31
0.0
  0
LINE
  5
24C
330
2
100
AcDbEntity
  8
0
100
AcDbLine
 10
13.2838714497213
 20
8.624999999999996
 30
0.0
 11
13.2838714497213
 21
8.121473319994447
 31
0.0
  0
LINE
  5
24D
330
2
100
AcDbEntity
  8
0
100
AcDbLine
 10
13.2838714497213
 20
8.121473576038721
 30
0.0
 11
13.2838714497213
 21
8.624999999999996
 31
0.0
  0
ARC
  5
24E
330
2
100
AcDbEntity
  8
0
100
AcDbCircle
 10
13.4088714497213
 20
8.642920185445444
 30
0.0
 40
0.125
100
AcDbArc
 50
134.9999999999999
 51
180.0
  0
ARC
  5
254
330
2
100
AcDbEntity
  8
0
100
AcDbCircle
 10
13.4713714497213
 20
7.705420185445444
 30
0.0
 40
0.125
100
AcDbArc
 50
0.0
 51
45.00000000000015
  0
LINE
  5
255
330
2
100
AcDbEntity
  8
0
100
AcDbLine
 10
13.5963714497213
 20
9.705420185445444
 30
0.0
 11
13.5963714497213
 21
9.058973576038721
 31
0.0
  0
ARC
  5
25B
330
2
100
AcDbEntity
  8
0
100
AcDbCircle
 10
13.4713714497213
 20
9.058973576038721
 30
0.0
 40
0.125
100
AcDbArc
 50
314.9999999999998
 51
0.0
  0
ARC
  5
25E
330
2
100
AcDbEntity
  8
0
100
AcDbCircle
 10
13.4713714497213
 20
9.705420185445444
 30
0.0
 40
0.125
100
AcDbArc
 50
0.0
 51
45.00000000000015
  0
LINE
  5
25F
330
2
100
AcDbEntity
  8
0
100
AcDbLine
 10
13.2838714497213
 20
10.625
 30
0.0
 11
15.05791652656802
 21
10.625
 31
0.0
  0
LINE
  5
260
330
2
100
AcDbEntity
  8
0
100
AcDbLine
 10
13.2838714497213
 20
10.12147357603872
 30
0.0
 11
13.2838714497213
 21
10.625
 31
0.0
  0
LINE
  5
261
330
2
100
AcDbEntity
  8
0
100
AcDbLine
 10
13.2838714497213
 20
10.625
 30
0.0
 11
13.2838714497213
 21
10.12147331999445
 31
0.0
  0
ARC
  5
262
330
2
100
AcDbEntity
  8
0
100
AcDbCircle
 10
13.4088714497213
 20
10.12147357603872
 30
0.0
 40
0.125
100
AcDbArc
 50
180.0
 51
225.0000000000001
  0
ARC
  5
264
330
2
100
AcDbEntity
  8
0
100
AcDbCircle
 10
-4.29596418113583
 20
4.882923724782668
 30
0.0
 40
0.0855
100
AcDbArc
 50
270.0
 51
90.0
  0
LINE
  5
266
330
2
100
AcDbEntity
  8
0
100
AcDbLine
 10
-6.32185745193744
 20
4.978508953173066
 30
0.0
 11
-6.082580756640802
 21
4.739232257876427
 31
0.0
  0
ARC
  5
267
330
2
100
AcDbEntity
  8
0
100
AcDbCircle
 10
-4.42096418113583
 20
4.882923724782668
 30
0.0
 40
0.0855
100
AcDbArc
 50
90.0
 51
270.0
  0
LINE
  5
268
330
2
100
AcDbEntity
  8
0
100
AcDbLine
 10
6.321857451937433
 20
4.970585228390405
 30
0.0
 11
6.082580756640802
 21
4.73130853309377
 31
0.0
  0
ARC
  5
269
330
2
100
AcDbEntity
  8
0
100
AcDbCircle
 10
4.295964181135823
 20
4.875000000000007
 30
0.0
 40
0.0855
100
AcDbArc
 50
90.0
 51
270.0
  0
ARC
  5
26A
330
2
100
AcDbEntity
  8
0
100
AcDbCircle
 10
4.420964181135823
 20
4.875000000000007
 30
0.0
 40
0.0855
100
AcDbArc
 50
270.0
 51
90.0
  0
ARC
  5
26B
330
2
100
AcDbEntity
  8
0
100
AcDbCircle
 10
3.830007471616018
 20
4.887560614393678
 30
0.0
 40
0.1292554313189278
100
AcDbArc
 50
319.9646803214859
 51
42.82036873051739
  0
LINE
  5
26C
330
2
100
AcDbEntity
  8
0
100
AcDbLine
 10
3.726264181135839
 20
0.09375
 30
0.0
 11
3.726264181135836
 21
10.625
 31
0.0
  0
LINE
  5
26D
330
2
100
AcDbEntity
  8
0
100
AcDbLine
 10
-3.726264181135839
 20
0.09375
 30
0.0
 11
-3.726264181135839
 21
10.63292372478266
 31
0.0
  0
LINE
  5
26E
330
2
100
AcDbEntity
  8
0
100
AcDbLine
 10
3.632514181135839
 20
0.09375
 30
0.0
 11
3.632514181135836
 21
10.625
 31
0.0
  0
LINE
  5
26F
330
2
100
AcDbEntity
  8
0
100
AcDbLine
 10
-3.632514181135839
 20
0.09375
 30
0.0
 11
-3.632514181135839
 21
10.63292372478266
 31
0.0
  0
LINE
  5
270
330
2
100
AcDbEntity
  8
0
100
AcDbLine
 10
-3.538764181135839
 20
0.0
 30
0.0
 11
3.538764181135839
 21
0.0
 31
0.0
  0
LINE
  5
271
330
2
100
AcDbEntity
  8
0
100
AcDbLine
 10
-3.538764181135839
 20
-0.09375
 30
0.0
 11
3.538764181135839
 21
-0.09375
 31
0.0
  0
ARC
  5
272
330
2
100
AcDbEntity
  8
0
100
AcDbCircle
 10
-3.538764181135839
 20
0.09375
 30
0.0
 40
0.1875
100
AcDbArc
 50
180.0
 51
270.0
  0
CIRCLE
  5
274
330
2
100
AcDbEntity
  8
0
100
AcDbCircle
 10
-5.045964181135837
 20
2.382923724782661
 30
0.0
 40
0.0855
  0
ARC
  5
275
330
2
100
AcDbEntity
  8
0
100
AcDbCircle
 10
-2.795968898890799
 20
4.103390958454678
 30
0.0
 40
3.25
100
AcDbArc
 50
180.0
 51
225.0000000000007
  0
LINE
  5
276
330
2
100
AcDbEntity
  8
0
100
AcDbLine
 10
-5.110326871567175
 20
1.766408042375662
 30
0.0
 11
-3.729907682529067
 21
0.4113407831261853
 31
0.0
  0
ARC
  5
278
330
2
100
AcDbEntity
  8
0
100
AcDbCircle
 10
-3.538764181135839
 20
0.09375
 30
0.0
 40
0.09375
100
AcDbArc
 50
180.0
 51
269.9999999999998
  0
CIRCLE
  5
279
330
2
100
AcDbEntity
  8
0
100
AcDbCircle
 10
-4.48346418113583
 20
1.695423724782661
 30
0.0
 40
0.0855
  0
ARC
  5
27A
330
2
100
AcDbEntity
  8
0
100
AcDbCircle
 10
-3.830007471616014
 20
1.291958103333052
 30
0.0
 40
0.1292554313189278
100
AcDbArc
 50
137.1796312694826
 51
220.0353196785141
  0
LINE
  5
27B
330
2
100
AcDbEntity
  8
0
100
AcDbLine
 10
-3.924814815072068
 20
1.379813291866775
 30
0.0
 11
-3.737875057503757
 21
1.379813291866771
 31
0.0
  0
LINE
  5
27C
330
2
100
AcDbEntity
  8
0
100
AcDbLine
 10
-3.928971641150774
 20
1.208813291866775
 30
0.0
 11
-3.737875057503757
 21
1.208813291866775
 31
0.0
  0
ARC
  5
27D
330
2
100
AcDbEntity
  8
0
100
AcDbCircle
 10
-3.830007471616014
 20
2.28431424347415
 30
0.0
 40
0.1292554313189278
100
AcDbArc
 50
137.1796312694826
 51
220.0353196785141
  0
LINE
  5
27E
330
2
100
AcDbEntity
  8
0
100
AcDbLine
 10
-3.928971641150774
 20
2.201169432007873
 30
0.0
 11
-3.737875057503757
 21
2.201169432007873
 31
0.0
  0
LINE
  5
27F
330
2
100
AcDbEntity
  8
0
100
AcDbLine
 10
-3.924814815072068
 20
2.372169432007873
 30
0.0
 11
-3.737875057503757
 21
2.372169432007869
 31
0.0
  0
CIRCLE
  5
280
330
2
100
AcDbEntity
  8
0
100
AcDbCircle
 10
-4.874968898890977
 20
3.569746880742068
 30
0.0
 40
0.0855
  0
CIRCLE
  5
282
330
2
100
AcDbEntity
  8
0
100
AcDbCircle
 10
-5.358464181135837
 20
3.132923724782661
 30
0.0
 40
0.0855
  0
CIRCLE
  5
283
330
2
100
AcDbEntity
  8
0
100
AcDbCircle
 10
-5.795964181135837
 20
4.382923724782661
 30
0.0
 40
0.0855
  0
LINE
  5
284
330
2
100
AcDbEntity
  8
0
100
AcDbLine
 10
-6.045968898890799
 20
4.642920185445451
 30
0.0
 11
-6.045968898890799
 21
4.103390958454678
 31
0.0
  0
ARC
  5
285
330
2
100
AcDbEntity
  8
0
100
AcDbCircle
 10
-6.170969104289121
 20
4.650843910228108
 30
0.0
 40
0.125
100
AcDbArc
 50
0.0
 51
45.00000000000015
  0
CIRCLE
  5
286
330
2
100
AcDbEntity
  8
0
100
AcDbCircle
 10
-5.577214181135844
 20
3.757923724782661
 30
0.0
 40
0.0855
  0
CIRCLE
  5
288
330
2
100
AcDbEntity
  8
0
100
AcDbCircle
 10
-5.045964181135837
 20
4.132923724782661
 30
0.0
 40
0.0855
  0
LINE
  5
289
330
2
100
AcDbEntity
  8
0
100
AcDbLine
 10
-4.42096418113583
 20
2.794225111844725
 30
0.0
 11
-4.29596418113583
 21
2.794225111844725
 31
0.0
  0
LINE
  5
28A
330
2
100
AcDbEntity
  8
0
100
AcDbLine
 10
-4.42096418113583
 20
2.965225111844724
 30
0.0
 11
-4.29596418113583
 21
2.965225111844724
 31
0.0
  0
ARC
  5
28B
330
2
100
AcDbEntity
  8
0
100
AcDbCircle
 10
-4.29596418113583
 20
2.879725111844728
 30
0.0
 40
0.0855
100
AcDbArc
 50
270.0
 51
90.0
  0
ARC
  5
28E
330
2
100
AcDbEntity
  8
0
100
AcDbCircle
 10
-4.42096418113583
 20
2.879725111844728
 30
0.0
 40
0.0855
100
AcDbArc
 50
90.0
 51
270.0
  0
CIRCLE
  5
28F
330
2
100
AcDbEntity
  8
0
100
AcDbCircle
 10
-4.48346418113583
 20
3.382923724782661
 30
0.0
 40
0.0855
  0
ARC
  5
290
330
2
100
AcDbEntity
  8
0
100
AcDbCircle
 10
-3.830007471616014
 20
3.275935145064487
 30
0.0
 40
0.1292554313189278
100
AcDbArc
 50
137.1796312694826
 51
220.0353196785141
  0
LINE
  5
291
330
2
100
AcDbEntity
  8
0
100
AcDbLine
 10
-3.928971641150774
 20
3.192790333598211
 30
0.0
 11
-3.737875057503757
 21
3.192790333598211
 31
0.0
  0
LINE
  5
292
330
2
100
AcDbEntity
  8
0
100
AcDbLine
 10
-3.924814815072068
 20
3.363790333598208
 30
0.0
 11
-3.737875057503757
 21
3.363790333598207
 31
0.0
  0
ARC
  5
294
330
2
100
AcDbEntity
  8
0
100
AcDbCircle
 10
-3.830007471616014
 20
4.27020447425258
 30
0.0
 40
0.1292554313189278
100
AcDbArc
 50
137.1796312694826
 51
220.0353196785141
  0
LINE
  5
295
330
2
100
AcDbEntity
  8
0
100
AcDbLine
 10
-3.928971641150774
 20
4.1870596627863
 30
0.0
 11
-3.737875057503757
 21
4.1870596627863
 31
0.0
  0
LINE
  5
296
330
2
100
AcDbEntity
  8
0
100
AcDbLine
 10
-4.42096418113583
 20
4.797423724782664
 30
0.0
 11
-4.29596418113583
 21
4.797423724782664
 31
0.0
  0
ARC
  5
297
330
2
100
AcDbEntity
  8
0
100
AcDbCircle
 10
-4.29596418113583
 20
4.379725111844728
 30
0.0
 40
0.0855
100
AcDbArc
 50
270.0
 51
90.0
  0
LINE
  5
298
330
2
100
AcDbEntity
  8
0
100
AcDbLine
 10
-4.42096418113583
 20
4.465225111844724
 30
0.0
 11
-4.29596418113583
 21
4.465225111844724
 31
0.0
  0
LINE
  5
299
330
2
100
AcDbEntity
  8
0
100
AcDbLine
 10
-4.42096418113583
 20
4.294225111844725
 30
0.0
 11
-4.29596418113583
 21
4.294225111844725
 31
0.0
  0
ARC
  5
29B
330
2
100
AcDbEntity
  8
0
100
AcDbCircle
 10
-4.42096418113583
 20
4.379725111844728
 30
0.0
 40
0.0855
100
AcDbArc
 50
90.0
 51
270.0
  0
LINE
  5
29D
330
2
100
AcDbEntity
  8
0
100
AcDbLine
 10
-3.924814815072068
 20
4.3580596627863
 30
0.0
 11
-3.737875057503757
 21
4.358059662786298
 31
0.0
  0
ARC
  5
29E
330
2
100
AcDbEntity
  8
0
100
AcDbCircle
 10
3.538764181135839
 20
0.09375
 30
0.0
 40
0.1875
100
AcDbArc
 50
270.0
 51
0.0
  0
CIRCLE
  5
29F
330
2
100
AcDbEntity
  8
0
100
AcDbCircle
 10
5.045964181135837
 20
2.375000000000004
 30
0.0
 40
0.0855
  0
ARC
  5
2A0
330
2
100
AcDbEntity
  8
0
100
AcDbCircle
 10
2.795969104289128
 20
4.103390958454678
 30
0.0
 40
3.25
100
AcDbArc
 50
314.9999999999993
 51
0.0
  0
LINE
  5
2A1
330
2
100
AcDbEntity
  8
0
100
AcDbLine
 10
5.094066143145419
 20
1.80529391959835
 30
0.0
 11
3.726264181135832
 21
0.4374919575887777
 31
0.0
  0
ARC
  5
2A3
330
2
100
AcDbEntity
  8
0
100
AcDbCircle
 10
3.538764181135839
 20
0.09375
 30
0.0
 40
0.09375
100
AcDbArc
 50
270.0
 51
0.0
  0
LINE
  5
2A4
330
2
100
AcDbEntity
  8
0
100
AcDbLine
 10
3.924814815072068
 20
1.004813291866775
 30
0.0
 11
3.737875057503761
 21
1.004813291866771
 31
0.0
  0
LINE
  5
2A5
330
2
100
AcDbEntity
  8
0
100
AcDbLine
 10
3.928971641150778
 20
0.8338132918667753
 30
0.0
 11
3.737875057503761
 21
0.8338132918667753
 31
0.0
  0
ARC
  5
2A6
330
2
100
AcDbEntity
  8
0
100
AcDbCircle
 10
3.830007471616018
 20
0.9169581033330516
 30
0.0
 40
0.1292554313189278
100
AcDbArc
 50
319.9646803214859
 51
42.82036873051739
  0
LINE
  5
2A7
330
2
100
AcDbEntity
  8
0
100
AcDbLine
 10
3.924814815072068
 20
1.997169432007873
 30
0.0
 11
3.737875057503761
 21
1.997169432007869
 31
0.0
  0
LINE
  5
2A8
330
2
100
AcDbEntity
  8
0
100
AcDbLine
 10
3.928971641150778
 20
1.826169432007873
 30
0.0
 11
3.737875057503761
 21
1.826169432007873
 31
0.0
  0
ARC
  5
2A9
330
2
100
AcDbEntity
  8
0
100
AcDbCircle
 10
3.830007471616018
 20
1.90931424347415
 30
0.0
 40
0.1292554313189278
100
AcDbArc
 50
319.9646803214859
 51
42.82036873051739
  0
CIRCLE
  5
2AA
330
2
100
AcDbEntity
  8
0
100
AcDbCircle
 10
4.48346418113583
 20
1.6875
 30
0.0
 40
0.0855
  0
LINE
  5
2AB
330
2
100
AcDbEntity
  8
0
100
AcDbLine
 10
4.420964181135823
 20
4.789500000000007
 30
0.0
 11
4.295964181135823
 21
4.789500000000007
 31
0.0
  0
LINE
  5
2AC
330
2
100
AcDbEntity
  8
0
100
AcDbLine
 10
4.420964181135823
 20
4.286301387062068
 30
0.0
 11
4.295964181135823
 21
4.286301387062068
 31
0.0
  0
LINE
  5
2AD
330
2
100
AcDbEntity
  8
0
100
AcDbLine
 10
4.420964181135823
 20
4.457301387062067
 30
0.0
 11
4.295964181135823
 21
4.457301387062067
 31
0.0
  0
LINE
  5
2AE
330
2
100
AcDbEntity
  8
0
100
AcDbLine
 10
4.420964181135823
 20
2.957301387062067
 30
0.0
 11
4.295964181135823
 21
2.957301387062067
 31
0.0
  0
LINE
  5
2AF
330
2
100
AcDbEntity
  8
0
100
AcDbLine
 10
4.420964181135823
 20
2.786301387062068
 30
0.0
 11
4.295964181135823
 21
2.786301387062068
 31
0.0
  0
LINE
  5
2B0
330
2
100
AcDbEntity
  8
0
100
AcDbLine
 10
3.924814815072068
 20
2.98879033359821
 30
0.0
 11
3.737875057503761
 21
2.988790333598207
 31
0.0
  0
LINE
  5
2B1
330
2
100
AcDbEntity
  8
0
100
AcDbLine
 10
3.928971641150778
 20
2.817790333598211
 30
0.0
 11
3.737875057503761
 21
2.817790333598211
 31
0.0
  0
ARC
  5
2B2
330
2
100
AcDbEntity
  8
0
100
AcDbCircle
 10
4.295964181135823
 20
2.871801387062064
 30
0.0
 40
0.0855
100
AcDbArc
 50
90.0
 51
270.0
  0
ARC
  5
2B3
330
2
100
AcDbEntity
  8
0
100
AcDbCircle
 10
3.830007471616018
 20
2.900935145064487
 30
0.0
 40
0.1292554313189278
100
AcDbArc
 50
319.9646803214859
 51
42.82036873051739
  0
LINE
  5
2B4
330
2
100
AcDbEntity
  8
0
100
AcDbLine
 10
3.924814815072068
 20
3.9830596627863
 30
0.0
 11
3.737875057503761
 21
3.983059662786298
 31
0.0
  0
LINE
  5
2B5
330
2
100
AcDbEntity
  8
0
100
AcDbLine
 10
3.928971641150778
 20
3.8120596627863
 30
0.0
 11
3.737875057503761
 21
3.8120596627863
 31
0.0
  0
ARC
  5
2B6
330
2
100
AcDbEntity
  8
0
100
AcDbCircle
 10
3.830007471616018
 20
3.89520447425258
 30
0.0
 40
0.1292554313189278
100
AcDbArc
 50
319.9646803214859
 51
42.82036873051739
  0
LINE
  5
2B7
330
2
100
AcDbEntity
  8
0
100
AcDbLine
 10
3.928971641150778
 20
4.804415802927396
 30
0.0
 11
3.737875057503761
 21
4.804415802927396
 31
0.0
  0
ARC
  5
2B8
330
2
100
AcDbEntity
  8
0
100
AcDbCircle
 10
4.295964181135823
 20
4.371801387062064
 30
0.0
 40
0.0855
100
AcDbArc
 50
90.0
 51
270.0
  0
CIRCLE
  5
2B9
330
2
100
AcDbEntity
  8
0
100
AcDbCircle
 10
4.874969104289306
 20
3.56974688074207
 30
0.0
 40
0.0855
  0
ARC
  5
2BB
330
2
100
AcDbEntity
  8
0
100
AcDbCircle
 10
4.420964181135823
 20
2.871801387062064
 30
0.0
 40
0.0855
100
AcDbArc
 50
270.0
 51
90.0
  0
CIRCLE
  5
2BC
330
2
100
AcDbEntity
  8
0
100
AcDbCircle
 10
4.48346418113583
 20
3.375000000000004
 30
0.0
 40
0.0855
  0
CIRCLE
  5
2BD
330
2
100
AcDbEntity
  8
0
100
AcDbCircle
 10
5.358464181135837
 20
3.125000000000004
 30
0.0
 40
0.0855
  0
CIRCLE
  5
2BF
330
2
100
AcDbEntity
  8
0
100
AcDbCircle
 10
5.045964181135837
 20
4.125000000000004
 30
0.0
 40
0.0855
  0
ARC
  5
2C0
330
2
100
AcDbEntity
  8
0
100
AcDbCircle
 10
4.420964181135823
 20
4.371801387062064
 30
0.0
 40
0.0855
100
AcDbArc
 50
270.0
 51
90.0
  0
LINE
  5
2C2
330
2
100
AcDbEntity
  8
0
100
AcDbLine
 10
6.045969104289121
 20
4.103390958454678
 30
0.0
 11
6.045969104289121
 21
4.642920185445451
 31
0.0
  0
CIRCLE
  5
2C4
330
2
100
AcDbEntity
  8
0
100
AcDbCircle
 10
5.607532482361506
 20
3.757573843858282
 30
0.0
 40
0.0855
  0
ARC
  5
2C5
330
2
100
AcDbEntity
  8
0
100
AcDbCircle
 10
6.170969104289121
 20
4.642920185445451
 30
0.0
 40
0.125
100
AcDbArc
 50
134.9999999999999
 51
179.9999999999999
  0
CIRCLE
  5
2C6
330
2
100
AcDbEntity
  8
0
100
AcDbCircle
 10
5.795964181135837
 20
4.375000000000004
 30
0.0
 40
0.0855
  0
LINE
  5
2C8
330
2
100
AcDbEntity
  8
0
100
AcDbLine
 10
-6.082580756640802
 20
10.04100895317306
 30
0.0
 11
-6.32185745193744
 21
9.80173225787642
 31
0.0
  0
LINE
  5
2C9
330
2
100
AcDbEntity
  8
0
100
AcDbLine
 10
-3.726264181135839
 20
7.432923724782658
 30
0.0
 11
-3.726264181135839
 21
7.332923724782656
 31
0.0
  0
CIRCLE
  5
2CA
330
2
100
AcDbEntity
  8
0
100
AcDbCircle
 10
-6.108464181135837
 20
7.382923724782661
 30
0.0
 40
0.0855
  0
LINE
  5
2CB
330
2
100
AcDbEntity
  8
0
100
AcDbLine
 10
-6.358469104289121
 20
7.713343910228101
 30
0.0
 11
-6.358469104289121
 21
7.066897300821385
 31
0.0
  0
CIRCLE
  5
2CC
330
2
100
AcDbEntity
  8
0
100
AcDbCircle
 10
-5.045964181135837
 20
6.132923724782668
 30
0.0
 40
0.0855
  0
LINE
  5
2CD
330
2
100
AcDbEntity
  8
0
100
AcDbLine
 10
-6.045969104289121
 20
6.632923724782657
 30
0.0
 11
-6.045969104289121
 21
6.129397300821378
 31
0.0
  0
LINE
  5
2CE
330
2
100
AcDbEntity
  8
0
100
AcDbLine
 10
-6.045969104289121
 20
6.129397402433749
 30
0.0
 11
-6.045969104289121
 21
6.632923724782657
 31
0.0
  0
LINE
  5
2CF
330
2
100
AcDbEntity
  8
0
100
AcDbLine
 10
-6.358469104289121
 20
5.713343910228101
 30
0.0
 11
-6.358469104289121
 21
5.066897300821385
 31
0.0
  0
CIRCLE
  5
2D0
330
2
100
AcDbEntity
  8
0
100
AcDbCircle
 10
-6.108464181135837
 20
5.382923724782661
 30
0.0
 40
0.0855
  0
ARC
  5
2D1
330
2
100
AcDbEntity
  8
0
100
AcDbCircle
 10
-6.233469104289121
 20
5.066897300821385
 30
0.0
 40
0.125
100
AcDbArc
 50
180.0
 51
225.0000000000001
  0
ARC
  5
2D2
330
2
100
AcDbEntity
  8
0
100
AcDbCircle
 10
-6.170969104289121
 20
6.129397300821378
 30
0.0
 40
0.125
100
AcDbArc
 50
314.9999999999999
 51
0.0
  0
ARC
  5
2D3
330
2
100
AcDbEntity
  8
0
100
AcDbCircle
 10
-6.233469104289121
 20
5.713343910228101
 30
0.0
 40
0.125
100
AcDbArc
 50
134.9999999999998
 51
180.0
  0
LINE
  5
2D4
330
2
100
AcDbEntity
  8
0
100
AcDbLine
 10
-6.082580756640802
 20
6.041008953173058
 30
0.0
 11
-6.32185745193744
 21
5.80173225787642
 31
0.0
  0
CIRCLE
  5
2D5
330
2
100
AcDbEntity
  8
0
100
AcDbCircle
 10
-5.358464181135837
 20
5.132923724782661
 30
0.0
 40
0.0855
  0
CIRCLE
  5
2D6
330
2
100
AcDbEntity
  8
0
100
AcDbCircle
 10
-5.577214181135844
 20
5.757923724782661
 30
0.0
 40
0.0855
  0
CIRCLE
  5
2D7
330
2
100
AcDbEntity
  8
0
100
AcDbCircle
 10
-5.795964181135837
 20
6.382923724782668
 30
0.0
 40
0.0855
  0
LINE
  5
2D8
330
2
100
AcDbEntity
  8
0
100
AcDbLine
 10
-6.32185745193744
 20
6.978508953173066
 30
0.0
 11
-6.082580756640802
 21
6.739232257876427
 31
0.0
  0
ARC
  5
2D9
330
2
100
AcDbEntity
  8
0
100
AcDbCircle
 10
-6.170969104289121
 20
6.650843910228108
 30
0.0
 40
0.125
100
AcDbArc
 50
0.0
 51
45.00000000000015
  0
ARC
  5
2DA
330
2
100
AcDbEntity
  8
0
100
AcDbCircle
 10
-6.233469104289121
 20
7.066897300821385
 30
0.0
 40
0.125
100
AcDbArc
 50
180.0
 51
225.0000000000001
  0
CIRCLE
  5
2DB
330
2
100
AcDbEntity
  8
0
100
AcDbCircle
 10
-5.358464181135837
 20
7.132923724782661
 30
0.0
 40
0.0855
  0
CIRCLE
  5
2DD
330
2
100
AcDbEntity
  8
0
100
AcDbCircle
 10
-4.48346418113583
 20
5.507923724782661
 30
0.0
 40
0.0855
  0
LINE
  5
2DF
330
2
100
AcDbEntity
  8
0
100
AcDbLine
 10
-4.42096418113583
 20
4.968423724782664
 30
0.0
 11
-4.29596418113583
 21
4.968423724782664
 31
0.0
  0
ARC
  5
2E0
330
2
100
AcDbEntity
  8
0
100
AcDbCircle
 10
-3.830007471616014
 20
5.262560614393674
 30
0.0
 40
0.1292554313189278
100
AcDbArc
 50
137.1796312694826
 51
220.0353196785141
  0
LINE
  5
2E1
330
2
100
AcDbEntity
  8
0
100
AcDbLine
 10
-3.928971641150774
 20
5.179415802927395
 30
0.0
 11
-3.737875057503757
 21
5.179415802927395
 31
0.0
  0
LINE
  5
2E2
330
2
100
AcDbEntity
  8
0
100
AcDbLine
 10
-3.924814815072068
 20
5.350415802927397
 30
0.0
 11
-3.737875057503757
 21
5.350415802927394
 31
0.0
  0
ARC
  5
2E3
330
2
100
AcDbEntity
  8
0
100
AcDbCircle
 10
-4.29596418113583
 20
6.382923724782668
 30
0.0
 40
0.0855
100
AcDbArc
 50
270.0
 51
90.0
  0
LINE
  5
2E4
330
2
100
AcDbEntity
  8
0
100
AcDbLine
 10
-4.42096418113583
 20
6.468423724782664
 30
0.0
 11
-4.29596418113583
 21
6.468423724782664
 31
0.0
  0
LINE
  5
2E5
330
2
100
AcDbEntity
  8
0
100
AcDbLine
 10
-4.42096418113583
 20
6.297423724782664
 30
0.0
 11
-4.29596418113583
 21
6.297423724782664
 31
0.0
  0
ARC
  5
2E6
330
2
100
AcDbEntity
  8
0
100
AcDbCircle
 10
-4.42096418113583
 20
6.382923724782668
 30
0.0
 40
0.0855
100
AcDbArc
 50
90.0
 51
270.0
  0
LINE
  5
2E7
330
2
100
AcDbEntity
  8
0
100
AcDbLine
 10
-3.924814815072068
 20
6.350415802927397
 30
0.0
 11
-3.737875057503757
 21
6.350415802927394
 31
0.0
  0
LINE
  5
2E8
330
2
100
AcDbEntity
  8
0
100
AcDbLine
 10
-3.928971641150774
 20
6.179415802927395
 30
0.0
 11
-3.737875057503757
 21
6.179415802927395
 31
0.0
  0
ARC
  5
2E9
330
2
100
AcDbEntity
  8
0
100
AcDbCircle
 10
-3.830007471616014
 20
6.262560614393674
 30
0.0
 40
0.1292554313189278
100
AcDbArc
 50
137.1796312694826
 51
220.0353196785141
  0
LINE
  5
2EA
330
2
100
AcDbEntity
  8
0
100
AcDbLine
 10
-3.726264181135839
 20
6.432923724782658
 30
0.0
 11
-3.726264181135839
 21
6.332923724782656
 31
0.0
  0
ARC
  5
2EB
330
2
100
AcDbEntity
  8
0
100
AcDbCircle
 10
-3.830007471616014
 20
7.248450845172105
 30
0.0
 40
0.1292554313189278
100
AcDbArc
 50
137.1796312694826
 51
220.0353196785141
  0
LINE
  5
2EC
330
2
100
AcDbEntity
  8
0
100
AcDbLine
 10
-3.928971641150774
 20
7.165306033705829
 30
0.0
 11
-3.737875057503757
 21
7.165306033705829
 31
0.0
  0
LINE
  5
2ED
330
2
100
AcDbEntity
  8
0
100
AcDbLine
 10
-3.924814815072068
 20
7.336306033705828
 30
0.0
 11
-3.737875057503757
 21
7.336306033705824
 31
0.0
  0
CIRCLE
  5
2EE
330
2
100
AcDbEntity
  8
0
100
AcDbCircle
 10
-5.795964181135837
 20
8.382923724782668
 30
0.0
 40
0.0855
  0
LINE
  5
2EF
330
2
100
AcDbEntity
  8
0
100
AcDbLine
 10
-6.082580756640802
 20
8.041008953173058
 30
0.0
 11
-6.32185745193744
 21
7.80173225787642
 31
0.0
  0
ARC
  5
2F0
330
2
100
AcDbEntity
  8
0
100
AcDbCircle
 10
-6.233469104289121
 20
7.713343910228101
 30
0.0
 40
0.125
100
AcDbArc
 50
134.9999999999998
 51
180.0
  0
ARC
  5
2F1
330
2
100
AcDbEntity
  8
0
100
AcDbCircle
 10
-6.170969104289121
 20
8.129397300821378
 30
0.0
 40
0.125
100
AcDbArc
 50
314.9999999999999
 51
0.0
  0
LINE
  5
2F2
330
2
100
AcDbEntity
  8
0
100
AcDbLine
 10
-6.045969104289121
 20
8.129397402433749
 30
0.0
 11
-6.045969104289121
 21
8.632923724782657
 31
0.0
  0
LINE
  5
2F3
330
2
100
AcDbEntity
  8
0
100
AcDbLine
 10
-6.045969104289121
 20
8.632923724782657
 30
0.0
 11
-6.045969104289121
 21
8.129397300821378
 31
0.0
  0
LINE
  5
2F4
330
2
100
AcDbEntity
  8
0
100
AcDbLine
 10
-6.045969104289121
 20
8.129397402433749
 30
0.0
 11
-6.045969104289121
 21
8.632923724782657
 31
0.0
  0
LINE
  5
2F5
330
2
100
AcDbEntity
  8
0
100
AcDbLine
 10
-6.045969104289121
 20
8.632923724782657
 30
0.0
 11
-6.045969104289121
 21
8.129397300821378
 31
0.0
  0
LINE
  5
2F6
330
2
100
AcDbEntity
  8
0
100
AcDbLine
 10
-6.358469104289121
 20
9.713343910228101
 30
0.0
 11
-6.358469104289121
 21
9.066897300821385
 31
0.0
  0
ARC
  5
2F7
330
2
100
AcDbEntity
  8
0
100
AcDbCircle
 10
-6.233469104289121
 20
9.066897300821385
 30
0.0
 40
0.125
100
AcDbArc
 50
180.0
 51
225.0000000000001
  0
ARC
  5
2F8
330
2
100
AcDbEntity
  8
0
100
AcDbCircle
 10
-6.170969104289121
 20
8.650843910228108
 30
0.0
 40
0.125
100
AcDbArc
 50
0.0
 51
45.00000000000015
  0
LINE
  5
2F9
330
2
100
AcDbEntity
  8
0
100
AcDbLine
 10
-6.32185745193744
 20
8.978508953173066
 30
0.0
 11
-6.082580756640802
 21
8.739232257876427
 31
0.0
  0
ARC
  5
2FA
330
2
100
AcDbEntity
  8
0
100
AcDbCircle
 10
-6.233469104289121
 20
9.713343910228101
 30
0.0
 40
0.125
100
AcDbArc
 50
134.9999999999998
 51
180.0
  0
CIRCLE
  5
2FB
330
2
100
AcDbEntity
  8
0
100
AcDbCircle
 10
-6.108464181135837
 20
9.382923724782661
 30
0.0
 40
0.0855
  0
CIRCLE
  5
2FC
330
2
100
AcDbEntity
  8
0
100
AcDbCircle
 10
-5.358464181135837
 20
9.132923724782661
 30
0.0
 40
0.0855
  0
CIRCLE
  5
2FD
330
2
100
AcDbEntity
  8
0
100
AcDbCircle
 10
-4.48346418113583
 20
7.507923724782661
 30
0.0
 40
0.0855
  0
LINE
  5
2FE
330
2
100
AcDbEntity
  8
0
100
AcDbLine
 10
-4.42096418113583
 20
8.468423724782664
 30
0.0
 11
-4.29596418113583
 21
8.468423724782664
 31
0.0
  0
LINE
  5
2FF
330
2
100
AcDbEntity
  8
0
100
AcDbLine
 10
-4.42096418113583
 20
8.297423724782664
 30
0.0
 11
-4.29596418113583
 21
8.297423724782664
 31
0.0
  0
ARC
  5
300
330
2
100
AcDbEntity
  8
0
100
AcDbCircle
 10
-4.29596418113583
 20
8.382923724782668
 30
0.0
 40
0.0855
100
AcDbArc
 50
270.0
 51
90.0
  0
ARC
  5
301
330
2
100
AcDbEntity
  8
0
100
AcDbCircle
 10
-4.42096418113583
 20
8.382923724782668
 30
0.0
 40
0.0855
100
AcDbArc
 50
90.0
 51
270.0
  0
LINE
  5
302
330
2
100
AcDbEntity
  8
0
100
AcDbLine
 10
-3.924814815072068
 20
8.336306033705828
 30
0.0
 11
-3.737875057503757
 21
8.336306033705824
 31
0.0
  0
LINE
  5
303
330
2
100
AcDbEntity
  8
0
100
AcDbLine
 10
-3.928971641150774
 20
8.165306033705829
 30
0.0
 11
-3.737875057503757
 21
8.165306033705829
 31
0.0
  0
ARC
  5
304
330
2
100
AcDbEntity
  8
0
100
AcDbCircle
 10
-3.830007471616014
 20
8.248450845172105
 30
0.0
 40
0.1292554313189278
100
AcDbArc
 50
137.1796312694826
 51
220.0353196785141
  0
ARC
  5
305
330
2
100
AcDbEntity
  8
0
100
AcDbCircle
 10
-3.830007471616014
 20
9.248450845172105
 30
0.0
 40
0.1292554313189278
100
AcDbArc
 50
137.1796312694826
 51
220.0353196785141
  0
LINE
  5
306
330
2
100
AcDbEntity
  8
0
100
AcDbLine
 10
-3.928971641150774
 20
9.165306033705829
 30
0.0
 11
-3.737875057503757
 21
9.165306033705829
 31
0.0
  0
CIRCLE
  5
307
330
2
100
AcDbEntity
  8
0
100
AcDbCircle
 10
-4.48346418113583
 20
9.507923724782661
 30
0.0
 40
0.0855
  0
LINE
  5
308
330
2
100
AcDbEntity
  8
0
100
AcDbLine
 10
-3.924814815072068
 20
9.336306033705828
 30
0.0
 11
-3.737875057503757
 21
9.336306033705824
 31
0.0
  0
LINE
  5
309
330
2
100
AcDbEntity
  8
0
100
AcDbLine
 10
-3.632514181135839
 20
10.63292372478266
 30
0.0
 11
-6.045969104289121
 21
10.63292372478266
 31
0.0
  0
CIRCLE
  5
30A
330
2
100
AcDbEntity
  8
0
100
AcDbCircle
 10
-5.795964181135837
 20
10.38292372478267
 30
0.0
 40
0.0855
  0
LINE
  5
30B
330
2
100
AcDbEntity
  8
0
100
AcDbLine
 10
-6.045969104289121
 20
10.63292372478266
 30
0.0
 11
-6.045969104289121
 21
10.12939730082138
 31
0.0
  0
ARC
  5
30C
330
2
100
AcDbEntity
  8
0
100
AcDbCircle
 10
-6.170969104289121
 20
10.12939730082138
 30
0.0
 40
0.125
100
AcDbArc
 50
314.9999999999999
 51
0.0
  0
ARC
  5
30D
330
2
100
AcDbEntity
  8
0
100
AcDbCircle
 10
-4.29596418113583
 20
10.38292372478267
 30
0.0
 40
0.0855
100
AcDbArc
 50
270.0
 51
90.0
  0
LINE
  5
30E
330
2
100
AcDbEntity
  8
0
100
AcDbLine
 10
-4.42096418113583
 20
10.46842372478266
 30
0.0
 11
-4.29596418113583
 21
10.46842372478266
 31
0.0
  0
LINE
  5
30F
330
2
100
AcDbEntity
  8
0
100
AcDbLine
 10
-4.42096418113583
 20
10.29742372478266
 30
0.0
 11
-4.29596418113583
 21
10.29742372478266
 31
0.0
  0
ARC
  5
312
330
2
100
AcDbEntity
  8
0
100
AcDbCircle
 10
-4.42096418113583
 20
10.38292372478267
 30
0.0
 40
0.0855
100
AcDbArc
 50
90.0
 51
270.0
  0
LINE
  5
313
330
2
100
AcDbEntity
  8
0
100
AcDbLine
 10
-3.924814815072068
 20
10.33630603370583
 30
0.0
 11
-3.737875057503757
 21
10.33630603370582
 31
0.0
  0
LINE
  5
314
330
2
100
AcDbEntity
  8
0
100
AcDbLine
 10
-3.928971641150774
 20
10.16530603370583
 30
0.0
 11
-3.737875057503757
 21
10.16530603370583
 31
0.0
  0
ARC
  5
315
330
2
100
AcDbEntity
  8
0
100
AcDbCircle
 10
-3.830007471616014
 20
10.24845084517211
 30
0.0
 40
0.1292554313189278
100
AcDbArc
 50
137.1796312694826
 51
220.0353196785141
  0
ARC
  5
316
330
2
100
AcDbEntity
  8
0
100
AcDbCircle
 10
3.830007471616018
 20
9.873450845172105
 30
0.0
 40
0.1292554313189278
100
AcDbArc
 50
319.9646803214859
 51
42.82036873051739
  0
LINE
  5
317
330
2
100
AcDbEntity
  8
0
100
AcDbLine
 10
6.082580756640802
 20
10.0330852283904
 30
0.0
 11
6.321857451937433
 21
9.793808533093763
 31
0.0
  0
LINE
  5
318
330
2
100
AcDbEntity
  8
0
100
AcDbLine
 10
6.358469104289121
 20
7.705420185445444
 30
0.0
 11
6.358469104289121
 21
7.058973576038724
 31
0.0
  0
CIRCLE
  5
319
330
2
100
AcDbEntity
  8
0
100
AcDbCircle
 10
6.108464181135837
 20
7.375
 30
0.0
 40
0.0855
  0
LINE
  5
31A
330
2
100
AcDbEntity
  8
0
100
AcDbLine
 10
4.420964181135823
 20
6.289500000000007
 30
0.0
 11
4.295964181135823
 21
6.289500000000007
 31
0.0
  0
LINE
  5
31B
330
2
100
AcDbEntity
  8
0
100
AcDbLine
 10
4.420964181135823
 20
6.460500000000007
 30
0.0
 11
4.295964181135823
 21
6.460500000000007
 31
0.0
  0
LINE
  5
31D
330
2
100
AcDbEntity
  8
0
100
AcDbLine
 10
4.420964181135823
 20
4.960500000000007
 30
0.0
 11
4.295964181135823
 21
4.960500000000007
 31
0.0
  0
LINE
  5
31E
330
2
100
AcDbEntity
  8
0
100
AcDbLine
 10
3.924814815072068
 20
4.975415802927394
 30
0.0
 11
3.737875057503761
 21
4.975415802927394
 31
0.0
  0
LINE
  5
31F
330
2
100
AcDbEntity
  8
0
100
AcDbLine
 10
3.924814815072068
 20
5.975415802927394
 30
0.0
 11
3.737875057503761
 21
5.975415802927394
 31
0.0
  0
LINE
  5
320
330
2
100
AcDbEntity
  8
0
100
AcDbLine
 10
3.928971641150778
 20
5.804415802927395
 30
0.0
 11
3.737875057503761
 21
5.804415802927395
 31
0.0
  0
ARC
  5
321
330
2
100
AcDbEntity
  8
0
100
AcDbCircle
 10
3.830007471616018
 20
5.887560614393678
 30
0.0
 40
0.1292554313189278
100
AcDbArc
 50
319.9646803214859
 51
42.82036873051739
  0
ARC
  5
322
330
2
100
AcDbEntity
  8
0
100
AcDbCircle
 10
4.295964181135823
 20
6.375000000000007
 30
0.0
 40
0.0855
100
AcDbArc
 50
90.0
 51
270.0
  0
LINE
  5
323
330
2
100
AcDbEntity
  8
0
100
AcDbLine
 10
3.924814815072068
 20
6.961306033705828
 30
0.0
 11
3.737875057503761
 21
6.961306033705824
 31
0.0
  0
LINE
  5
324
330
2
100
AcDbEntity
  8
0
100
AcDbLine
 10
3.928971641150778
 20
6.790306033705829
 30
0.0
 11
3.737875057503761
 21
6.790306033705829
 31
0.0
  0
ARC
  5
325
330
2
100
AcDbEntity
  8
0
100
AcDbCircle
 10
3.830007471616018
 20
6.873450845172105
 30
0.0
 40
0.1292554313189278
100
AcDbArc
 50
319.9646803214859
 51
42.82036873051739
  0
CIRCLE
  5
326
330
2
100
AcDbEntity
  8
0
100
AcDbCircle
 10
5.04596418113583
 20
6.125000000000007
 30
0.0
 40
0.0855
  0
LINE
  5
328
330
2
100
AcDbEntity
  8
0
100
AcDbLine
 10
6.045969104289114
 20
6.121473677651093
 30
0.0
 11
6.045969104289114
 21
6.624999999999996
 31
0.0
  0
LINE
  5
329
330
2
100
AcDbEntity
  8
0
100
AcDbLine
 10
6.045969104289121
 20
6.642920185445451
 30
0.0
 11
6.045969104289121
 21
6.121473576038721
 31
0.0
  0
CIRCLE
  5
32B
330
2
100
AcDbEntity
  8
0
100
AcDbCircle
 10
4.48346418113583
 20
5.5
 30
0.0
 40
0.0855
  0
CIRCLE
  5
32C
330
2
100
AcDbEntity
  8
0
100
AcDbCircle
 10
5.358464181135837
 20
5.125
 30
0.0
 40
0.0855
  0
LINE
  5
330
330
2
100
AcDbEntity
  8
0
100
AcDbLine
 10
6.358469104289121
 20
5.705420185445444
 30
0.0
 11
6.358469104289121
 21
5.058973576038724
 31
0.0
  0
CIRCLE
  5
331
330
2
100
AcDbEntity
  8
0
100
AcDbCircle
 10
6.108464181135837
 20
5.375
 30
0.0
 40
0.0855
  0
ARC
  5
334
330
2
100
AcDbEntity
  8
0
100
AcDbCircle
 10
6.233469104289121
 20
5.058973576038724
 30
0.0
 40
0.125
100
AcDbArc
 50
314.9999999999998
 51
0.0
  0
ARC
  5
335
330
2
100
AcDbEntity
  8
0
100
AcDbCircle
 10
6.170969104289121
 20
6.121473576038721
 30
0.0
 40
0.125
100
AcDbArc
 50
179.9999999999999
 51
225.0000000000001
  0
CIRCLE
  5
336
330
2
100
AcDbEntity
  8
0
100
AcDbCircle
 10
5.607532482361506
 20
5.757573843858282
 30
0.0
 40
0.0855
  0
LINE
  5
338
330
2
100
AcDbEntity
  8
0
100
AcDbLine
 10
6.082580756640802
 20
6.033085228390402
 30
0.0
 11
6.321857451937433
 21
5.793808533093763
 31
0.0
  0
ARC
  5
339
330
2
100
AcDbEntity
  8
0
100
AcDbCircle
 10
6.233469104289121
 20
5.705420185445444
 30
0.0
 40
0.125
100
AcDbArc
 50
0.0
 51
45.00000000000015
  0
ARC
  5
33A
330
2
100
AcDbEntity
  8
0
100
AcDbCircle
 10
4.420964181135823
 20
6.375000000000007
 30
0.0
 40
0.0855
100
AcDbArc
 50
270.0
 51
90.0
  0
CIRCLE
  5
33C
330
2
100
AcDbEntity
  8
0
100
AcDbCircle
 10
5.358464181135837
 20
7.125
 30
0.0
 40
0.0855
  0
LINE
  5
33D
330
2
100
AcDbEntity
  8
0
100
AcDbLine
 10
6.321857451937433
 20
6.970585228390405
 30
0.0
 11
6.082580756640802
 21
6.73130853309377
 31
0.0
  0
ARC
  5
33E
330
2
100
AcDbEntity
  8
0
100
AcDbCircle
 10
6.170969104289121
 20
6.642920185445451
 30
0.0
 40
0.125
100
AcDbArc
 50
134.9999999999999
 51
179.9999999999999
  0
CIRCLE
  5
33F
330
2
100
AcDbEntity
  8
0
100
AcDbCircle
 10
5.79596418113583
 20
6.375000000000007
 30
0.0
 40
0.0855
  0
ARC
  5
342
330
2
100
AcDbEntity
  8
0
100
AcDbCircle
 10
6.233469104289121
 20
7.058973576038724
 30
0.0
 40
0.125
100
AcDbArc
 50
314.9999999999998
 51
0.0
  0
LINE
  5
343
330
2
100
AcDbEntity
  8
0
100
AcDbLine
 10
4.420964181135823
 20
8.460500000000007
 30
0.0
 11
4.295964181135823
 21
8.460500000000007
 31
0.0
  0
LINE
  5
344
330
2
100
AcDbEntity
  8
0
100
AcDbLine
 10
4.420964181135823
 20
8.289500000000007
 30
0.0
 11
4.295964181135823
 21
8.289500000000007
 31
0.0
  0
LINE
  5
345
330
2
100
AcDbEntity
  8
0
100
AcDbLine
 10
3.928971641150778
 20
7.790306033705829
 30
0.0
 11
3.737875057503761
 21
7.790306033705829
 31
0.0
  0
LINE
  5
346
330
2
100
AcDbEntity
  8
0
100
AcDbLine
 10
3.924814815072068
 20
7.961306033705828
 30
0.0
 11
3.737875057503761
 21
7.961306033705824
 31
0.0
  0
ARC
  5
347
330
2
100
AcDbEntity
  8
0
100
AcDbCircle
 10
3.830007471616018
 20
7.873450845172105
 30
0.0
 40
0.1292554313189278
100
AcDbArc
 50
319.9646803214859
 51
42.82036873051739
  0
ARC
  5
348
330
2
100
AcDbEntity
  8
0
100
AcDbCircle
 10
4.295964181135823
 20
8.375000000000007
 30
0.0
 40
0.0855
100
AcDbArc
 50
90.0
 51
270.0
  0
LINE
  5
349
330
2
100
AcDbEntity
  8
0
100
AcDbLine
 10
3.928971641150778
 20
8.790306033705829
 30
0.0
 11
3.737875057503761
 21
8.790306033705829
 31
0.0
  0
LINE
  5
34A
330
2
100
AcDbEntity
  8
0
100
AcDbLine
 10
3.924814815072068
 20
8.961306033705828
 30
0.0
 11
3.737875057503761
 21
8.961306033705824
 31
0.0
  0
ARC
  5
34B
330
2
100
AcDbEntity
  8
0
100
AcDbCircle
 10
3.830007471616018
 20
8.873450845172105
 30
0.0
 40
0.1292554313189278
100
AcDbArc
 50
319.9646803214859
 51
42.82036873051739
  0
LINE
  5
34C
330
2
100
AcDbEntity
  8
0
100
AcDbLine
 10
3.928971641150778
 20
9.790306033705829
 30
0.0
 11
3.737875057503761
 21
9.790306033705829
 31
0.0
  0
CIRCLE
  5
34D
330
2
100
AcDbEntity
  8
0
100
AcDbCircle
 10
4.48346418113583
 20
7.75
 30
0.0
 40
0.0855
  0
ARC
  5
34E
330
2
100
AcDbEntity
  8
0
100
AcDbCircle
 10
4.420964181135823
 20
8.375000000000007
 30
0.0
 40
0.0855
100
AcDbArc
 50
270.0
 51
90.0
  0
LINE
  5
34F
330
2
100
AcDbEntity
  8
0
100
AcDbLine
 10
6.082580756640802
 20
8.033085228390402
 30
0.0
 11
6.321857451937433
 21
7.793808533093763
 31
0.0
  0
ARC
  5
350
330
2
100
AcDbEntity
  8
0
100
AcDbCircle
 10
6.233469104289121
 20
7.705420185445444
 30
0.0
 40
0.125
100
AcDbArc
 50
0.0
 51
45.00000000000015
  0
ARC
  5
351
330
2
100
AcDbEntity
  8
0
100
AcDbCircle
 10
6.170969104289121
 20
8.121473576038721
 30
0.0
 40
0.125
100
AcDbArc
 50
179.9999999999999
 51
225.0000000000001
  0
CIRCLE
  5
352
330
2
100
AcDbEntity
  8
0
100
AcDbCircle
 10
5.79596418113583
 20
8.375000000000007
 30
0.0
 40
0.0855
  0
LINE
  5
353
330
2
100
AcDbEntity
  8
0
100
AcDbLine
 10
6.045969104289121
 20
8.624999999999996
 30
0.0
 11
6.045969104289121
 21
8.121473576038721
 31
0.0
  0
LINE
  5
354
330
2
100
AcDbEntity
  8
0
100
AcDbLine
 10
6.045969104289114
 20
8.121473677651093
 30
0.0
 11
6.045969104289114
 21
8.624999999999996
 31
0.0
  0
LINE
  5
355
330
2
100
AcDbEntity
  8
0
100
AcDbLine
 10
6.045969104289121
 20
8.624999999999996
 30
0.0
 11
6.045969104289121
 21
8.121473576038721
 31
0.0
  0
LINE
  5
356
330
2
100
AcDbEntity
  8
0
100
AcDbLine
 10
6.045969104289114
 20
8.121473677651093
 30
0.0
 11
6.045969104289121
 21
8.642920185445451
 31
0.0
  0
CIRCLE
  5
357
330
2
100
AcDbEntity
  8
0
100
AcDbCircle
 10
5.358464181135837
 20
9.125
 30
0.0
 40
0.0855
  0
CIRCLE
  5
35B
330
2
100
AcDbEntity
  8
0
100
AcDbCircle
 10
4.48346418113583
 20
9.625
 30
0.0
 40
0.0855
  0
LINE
  5
35D
330
2
100
AcDbEntity
  8
0
100
AcDbLine
 10
6.358469104289121
 20
9.705420185445444
 30
0.0
 11
6.358469104289121
 21
9.058973576038724
 31
0.0
  0
ARC
  5
35F
330
2
100
AcDbEntity
  8
0
100
AcDbCircle
 10
6.170969104289121
 20
8.642920185445451
 30
0.0
 40
0.125
100
AcDbArc
 50
134.9999999999999
 51
179.9999999999999
  0
LINE
  5
360
330
2
100
AcDbEntity
  8
0
100
AcDbLine
 10
6.321857451937433
 20
8.970585228390405
 30
0.0
 11
6.082580756640802
 21
8.73130853309377
 31
0.0
  0
ARC
  5
361
330
2
100
AcDbEntity
  8
0
100
AcDbCircle
 10
6.233469104289121
 20
9.058973576038724
 30
0.0
 40
0.125
100
AcDbArc
 50
314.9999999999998
 51
0.0
  0
CIRCLE
  5
362
330
2
100
AcDbEntity
  8
0
100
AcDbCircle
 10
6.108464181135837
 20
9.375
 30
0.0
 40
0.0855
  0
ARC
  5
364
330
2
100
AcDbEntity
  8
0
100
AcDbCircle
 10
6.233469104289121
 20
9.705420185445444
 30
0.0
 40
0.125
100
AcDbArc
 50
0.0
 51
45.00000000000015
  0
LINE
  5
365
330
2
100
AcDbEntity
  8
0
100
AcDbLine
 10
4.420964181135823
 20
10.28950000000001
 30
0.0
 11
4.295964181135823
 21
10.28950000000001
 31
0.0
  0
LINE
  5
366
330
2
100
AcDbEntity
  8
0
100
AcDbLine
 10
4.420964181135823
 20
10.46050000000001
 30
0.0
 11
4.295964181135823
 21
10.46050000000001
 31
0.0
  0
LINE
  5
368
330
2
100
AcDbEntity
  8
0
100
AcDbLine
 10
3.632514181135832
 20
10.625
 30
0.0
 11
6.045969104289114
 21
10.625
 31
0.0
  0
LINE
  5
369
330
2
100
AcDbEntity
  8
0
100
AcDbLine
 10
3.924814815072068
 20
9.961306033705828
 30
0.0
 11
3.737875057503761
 21
9.961306033705824
 31
0.0
  0
ARC
  5
36A
330
2
100
AcDbEntity
  8
0
100
AcDbCircle
 10
4.295964181135823
 20
10.37500000000001
 30
0.0
 40
0.0855
100
AcDbArc
 50
90.0
 51
270.0
  0
ARC
  5
36B
330
2
100
AcDbEntity
  8
0
100
AcDbCircle
 10
4.420964181135823
 20
10.37500000000001
 30
0.0
 40
0.0855
100
AcDbArc
 50
270.0
 51
90.0
  0
LINE
  5
36D
330
2
100
AcDbEntity
  8
0
100
AcDbLine
 10
6.045969104289114
 20
10.12147367765109
 30
0.0
 11
6.045969104289114
 21
10.625
 31
0.0
  0
LINE
  5
36E
330
2
100
AcDbEntity
  8
0
100
AcDbLine
 10
6.045969104289121
 20
10.625
 30
0.0
 11
6.045969104289121
 21
10.12147357603872
 31
0.0
  0
ARC
  5
36F
330
2
100
AcDbEntity
  8
0
100
AcDbCircle
 10
6.170969104289121
 20
10.12147357603872
 30
0.0
 40
0.125
100
AcDbArc
 50
179.9999999999999
 51
225.0000000000001
  0
CIRCLE
  5
371
330
2
100
AcDbEntity
  8
0
100
AcDbCircle
 10
5.79596418113583
 20
10.37500000000001
 30
0.0
 40
0.0855
  0
LINE
  5
599
330
2
100
AcDbEntity
  8
0
100
AcDbLine
 10
14.23066652656803
 20
2.95316936849445
 30
0.0
 11
14.23066652656803
 21
2.803542975433238
 31
0.0
  0
ARC
  5
59A
330
2
100
AcDbEntity
  8
0
100
AcDbCircle
 10
14.05842087881757
 20
2.874999999999645
 30
0.0
 40
0.0855
100
AcDbArc
 50
89.99983493434672
 51
270.0001650656533
  0
ARC
  5
59B
330
2
100
AcDbEntity
  8
0
100
AcDbCircle
 10
14.07878830892858
 20
2.874999999999645
 30
0.0
 40
0.0855
100
AcDbArc
 50
89.99983493434672
 51
270.0001650656533
  0
ARC
  5
59C
330
2
100
AcDbEntity
  8
0
100
AcDbCircle
 10
14.02666652656802
 20
2.875
 30
0.0
 40
0.0855
100
AcDbArc
 50
90.0
 51
270.0
  0
LINE
  5
59D
330
2
100
AcDbEntity
  8
0
100
AcDbLine
 10
14.02666652656802
 20
2.7895
 30
0.0
 11
14.21416652656802
 21
2.7895
 31
0.0
  0
LINE
  5
59F
330
2
100
AcDbEntity
  8
0
100
AcDbLine
 10
14.02666652656802
 20
2.9605
 30
0.0
 11
14.21416652656802
 21
2.9605
 31
0.0
  0
LINE
  5
5A0
330
2
100
AcDbEntity
  8
0
100
AcDbLine
 10
14.23066652656803
 20
3.952687535223113
 30
0.0
 11
14.23066652656803
 21
3.803061142161901
 31
0.0
  0
ARC
  5
5A1
330
2
100
AcDbEntity
  8
0
100
AcDbCircle
 10
14.08348848510805
 20
3.874999999999645
 30
0.0
 40
0.0855
100
AcDbArc
 50
89.99983493434672
 51
270.0001650656533
  0
ARC
  5
5A2
330
2
100
AcDbEntity
  8
0
100
AcDbCircle
 10
14.06312105499704
 20
3.874999999999645
 30
0.0
 40
0.0855
100
AcDbArc
 50
89.99983493434672
 51
270.0001650656533
  0
ARC
  5
5A3
330
2
100
AcDbEntity
  8
0
100
AcDbCircle
 10
14.02666652656802
 20
3.875
 30
0.0
 40
0.0855
100
AcDbArc
 50
90.0
 51
270.0
  0
LINE
  5
5A4
330
2
100
AcDbEntity
  8
0
100
AcDbLine
 10
14.02666652656802
 20
3.9605
 30
0.0
 11
14.21416652656802
 21
3.9605
 31
0.0
  0
LINE
  5
5A5
330
2
100
AcDbEntity
  8
0
100
AcDbLine
 10
14.02666652656802
 20
3.7895
 30
0.0
 11
14.21416652656802
 21
3.7895
 31
0.0
  0
ARC
  5
5A6
330
2
100
AcDbEntity
  8
0
100
AcDbCircle
 10
14.06312105499713
 20
4.875000000000359
 30
0.0
 40
0.0855
100
AcDbArc
 50
89.99983493434672
 51
270.0001650656533
  0
ARC
  5
5A7
330
2
100
AcDbEntity
  8
0
100
AcDbCircle
 10
14.08348848510813
 20
4.875000000000359
 30
0.0
 40
0.0855
100
AcDbArc
 50
89.99983493434672
 51
270.0001650656533
  0
LINE
  5
5A8
330
2
100
AcDbEntity
  8
0
100
AcDbLine
 10
14.23066652656803
 20
4.936735662197435
 30
0.0
 11
14.23066652656803
 21
4.787109269136224
 31
0.0
  0
ARC
  5
5A9
330
2
100
AcDbEntity
  8
0
100
AcDbCircle
 10
14.02666652656802
 20
4.875
 30
0.0
 40
0.0855
100
AcDbArc
 50
90.0
 51
270.0
  0
LINE
  5
5AA
330
2
100
AcDbEntity
  8
0
100
AcDbLine
 10
14.02666652656802
 20
4.960500000000003
 30
0.0
 11
14.21416652656802
 21
4.960500000000003
 31
0.0
  0
LINE
  5
5AB
330
2
100
AcDbEntity
  8
0
100
AcDbLine
 10
14.02666652656802
 20
4.789500000000004
 30
0.0
 11
14.21416652656802
 21
4.789500000000004
 31
0.0
  0
LINE
  5
5AC
330
2
100
AcDbEntity
  8
0
100
AcDbLine
 10
14.23066652656803
 20
5.952687535223113
 30
0.0
 11
14.23066652656803
 21
5.803061142161901
 31
0.0
  0
ARC
  5
5AD
330
2
100
AcDbEntity
  8
0
100
AcDbCircle
 10
14.02666652656802
 20
5.875
 30
0.0
 40
0.0855
100
AcDbArc
 50
89.99983493434672
 51
270.0001650656533
  0
LINE
  5
5AE
330
2
100
AcDbEntity
  8
0
100
AcDbLine
 10
14.02666652656802
 20
5.960499999999996
 30
0.0
 11
14.23066652656803
 21
5.960499999999996
 31
0.0
  0
LINE
  5
5AF
330
2
100
AcDbEntity
  8
0
100
AcDbLine
 10
14.02666652656802
 20
5.789499999999997
 30
0.0
 11
14.23066652656803
 21
5.789499999999997
 31
0.0
  0
ARC
  5
5B0
330
2
100
AcDbEntity
  8
0
100
AcDbCircle
 10
14.08576785533843
 20
5.875
 30
0.0
 40
0.0855
100
AcDbArc
 50
89.99983493434672
 51
270.0001650656533
  0
ARC
  5
5B1
330
2
100
AcDbEntity
  8
0
100
AcDbCircle
 10
14.06540042522742
 20
5.875
 30
0.0
 40
0.0855
100
AcDbArc
 50
89.99983493434672
 51
270.0001650656533
  0
ARC
  5
5B2
330
2
100
AcDbEntity
  8
0
100
AcDbCircle
 10
14.02666652656802
 20
5.875
 30
0.0
 40
0.0855
100
AcDbArc
 50
90.0
 51
270.0
  0
LINE
  5
5B3
330
2
100
AcDbEntity
  8
0
100
AcDbLine
 10
14.02666652656802
 20
5.960500000000003
 30
0.0
 11
14.21416652656802
 21
5.960500000000003
 31
0.0
  0
LINE
  5
5B4
330
2
100
AcDbEntity
  8
0
100
AcDbLine
 10
14.02666652656802
 20
5.789500000000004
 30
0.0
 11
14.21416652656802
 21
5.789500000000004
 31
0.0
  0
LINE
  5
5B9
330
2
100
AcDbEntity
  8
0
100
AcDbLine
 10
14.23066652656803
 20
6.952687535223109
 30
0.0
 11
14.23066652656803
 21
6.803061142161898
 31
0.0
  0
ARC
  5
5BA
330
2
100
AcDbEntity
  8
0
100
AcDbCircle
 10
14.02666652656802
 20
6.874999999999996
 30
0.0
 40
0.0855
100
AcDbArc
 50
90.0
 51
270.0
  0
LINE
  5
5BB
330
2
100
AcDbEntity
  8
0
100
AcDbLine
 10
14.02666652656802
 20
6.7895
 30
0.0
 11
14.21416652656802
 21
6.7895
 31
0.0
  0
LINE
  5
5BC
330
2
100
AcDbEntity
  8
0
100
AcDbLine
 10
14.02666652656802
 20
6.9605
 30
0.0
 11
14.21416652656802
 21
6.9605
 31
0.0
  0
ARC
  5
5BD
330
2
100
AcDbEntity
  8
0
100
AcDbCircle
 10
14.06540042522742
 20
6.874999999999996
 30
0.0
 40
0.0855
100
AcDbArc
 50
89.99983493434672
 51
270.0001650656533
  0
ARC
  5
5BE
330
2
100
AcDbEntity
  8
0
100
AcDbCircle
 10
14.08576785533843
 20
6.874999999999996
 30
0.0
 40
0.0855
100
AcDbArc
 50
89.99983493434672
 51
270.0001650656533
  0
LINE
  5
5BF
330
2
100
AcDbEntity
  8
0
100
AcDbLine
 10
14.02666652656802
 20
6.789499999999993
 30
0.0
 11
14.23066652656803
 21
6.789499999999993
 31
0.0
  0
LINE
  5
5C0
330
2
100
AcDbEntity
  8
0
100
AcDbLine
 10
14.02666652656802
 20
6.960499999999993
 30
0.0
 11
14.23066652656803
 21
6.960499999999993
 31
0.0
  0
ARC
  5
5C1
330
2
100
AcDbEntity
  8
0
100
AcDbCircle
 10
14.02666652656802
 20
6.874999999999996
 30
0.0
 40
0.0855
100
AcDbArc
 50
89.99983493434672
 51
270.0001650656533
  0
ARC
  5
5C8
330
2
100
AcDbEntity
  8
0
100
AcDbCircle
 10
14.02666652656802
 20
7.874999999999996
 30
0.0
 40
0.0855
100
AcDbArc
 50
89.99983493434672
 51
270.0001650656533
  0
LINE
  5
5C9
330
2
100
AcDbEntity
  8
0
100
AcDbLine
 10
14.02666652656802
 20
7.960499999999993
 30
0.0
 11
14.23066652656803
 21
7.960499999999993
 31
0.0
  0
LINE
  5
5CA
330
2
100
AcDbEntity
  8
0
100
AcDbLine
 10
14.02666652656802
 20
7.789499999999993
 30
0.0
 11
14.23066652656803
 21
7.789499999999993
 31
0.0
  0
ARC
  5
5CB
330
2
100
AcDbEntity
  8
0
100
AcDbCircle
 10
14.08576785533843
 20
7.874999999999996
 30
0.0
 40
0.0855
100
AcDbArc
 50
89.99983493434672
 51
270.0001650656533
  0
ARC
  5
5CC
330
2
100
AcDbEntity
  8
0
100
AcDbCircle
 10
14.06540042522742
 20
7.874999999999996
 30
0.0
 40
0.0855
100
AcDbArc
 50
89.99983493434672
 51
270.0001650656533
  0
LINE
  5
5CD
330
2
100
AcDbEntity
  8
0
100
AcDbLine
 10
14.02666652656802
 20
7.9605
 30
0.0
 11
14.21416652656802
 21
7.9605
 31
0.0
  0
LINE
  5
5CE
330
2
100
AcDbEntity
  8
0
100
AcDbLine
 10
14.02666652656802
 20
7.7895
 30
0.0
 11
14.21416652656802
 21
7.7895
 31
0.0
  0
ARC
  5
5CF
330
2
100
AcDbEntity
  8
0
100
AcDbCircle
 10
14.02666652656802
 20
7.874999999999996
 30
0.0
 40
0.0855
100
AcDbArc
 50
90.0
 51
270.0
  0
LINE
  5
5D0
330
2
100
AcDbEntity
  8
0
100
AcDbLine
 10
14.23066652656803
 20
7.952687535223109
 30
0.0
 11
14.23066652656803
 21
7.803061142161898
 31
0.0
  0
LINE
  5
5D5
330
2
100
AcDbEntity
  8
0
100
AcDbLine
 10
14.02666652656802
 20
8.789499999999993
 30
0.0
 11
14.23066652656803
 21
8.789499999999993
 31
0.0
  0
ARC
  5
5D6
330
2
100
AcDbEntity
  8
0
100
AcDbCircle
 10
14.08576785533843
 20
8.874999999999996
 30
0.0
 40
0.0855
100
AcDbArc
 50
89.99983493434672
 51
270.0001650656533
  0
ARC
  5
5D7
330
2
100
AcDbEntity
  8
0
100
AcDbCircle
 10
14.06540042522742
 20
8.874999999999996
 30
0.0
 40
0.0855
100
AcDbArc
 50
89.99983493434672
 51
270.0001650656533
  0
LINE
  5
5D8
330
2
100
AcDbEntity
  8
0
100
AcDbLine
 10
14.02666652656802
 20
8.9605
 30
0.0
 11
14.21416652656802
 21
8.9605
 31
0.0
  0
LINE
  5
5D9
330
2
100
AcDbEntity
  8
0
100
AcDbLine
 10
14.02666652656802
 20
8.7895
 30
0.0
 11
14.21416652656802
 21
8.7895
 31
0.0
  0
ARC
  5
5DA
330
2
100
AcDbEntity
  8
0
100
AcDbCircle
 10
14.02666652656802
 20
8.874999999999996
 30
0.0
 40
0.0855
100
AcDbArc
 50
90.0
 51
270.0
  0
LINE
  5
5DB
330
2
100
AcDbEntity
  8
0
100
AcDbLine
 10
14.23066652656803
 20
8.952687535223109
 30
0.0
 11
14.23066652656803
 21
8.803061142161898
 31
0.0
  0
LINE
  5
5DC
330
2
100
AcDbEntity
  8
0
100
AcDbLine
 10
14.23066652656803
 20
9.952687535223109
 30
0.0
 11
14.23066652656803
 21
9.803061142161898
 31
0.0
  0
ARC
  5
5DD
330
2
100
AcDbEntity
  8
0
100
AcDbCircle
 10
14.02666652656802
 20
9.874999999999996
 30
0.0
 40
0.0855
100
AcDbArc
 50
90.0
 51
270.0
  0
ARC
  5
5DE
330
2
100
AcDbEntity
  8
0
100
AcDbCircle
 10
14.06540042522742
 20
9.874999999999996
 30
0.0
 40
0.0855
100
AcDbArc
 50
89.99983493434672
 51
270.0001650656533
  0
ARC
  5
5DF
330
2
100
AcDbEntity
  8
0
100
AcDbCircle
 10
14.08576785533843
 20
9.874999999999996
 30
0.0
 40
0.0855
100
AcDbArc
 50
89.99983493434672
 51
270.0001650656533
  0
LINE
  5
5E3
330
2
100
AcDbEntity
  8
0
100
AcDbLine
 10
14.02666652656802
 20
9.7895
 30
0.0
 11
14.21416652656802
 21
9.7895
 31
0.0
  0
LINE
  5
5E4
330
2
100
AcDbEntity
  8
0
100
AcDbLine
 10
14.02666652656802
 20
9.789499999999993
 30
0.0
 11
14.23066652656803
 21
9.789499999999993
 31
0.0
  0
LINE
  5
5E6
330
2
100
AcDbEntity
  8
0
100
AcDbLine
 10
14.02666652656802
 20
9.9605
 30
0.0
 11
14.21416652656802
 21
9.9605
 31
0.0
  0
LINE
  5
5EE
330
2
100
AcDbEntity
  8
0
100
AcDbLine
 10
14.23066652656803
 20
0.9696030747914648
 30
0.0
 11
14.23066652656803
 21
0.8199766817302532
 31
0.0
  0
ARC
  5
5EF
330
2
100
AcDbEntity
  8
0
100
AcDbCircle
 10
14.05842087881757
 20
0.8914337062966595
 30
0.0
 40
0.0855
100
AcDbArc
 50
89.99983493434672
 51
270.0001650656533
  0
ARC
  5
5F0
330
2
100
AcDbEntity
  8
0
100
AcDbCircle
 10
14.07878830892858
 20
0.8914337062966595
 30
0.0
 40
0.0855
100
AcDbArc
 50
89.99983493434672
 51
270.0001650656533
  0
ARC
  5
5F1
330
2
100
AcDbEntity
  8
0
100
AcDbCircle
 10
14.02666652656802
 20
0.8914337062970148
 30
0.0
 40
0.0855
100
AcDbArc
 50
90.0
 51
270.0
  0
LINE
  5
5F2
330
2
100
AcDbEntity
  8
0
100
AcDbLine
 10
14.02666652656802
 20
0.8059337062970151
 30
0.0
 11
14.21416652656802
 21
0.8059337062970151
 31
0.0
  0
LINE
  5
5F3
330
2
100
AcDbEntity
  8
0
100
AcDbLine
 10
14.02666652656802
 20
0.9769337062970145
 30
0.0
 11
14.21416652656802
 21
0.9769337062970145
 31
0.0
  0
LINE
  5
5F4
330
2
100
AcDbEntity
  8
0
100
AcDbLine
 10
14.23066652656803
 20
1.969121241520128
 30
0.0
 11
14.23066652656803
 21
1.819494848458916
 31
0.0
  0
ARC
  5
5F5
330
2
100
AcDbEntity
  8
0
100
AcDbCircle
 10
14.08348848510805
 20
1.89143370629666
 30
0.0
 40
0.0855
100
AcDbArc
 50
89.99983493434672
 51
270.0001650656533
  0
ARC
  5
5F6
330
2
100
AcDbEntity
  8
0
100
AcDbCircle
 10
14.06312105499704
 20
1.89143370629666
 30
0.0
 40
0.0855
100
AcDbArc
 50
89.99983493434672
 51
270.0001650656533
  0
ARC
  5
5F7
330
2
100
AcDbEntity
  8
0
100
AcDbCircle
 10
14.02666652656802
 20
1.891433706297015
 30
0.0
 40
0.0855
100
AcDbArc
 50
90.0
 51
270.0
  0
LINE
  5
5F8
330
2
100
AcDbEntity
  8
0
100
AcDbLine
 10
14.02666652656802
 20
1.976933706297015
 30
0.0
 11
14.21416652656802
 21
1.976933706297015
 31
0.0
  0
LINE
  5
5F9
330
2
100
AcDbEntity
  8
0
100
AcDbLine
 10
14.02666652656802
 20
1.805933706297015
 30
0.0
 11
14.21416652656802
 21
1.805933706297015
 31
0.0
  0
LINE
  5
5FB
330
2
100
AcDbEntity
  8
0
100
AcDbLine
 10
-13.55975979736962
 20
4.970585228390402
 30
0.0
 11
-13.32048310207298
 21
4.731308533093763
 31
0.0
  0
LINE
  5
5FC
330
2
100
AcDbEntity
  8
0
  6
Continuous
100
AcDbLine
 10
-14.96416652656802
 20
0.3608099917670344
 30
0.0
 11
-14.96416652656802
 21
6.624999999999993
 31
0.0
  0
LINE
  5
5FD
330
2
100
AcDbEntity
  8
0
  6
Continuous
100
AcDbLine
 10
-15.05791652656802
 20
0.4357542728370714
 30
0.0
 11
-15.05791652656802
 21
10.62499999999999
 31
0.0
  0
LINE
  5
5FE
330
2
100
AcDbEntity
  8
0
100
AcDbLine
 10
-12.33196848857759
 20
1.805293919598324
 30
0.0
 11
-11.00354136383143
 21
0.4768667948521674
 31
0.0
  0
LINE
  5
5FF
330
2
100
AcDbEntity
  8
0
  6
DASHED
100
AcDbLine
 10
-14.79149763717267
 20
0.0000000000000018
 30
0.0
 11
-10.80169679886241
 21
0.0000000000000018
 31
0.0
  0
LINE
  5
600
330
2
100
AcDbEntity
  8
0
  6
Continuous
100
AcDbLine
 10
-14.75618386711217
 20
-0.0937499999999982
 30
0.0
 11
-10.78495424396293
 21
-0.0937499999999982
 31
0.0
  0
ARC
  5
601
330
2
100
AcDbEntity
  8
0
100
AcDbCircle
 10
-11.53387144972133
 20
-0.0534632910377191
 30
0.0
 40
0.75
100
AcDbArc
 50
356.92084017797
 51
45.00000000000071
  0
ARC
  5
602
330
2
100
AcDbEntity
  8
0
100
AcDbCircle
 10
-10.0338714497213
 20
4.10339095845465
 30
0.0
 40
3.25
100
AcDbArc
 50
180.0
 51
225.0000000000007
  0
ARC
  5
603
330
2
100
AcDbEntity
  8
0
100
AcDbCircle
 10
-15.41128245609883
 20
-0.1163295214628821
 30
0.0
 40
0.6554876017758128
100
AcDbArc
 50
1.974053005976702
 51
57.37837883721382
  0
LINE
  5
604
330
2
100
AcDbEntity
  8
0
100
AcDbLine
 10
-13.28387144972132
 20
4.10339095845465
 30
0.0
 11
-13.28387144972132
 21
4.642920185445444
 31
0.0
  0
ARC
  5
605
330
2
100
AcDbEntity
  8
0
100
AcDbCircle
 10
-13.4088714497213
 20
4.642920185445444
 30
0.0
 40
0.125
100
AcDbArc
 50
0.000000000000007
 51
45.00000000000016
  0
LINE
  5
606
330
2
100
AcDbEntity
  8
0
100
AcDbLine
 10
-13.32048310207298
 20
10.0330852283904
 30
0.0
 11
-13.55975979736962
 21
9.793808533093763
 31
0.0
  0
LINE
  5
607
330
2
100
AcDbEntity
  8
0
100
AcDbLine
 10
-14.96416652656802
 20
10.625
 30
0.0
 11
-14.96416652656802
 21
6.324999999999992
 31
0.0
  0
LINE
  5
608
330
2
100
AcDbEntity
  8
0
100
AcDbLine
 10
-13.5963714497213
 20
7.705420185445444
 30
0.0
 11
-13.5963714497213
 21
7.058973576038721
 31
0.0
  0
LINE
  5
609
330
2
100
AcDbEntity
  8
0
100
AcDbLine
 10
-13.55975979736962
 20
6.970585228390402
 30
0.0
 11
-13.32048310207298
 21
6.731308533093763
 31
0.0
  0
LINE
  5
60A
330
2
100
AcDbEntity
  8
0
100
AcDbLine
 10
-13.32048310207298
 20
6.033085228390402
 30
0.0
 11
-13.55975979736962
 21
5.793808533093763
 31
0.0
  0
LINE
  5
60B
330
2
100
AcDbEntity
  8
0
100
AcDbLine
 10
-13.2838714497213
 20
6.121473576038721
 30
0.0
 11
-13.2838714497213
 21
6.624999999999996
 31
0.0
  0
LINE
  5
60C
330
2
100
AcDbEntity
  8
0
100
AcDbLine
 10
-13.2838714497213
 20
6.624999999999996
 30
0.0
 11
-13.2838714497213
 21
6.121473319994447
 31
0.0
  0
ARC
  5
60D
330
2
100
AcDbEntity
  8
0
100
AcDbCircle
 10
-13.4088714497213
 20
6.121473576038721
 30
0.0
 40
0.125
100
AcDbArc
 50
314.9999999999999
 51
0.000000000000007
  0
ARC
  5
60E
330
2
100
AcDbEntity
  8
0
100
AcDbCircle
 10
-13.4088714497213
 20
6.642920185445444
 30
0.0
 40
0.125
100
AcDbArc
 50
0.000000000000007
 51
45.00000000000016
  0
LINE
  5
60F
330
2
100
AcDbEntity
  8
0
100
AcDbLine
 10
-13.5963714497213
 20
5.705420185445444
 30
0.0
 11
-13.5963714497213
 21
5.058973576038721
 31
0.0
  0
ARC
  5
610
330
2
100
AcDbEntity
  8
0
100
AcDbCircle
 10
-13.4713714497213
 20
5.058973576038721
 30
0.0
 40
0.125
100
AcDbArc
 50
180.0
 51
225.0000000000001
  0
ARC
  5
611
330
2
100
AcDbEntity
  8
0
100
AcDbCircle
 10
-13.4713714497213
 20
5.705420185445444
 30
0.0
 40
0.125
100
AcDbArc
 50
134.9999999999999
 51
180.0
  0
ARC
  5
612
330
2
100
AcDbEntity
  8
0
100
AcDbCircle
 10
-13.4713714497213
 20
7.058973576038721
 30
0.0
 40
0.125
100
AcDbArc
 50
180.0
 51
225.0000000000001
  0
LINE
  5
613
330
2
100
AcDbEntity
  8
0
100
AcDbLine
 10
-13.55975979736962
 20
8.970585228390402
 30
0.0
 11
-13.32048310207298
 21
8.731308533093763
 31
0.0
  0
LINE
  5
614
330
2
100
AcDbEntity
  8
0
100
AcDbLine
 10
-13.32048310207298
 20
8.033085228390402
 30
0.0
 11
-13.55975979736962
 21
7.793808533093763
 31
0.0
  0
ARC
  5
615
330
2
100
AcDbEntity
  8
0
100
AcDbCircle
 10
-13.4088714497213
 20
8.121473576038721
 30
0.0
 40
0.125
100
AcDbArc
 50
314.9999999999999
 51
0.000000000000007
  0
LINE
  5
616
330
2
100
AcDbEntity
  8
0
100
AcDbLine
 10
-13.2838714497213
 20
8.624999999999996
 30
0.0
 11
-13.2838714497213
 21
8.121473319994447
 31
0.0
  0
LINE
  5
617
330
2
100
AcDbEntity
  8
0
100
AcDbLine
 10
-13.2838714497213
 20
8.121473576038721
 30
0.0
 11
-13.2838714497213
 21
8.624999999999996
 31
0.0
  0
LINE
  5
618
330
2
100
AcDbEntity
  8
0
100
AcDbLine
 10
-13.2838714497213
 20
8.624999999999996
 30
0.0
 11
-13.2838714497213
 21
8.121473319994447
 31
0.0
  0
LINE
  5
619
330
2
100
AcDbEntity
  8
0
100
AcDbLine
 10
-13.2838714497213
 20
8.121473576038721
 30
0.0
 11
-13.2838714497213
 21
8.624999999999996
 31
0.0
  0
ARC
  5
61A
330
2
100
AcDbEntity
  8
0
100
AcDbCircle
 10
-13.4088714497213
 20
8.642920185445444
 30
0.0
 40
0.125
100
AcDbArc
 50
0.000000000000007
 51
45.00000000000016
  0
ARC
  5
61B
330
2
100
AcDbEntity
  8
0
100
AcDbCircle
 10
-13.4713714497213
 20
7.705420185445444
 30
0.0
 40
0.125
100
AcDbArc
 50
134.9999999999999
 51
180.0
  0
LINE
  5
61C
330
2
100
AcDbEntity
  8
0
100
AcDbLine
 10
-13.5963714497213
 20
9.705420185445444
 30
0.0
 11
-13.5963714497213
 21
9.058973576038721
 31
0.0
  0
ARC
  5
61D
330
2
100
AcDbEntity
  8
0
100
AcDbCircle
 10
-13.4713714497213
 20
9.058973576038721
 30
0.0
 40
0.125
100
AcDbArc
 50
180.0
 51
225.0000000000001
  0
ARC
  5
61E
330
2
100
AcDbEntity
  8
0
100
AcDbCircle
 10
-13.4713714497213
 20
9.705420185445444
 30
0.0
 40
0.125
100
AcDbArc
 50
134.9999999999999
 51
180.0
  0
LINE
  5
61F
330
2
100
AcDbEntity
  8
0
100
AcDbLine
 10
-13.2838714497213
 20
10.625
 30
0.0
 11
-15.05791652656802
 21
10.625
 31
0.0
  0
LINE
  5
620
330
2
100
AcDbEntity
  8
0
100
AcDbLine
 10
-13.2838714497213
 20
10.12147357603872
 30
0.0
 11
-13.2838714497213
 21
10.625
 31
0.0
  0
LINE
  5
621
330
2
100
AcDbEntity
  8
0
100
AcDbLine
 10
-13.2838714497213
 20
10.625
 30
0.0
 11
-13.2838714497213
 21
10.12147331999445
 31
0.0
  0
ARC
  5
622
330
2
100
AcDbEntity
  8
0
100
AcDbCircle
 10
-13.4088714497213
 20
10.12147357603872
 30
0.0
 40
0.125
100
AcDbArc
 50
314.9999999999999
 51
0.000000000000007
  0
LINE
  5
623
330
2
100
AcDbEntity
  8
0
100
AcDbLine
 10
-14.23066652656803
 20
2.95316936849445
 30
0.0
 11
-14.23066652656803
 21
2.803542975433238
 31
0.0
  0
ARC
  5
624
330
2
100
AcDbEntity
  8
0
100
AcDbCircle
 10
-14.05842087881757
 20
2.874999999999645
 30
0.0
 40
0.0855
100
AcDbArc
 50
269.9998349343467
 51
90.00016506565328
  0
ARC
  5
625
330
2
100
AcDbEntity
  8
0
100
AcDbCircle
 10
-14.07878830892858
 20
2.874999999999645
 30
0.0
 40
0.0855
100
AcDbArc
 50
269.9998349343467
 51
90.00016506565328
  0
ARC
  5
626
330
2
100
AcDbEntity
  8
0
100
AcDbCircle
 10
-14.02666652656802
 20
2.875
 30
0.0
 40
0.0855
100
AcDbArc
 50
270.0
 51
90.0
  0
LINE
  5
627
330
2
100
AcDbEntity
  8
0
100
AcDbLine
 10
-14.02666652656802
 20
2.7895
 30
0.0
 11
-14.21416652656802
 21
2.7895
 31
0.0
  0
LINE
  5
628
330
2
100
AcDbEntity
  8
0
100
AcDbLine
 10
-14.02666652656802
 20
2.9605
 30
0.0
 11
-14.21416652656802
 21
2.9605
 31
0.0
  0
LINE
  5
629
330
2
100
AcDbEntity
  8
0
100
AcDbLine
 10
-14.23066652656803
 20
3.952687535223113
 30
0.0
 11
-14.23066652656803
 21
3.803061142161901
 31
0.0
  0
ARC
  5
62A
330
2
100
AcDbEntity
  8
0
100
AcDbCircle
 10
-14.08348848510805
 20
3.874999999999645
 30
0.0
 40
0.0855
100
AcDbArc
 50
269.9998349343467
 51
90.00016506565328
  0
ARC
  5
62B
330
2
100
AcDbEntity
  8
0
100
AcDbCircle
 10
-14.06312105499704
 20
3.874999999999645
 30
0.0
 40
0.0855
100
AcDbArc
 50
269.9998349343467
 51
90.00016506565328
  0
ARC
  5
62C
330
2
100
AcDbEntity
  8
0
100
AcDbCircle
 10
-14.02666652656802
 20
3.875
 30
0.0
 40
0.0855
100
AcDbArc
 50
270.0
 51
90.0
  0
LINE
  5
62D
330
2
100
AcDbEntity
  8
0
100
AcDbLine
 10
-14.02666652656802
 20
3.9605
 30
0.0
 11
-14.21416652656802
 21
3.9605
 31
0.0
  0
LINE
  5
62E
330
2
100
AcDbEntity
  8
0
100
AcDbLine
 10
-14.02666652656802
 20
3.7895
 30
0.0
 11
-14.21416652656802
 21
3.7895
 31
0.0
  0
ARC
  5
62F
330
2
100
AcDbEntity
  8
0
100
AcDbCircle
 10
-14.06312105499713
 20
4.875000000000359
 30
0.0
 40
0.0855
100
AcDbArc
 50
269.9998349343467
 51
90.00016506565328
  0
ARC
  5
630
330
2
100
AcDbEntity
  8
0
100
AcDbCircle
 10
-14.08348848510813
 20
4.875000000000359
 30
0.0
 40
0.0855
100
AcDbArc
 50
269.9998349343467
 51
90.00016506565328
  0
LINE
  5
631
330
2
100
AcDbEntity
  8
0
100
AcDbLine
 10
-14.23066652656803
 20
4.936735662197435
 30
0.0
 11
-14.23066652656803
 21
4.787109269136224
 31
0.0
  0
ARC
  5
632
330
2
100
AcDbEntity
  8
0
100
AcDbCircle
 10
-14.02666652656802
 20
4.875
 30
0.0
 40
0.0855
100
AcDbArc
 50
270.0
 51
90.0
  0
LINE
  5
633
330
2
100
AcDbEntity
  8
0
100
AcDbLine
 10
-14.02666652656802
 20
4.960500000000003
 30
0.0
 11
-14.21416652656802
 21
4.960500000000003
 31
0.0
  0
LINE
  5
634
330
2
100
AcDbEntity
  8
0
100
AcDbLine
 10
-14.02666652656802
 20
4.789500000000004
 30
0.0
 11
-14.21416652656802
 21
4.789500000000004
 31
0.0
  0
LINE
  5
635
330
2
100
AcDbEntity
  8
0
100
AcDbLine
 10
-14.23066652656803
 20
5.952687535223113
 30
0.0
 11
-14.23066652656803
 21
5.803061142161901
 31
0.0
  0
ARC
  5
636
330
2
100
AcDbEntity
  8
0
100
AcDbCircle
 10
-14.02666652656802
 20
5.875
 30
0.0
 40
0.0855
100
AcDbArc
 50
269.9998349343467
 51
90.00016506565328
  0
LINE
  5
637
330
2
100
AcDbEntity
  8
0
100
AcDbLine
 10
-14.02666652656802
 20
5.960499999999996
 30
0.0
 11
-14.23066652656803
 21
5.960499999999996
 31
0.0
  0
LINE
  5
638
330
2
100
AcDbEntity
  8
0
100
AcDbLine
 10
-14.02666652656802
 20
5.789499999999997
 30
0.0
 11
-14.23066652656803
 21
5.789499999999997
 31
0.0
  0
ARC
  5
639
330
2
100
AcDbEntity
  8
0
100
AcDbCircle
 10
-14.08576785533843
 20
5.875
 30
0.0
 40
0.0855
100
AcDbArc
 50
269.9998349343467
 51
90.00016506565328
  0
ARC
  5
63A
330
2
100
AcDbEntity
  8
0
100
AcDbCircle
 10
-14.06540042522742
 20
5.875
 30
0.0
 40
0.0855
100
AcDbArc
 50
269.9998349343467
 51
90.00016506565328
  0
ARC
  5
63B
330
2
100
AcDbEntity
  8
0
100
AcDbCircle
 10
-14.02666652656802
 20
5.875
 30
0.0
 40
0.0855
100
AcDbArc
 50
270.0
 51
90.0
  0
LINE
  5
63C
330
2
100
AcDbEntity
  8
0
100
AcDbLine
 10
-14.02666652656802
 20
5.960500000000003
 30
0.0
 11
-14.21416652656802
 21
5.960500000000003
 31
0.0
  0
LINE
  5
63D
330
2
100
AcDbEntity
  8
0
100
AcDbLine
 10
-14.02666652656802
 20
5.789500000000004
 30
0.0
 11
-14.21416652656802
 21
5.789500000000004
 31
0.0
  0
LINE
  5
63E
330
2
100
AcDbEntity
  8
0
100
AcDbLine
 10
-14.23066652656803
 20
6.952687535223109
 30
0.0
 11
-14.23066652656803
 21
6.803061142161898
 31
0.0
  0
ARC
  5
63F
330
2
100
AcDbEntity
  8
0
100
AcDbCircle
 10
-14.02666652656802
 20
6.874999999999996
 30
0.0
 40
0.0855
100
AcDbArc
 50
270.0
 51
90.0
  0
LINE
  5
640
330
2
100
AcDbEntity
  8
0
100
AcDbLine
 10
-14.02666652656802
 20
6.7895
 30
0.0
 11
-14.21416652656802
 21
6.7895
 31
0.0
  0
LINE
  5
641
330
2
100
AcDbEntity
  8
0
100
AcDbLine
 10
-14.02666652656802
 20
6.9605
 30
0.0
 11
-14.21416652656802
 21
6.9605
 31
0.0
  0
ARC
  5
642
330
2
100
AcDbEntity
  8
0
100
AcDbCircle
 10
-14.06540042522742
 20
6.874999999999996
 30
0.0
 40
0.0855
100
AcDbArc
 50
269.9998349343467
 51
90.00016506565328
  0
ARC
  5
643
330
2
100
AcDbEntity
  8
0
100
AcDbCircle
 10
-14.08576785533843
 20
6.874999999999996
 30
0.0
 40
0.0855
100
AcDbArc
 50
269.9998349343467
 51
90.00016506565328
  0
LINE
  5
644
330
2
100
AcDbEntity
  8
0
100
AcDbLine
 10
-14.02666652656802
 20
6.789499999999993
 30
0.0
 11
-14.23066652656803
 21
6.789499999999993
 31
0.0
  0
LINE
  5
645
330
2
100
AcDbEntity
  8
0
100
AcDbLine
 10
-14.02666652656802
 20
6.960499999999993
 30
0.0
 11
-14.23066652656803
 21
6.960499999999993
 31
0.0
  0
ARC
  5
646
330
2
100
AcDbEntity
  8
0
100
AcDbCircle
 10
-14.02666652656802
 20
6.874999999999996
 30
0.0
 40
0.0855
100
AcDbArc
 50
269.9998349343467
 51
90.00016506565328
  0
ARC
  5
647
330
2
100
AcDbEntity
  8
0
100
AcDbCircle
 10
-14.02666652656802
 20
7.874999999999996
 30
0.0
 40
0.0855
100
AcDbArc
 50
269.9998349343467
 51
90.00016506565328
  0
LINE
  5
648
330
2
100
AcDbEntity
  8
0
100
AcDbLine
 10
-14.02666652656802
 20
7.960499999999993
 30
0.0
 11
-14.23066652656803
 21
7.960499999999993
 31
0.0
  0
LINE
  5
649
330
2
100
AcDbEntity
  8
0
100
AcDbLine
 10
-14.02666652656802
 20
7.789499999999993
 30
0.0
 11
-14.23066652656803
 21
7.789499999999993
 31
0.0
  0
ARC
  5
64A
330
2
100
AcDbEntity
  8
0
100
AcDbCircle
 10
-14.08576785533843
 20
7.874999999999996
 30
0.0
 40
0.0855
100
AcDbArc
 50
269.9998349343467
 51
90.00016506565328
  0
ARC
  5
64B
330
2
100
AcDbEntity
  8
0
100
AcDbCircle
 10
-14.06540042522742
 20
7.874999999999996
 30
0.0
 40
0.0855
100
AcDbArc
 50
269.9998349343467
 51
90.00016506565328
  0
LINE
  5
64C
330
2
100
AcDbEntity
  8
0
100
AcDbLine
 10
-14.02666652656802
 20
7.9605
 30
0.0
 11
-14.21416652656802
 21
7.9605
 31
0.0
  0
LINE
  5
64D
330
2
100
AcDbEntity
  8
0
100
AcDbLine
 10
-14.02666652656802
 20
7.7895
 30
0.0
 11
-14.21416652656802
 21
7.7895
 31
0.0
  0
ARC
  5
64E
330
2
100
AcDbEntity
  8
0
100
AcDbCircle
 10
-14.02666652656802
 20
7.874999999999996
 30
0.0
 40
0.0855
100
AcDbArc
 50
270.0
 51
90.0
  0
LINE
  5
64F
330
2
100
AcDbEntity
  8
0
100
AcDbLine
 10
-14.23066652656803
 20
7.952687535223109
 30
0.0
 11
-14.23066652656803
 21
7.803061142161898
 31
0.0
  0
LINE
  5
650
330
2
100
AcDbEntity
  8
0
100
AcDbLine
 10
-14.02666652656802
 20
8.789499999999993
 30
0.0
 11
-14.23066652656803
 21
8.789499999999993
 31
0.0
  0
ARC
  5
651
330
2
100
AcDbEntity
  8
0
100
AcDbCircle
 10
-14.08576785533843
 20
8.874999999999996
 30
0.0
 40
0.0855
100
AcDbArc
 50
269.9998349343467
 51
90.00016506565328
  0
ARC
  5
652
330
2
100
AcDbEntity
  8
0
100
AcDbCircle
 10
-14.06540042522742
 20
8.874999999999996
 30
0.0
 40
0.0855
100
AcDbArc
 50
269.9998349343467
 51
90.00016506565328
  0
LINE
  5
653
330
2
100
AcDbEntity
  8
0
100
AcDbLine
 10
-14.02666652656802
 20
8.9605
 30
0.0
 11
-14.21416652656802
 21
8.9605
 31
0.0
  0
LINE
  5
654
330
2
100
AcDbEntity
  8
0
100
AcDbLine
 10
-14.02666652656802
 20
8.7895
 30
0.0
 11
-14.21416652656802
 21
8.7895
 31
0.0
  0
ARC
  5
655
330
2
100
AcDbEntity
  8
0
100
AcDbCircle
 10
-14.02666652656802
 20
8.874999999999996
 30
0.0
 40
0.0855
100
AcDbArc
 50
270.0
 51
90.0
  0
LINE
  5
656
330
2
100
AcDbEntity
  8
0
100
AcDbLine
 10
-14.23066652656803
 20
8.952687535223109
 30
0.0
 11
-14.23066652656803
 21
8.803061142161898
 31
0.0
  0
LINE
  5
657
330
2
100
AcDbEntity
  8
0
100
AcDbLine
 10
-14.23066652656803
 20
9.952687535223109
 30
0.0
 11
-14.23066652656803
 21
9.803061142161898
 31
0.0
  0
ARC
  5
658
330
2
100
AcDbEntity
  8
0
100
AcDbCircle
 10
-14.02666652656802
 20
9.874999999999996
 30
0.0
 40
0.0855
100
AcDbArc
 50
270.0
 51
90.0
  0
ARC
  5
659
330
2
100
AcDbEntity
  8
0
100
AcDbCircle
 10
-14.06540042522742
 20
9.874999999999996
 30
0.0
 40
0.0855
100
AcDbArc
 50
269.9998349343467
 51
90.00016506565328
  0
ARC
  5
65A
330
2
100
AcDbEntity
  8
0
100
AcDbCircle
 10
-14.08576785533843
 20
9.874999999999996
 30
0.0
 40
0.0855
100
AcDbArc
 50
269.9998349343467
 51
90.00016506565328
  0
LINE
  5
65B
330
2
100
AcDbEntity
  8
0
100
AcDbLine
 10
-14.02666652656802
 20
9.7895
 30
0.0
 11
-14.21416652656802
 21
9.7895
 31
0.0
  0
LINE
  5
65C
330
2
100
AcDbEntity
  8
0
100
AcDbLine
 10
-14.02666652656802
 20
9.789499999999993
 30
0.0
 11
-14.23066652656803
 21
9.789499999999993
 31
0.0
  0
LINE
  5
65D
330
2
100
AcDbEntity
  8
0
100
AcDbLine
 10
-14.02666652656802
 20
9.9605
 30
0.0
 11
-14.21416652656802
 21
9.9605
 31
0.0
  0
LINE
  5
65E
330
2
100
AcDbEntity
  8
0
100
AcDbLine
 10
-14.23066652656803
 20
0.9696030747914648
 30
0.0
 11
-14.23066652656803
 21
0.8199766817302532
 31
0.0
  0
ARC
  5
65F
330
2
100
AcDbEntity
  8
0
100
AcDbCircle
 10
-14.05842087881757
 20
0.8914337062966595
 30
0.0
 40
0.0855
100
AcDbArc
 50
269.9998349343467
 51
90.00016506565328
  0
ARC
  5
660
330
2
100
AcDbEntity
  8
0
100
AcDbCircle
 10
-14.07878830892858
 20
0.8914337062966595
 30
0.0
 40
0.0855
100
AcDbArc
 50
269.9998349343467
 51
90.00016506565328
  0
ARC
  5
661
330
2
100
AcDbEntity
  8
0
100
AcDbCircle
 10
-14.02666652656802
 20
0.8914337062970148
 30
0.0
 40
0.0855
100
AcDbArc
 50
270.0
 51
90.0
  0
LINE
  5
662
330
2
100
AcDbEntity
  8
0
100
AcDbLine
 10
-14.02666652656802
 20
0.8059337062970151
 30
0.0
 11
-14.21416652656802
 21
0.8059337062970151
 31
0.0
  0
LINE
  5
663
330
2
100
AcDbEntity
  8
0
100
AcDbLine
 10
-14.02666652656802
 20
0.9769337062970145
 30
0.0
 11
-14.21416652656802
 21
0.9769337062970145
 31
0.0
  0
LINE
  5
664
330
2
100
AcDbEntity
  8
0
100
AcDbLine
 10
-14.23066652656803
 20
1.969121241520128
 30
0.0
 11
-14.23066652656803
 21
1.819494848458916
 31
0.0
  0
ARC
  5
665
330
2
100
AcDbEntity
  8
0
100
AcDbCircle
 10
-14.08348848510805
 20
1.89143370629666
 30
0.0
 40
0.0855
100
AcDbArc
 50
269.9998349343467
 51
90.00016506565328
  0
ARC
  5
666
330
2
100
AcDbEntity
  8
0
100
AcDbCircle
 10
-14.06312105499704
 20
1.89143370629666
 30
0.0
 40
0.0855
100
AcDbArc
 50
269.9998349343467
 51
90.00016506565328
  0
ARC
  5
667
330
2
100
AcDbEntity
  8
0
100
AcDbCircle
 10
-14.02666652656802
 20
1.891433706297015
 30
0.0
 40
0.0855
100
AcDbArc
 50
270.0
 51
90.0
  0
LINE
  5
668
330
2
100
AcDbEntity
  8
0
100
AcDbLine
 10
-14.02666652656802
 20
1.976933706297015
 30
0.0
 11
-14.21416652656802
 21
1.976933706297015
 31
0.0
  0
LINE
  5
669
330
2
100
AcDbEntity
  8
0
100
AcDbLine
 10
-14.02666652656802
 20
1.805933706297015
 30
0.0
 11
-14.21416652656802
 21
1.805933706297015
 31
0.0
  0
ENDSEC
  0
SECTION
  2
OBJECTS
  0
DICTIONARY
  5
9
330
0
100
AcDbDictionary
281
     1
  3
ACAD_COLOR
350
1DA
  3
ACAD_GROUP
350
23
  3
ACAD_LAYOUT
350
D
  3
ACAD_MATERIAL
350
1D9
  3
ACAD_MLINESTYLE
350
24
  3
ACAD_PLOTSETTINGS
350
25
  3
ACAD_PLOTSTYLENAME
350
8
  3
ACAD_TABLESTYLE
350
1DB
  3
ACDBHEADERROUNDTRIPXREC
350
67C
  3
AcDbVariableDictionary
350
1D5
  0
DICTIONARY
  5
3
330
2
100
AcDbDictionary
280
     1
281
     1
  3
ACAD_SORTENTS
360
1E2
  0
DICTIONARY
  5
1DA
102
{ACAD_REACTORS
330
9
102
}
330
9
100
AcDbDictionary
281
     1
  0
DICTIONARY
  5
23
102
{ACAD_REACTORS
330
9
102
}
330
9
100
AcDbDictionary
281
     1
  0
DICTIONARY
  5
D
102
{ACAD_REACTORS
330
9
102
}
330
9
100
AcDbDictionary
281
     1
  3
Layout1
350
13
  3
Model
350
C
  0
DICTIONARY
  5
1D9
102
{ACAD_REACTORS
330
9
102
}
330
9
100
AcDbDictionary
281
     1
  0
DICTIONARY
  5
24
102
{ACAD_REACTORS
330
9
102
}
330
9
100
AcDbDictionary
281
     1
  3
STANDARD
350
27
  0
DICTIONARY
  5
25
102
{ACAD_REACTORS
330
9
102
}
330
9
100
AcDbDictionary
281
     1
  0
ACDBDICTIONARYWDFLT
  5
8
102
{ACAD_REACTORS
330
9
102
}
330
9
100
AcDbDictionary
281
     1
  3
Normal
350
7
100
AcDbDictionaryWithDefault
340
7
  0
DICTIONARY
  5
1DB
102
{ACAD_REACTORS
330
9
102
}
330
9
100
AcDbDictionary
281
     1
  3
Standard
350
1DC
  0
DICTIONARY
  5
67C
102
{ACAD_REACTORS
330
9
102
}
330
9
100
AcDbDictionary
281
     1
  3
COLORDICT
350
67D
  3
MATERIALDICT
350
67E
  0
DICTIONARY
  5
1D5
102
{ACAD_REACTORS
330
9
102
}
330
9
100
AcDbDictionary
281
     1
  3
CTABLESTYLE
350
379
  3
HIDETEXT
350
67B
  0
SORTENTSTABLE
  5
1E2
102
{ACAD_REACTORS
330
3
102
}
330
3
100
AcDbSortentsTable
330
2
331
268
  5
1EA
331
2CD
  5
24F
331
2C8
  5
24A
331
295
  5
217
331
2EE
  5
270
331
33D
  5
2BF
331
274
  5
1F6
331
2E6
  5
268
331
29D
  5
21F
331
2E7
  5
269
331
355
  5
2D7
331
262
  5
347
331
2E4
  5
266
331
2FF
  5
281
331
282
  5
204
331
246
  5
32B
331
2AA
  5
22C
331
1FA
  5
35D
331
1F4
  5
357
331
303
  5
285
331
26B
  5
1ED
331
2ED
  5
26F
331
336
  5
2B8
331
29E
  5
220
331
31D
  5
29F
331
219
  5
2FE
331
1FE
  5
361
331
24A
  5
32F
331
2FA
  5
27C
331
347
  5
2C9
331
25E
  5
343
331
2E0
  5
262
331
36A
  5
2EC
331
305
  5
287
331
275
  5
1F7
331
362
  5
2E4
331
270
  5
1F2
331
279
  5
1FB
331
2F0
  5
272
331
296
  5
218
331
33C
  5
2BE
331
354
  5
2D6
331
20E
  5
371
331
36D
  5
2EF
331
23A
  5
31F
331
1E8
  5
34B
331
1ED
  5
350
331
2A7
  5
229
331
1F6
  5
359
331
318
  5
29A
331
342
  5
2C4
331
343
  5
2C5
331
2B3
  5
235
331
319
  5
29B
331
2DB
  5
25D
331
33E
  5
2C0
331
34A
  5
2CC
331
2F8
  5
27A
331
315
  5
297
331
32C
  5
2AE
331
26F
  5
1F1
331
212
  5
2F7
331
203
  5
366
331
230
  5
315
331
204
  5
367
331
27D
  5
1FF
331
2F4
  5
276
331
20C
  5
36F
331
1EC
  5
34F
331
2A5
  5
227
331
1E9
  5
34C
331
302
  5
284
331
298
  5
21A
331
2EF
  5
271
331
2D4
  5
256
331
346
  5
2C8
331
1FD
  5
360
331
369
  5
2EB
331
237
  5
31C
331
1EB
  5
34E
331
217
  5
2FC
331
321
  5
2A3
331
329
  5
2AB
331
208
  5
36B
331
308
  5
28A
331
260
  5
345
331
317
  5
299
331
330
  5
2B2
331
231
  5
316
331
20A
  5
36D
331
26C
  5
1EE
331
247
  5
32C
331
24E
  5
333
331
365
  5
2E7
331
286
  5
208
331
2B9
  5
23B
331
285
  5
207
331
255
  5
33A
331
233
  5
318
331
31E
  5
2A0
331
1F0
  5
353
331
33A
  5
2BC
331
338
  5
2BA
331
1FB
  5
35E
331
238
  5
31D
331
312
  5
294
331
2D9
  5
25B
331
335
  5
2B7
331
289
  5
20B
331
2AE
  5
230
331
33F
  5
2C1
331
2A9
  5
22B
331
266
  5
1E8
331
2B6
  5
238
331
2D7
  5
259
331
2AC
  5
22E
331
236
  5
31B
331
339
  5
2BB
331
2E3
  5
265
331
24D
  5
332
331
2D2
  5
254
331
26A
  5
1EC
331
366
  5
2E8
331
323
  5
2A5
331
290
  5
212
331
2A0
  5
222
331
29F
  5
221
331
30D
  5
28F
331
24C
  5
331
331
2C0
  5
242
331
2A6
  5
228
331
276
  5
1F8
331
1F7
  5
35A
331
345
  5
2C7
331
1EF
  5
352
331
207
  5
36A
331
348
  5
2CA
331
2C6
  5
248
331
29B
  5
21D
331
1F5
  5
358
331
2F7
  5
279
331
360
  5
2E2
331
232
  5
317
331
350
  5
2D2
331
254
  5
339
331
34E
  5
2D0
331
1E7
  5
34A
331
320
  5
2A2
331
2AB
  5
22D
331
1FF
  5
362
331
2F1
  5
273
331
294
  5
216
331
36B
  5
2ED
331
2C9
  5
24B
331
309
  5
28B
331
2CB
  5
24D
331
1E6
  5
349
331
25F
  5
344
331
306
  5
288
331
28E
  5
210
331
20B
  5
36E
331
36F
  5
2F1
331
2A4
  5
226
331
371
  5
2F3
331
221
  5
306
331
2E8
  5
26A
331
34B
  5
2CD
331
2E5
  5
267
331
304
  5
286
331
215
  5
2FA
331
36E
  5
2F0
331
2FC
  5
27E
331
2F6
  5
278
331
2AF
  5
231
331
331
  5
2B3
331
1F9
  5
35C
331
201
  5
364
331
205
  5
368
331
249
  5
32E
331
31B
  5
29D
331
200
  5
363
331
2FB
  5
27D
331
31A
  5
29C
331
271
  5
1F3
331
2CE
  5
250
331
2D5
  5
257
331
34F
  5
2D1
331
202
  5
365
331
234
  5
319
331
280
  5
202
331
2EA
  5
26C
331
316
  5
298
331
30A
  5
28C
331
2E2
  5
264
331
2D1
  5
253
331
34D
  5
2CF
331
21D
  5
302
331
27F
  5
201
331
213
  5
2F8
331
356
  5
2D8
331
2FE
  5
280
331
22F
  5
314
331
283
  5
205
331
2BB
  5
23D
331
2B2
  5
234
331
2EC
  5
26E
331
1F3
  5
356
331
2B0
  5
232
331
353
  5
2D5
331
2E9
  5
26B
331
272
  5
1F4
331
322
  5
2A4
331
27A
  5
1FC
331
344
  5
2C6
331
2CC
  5
24E
331
2F3
  5
275
331
2BD
  5
23F
331
20D
  5
370
331
24B
  5
330
331
325
  5
2A7
331
206
  5
369
331
2DD
  5
25F
331
2FD
  5
27F
331
30E
  5
290
331
297
  5
219
331
2C4
  5
246
331
1F1
  5
354
331
28A
  5
20C
331
351
  5
2D3
331
307
  5
289
331
269
  5
1EB
331
35B
  5
2DD
331
28F
  5
211
331
261
  5
346
331
2A3
  5
225
331
23E
  5
323
331
30B
  5
28D
331
30F
  5
291
331
27E
  5
200
331
30C
  5
28E
331
2F9
  5
27B
331
292
  5
214
331
34C
  5
2CE
331
222
  5
307
331
27C
  5
1FE
331
2DA
  5
25C
331
27B
  5
1FD
331
20F
  5
372
331
2D3
  5
255
331
361
  5
2E3
331
26D
  5
1EF
331
32B
  5
2AD
331
35D
  5
2DF
331
291
  5
213
331
314
  5
296
331
1FC
  5
35F
331
2F5
  5
277
331
364
  5
2E6
331
26E
  5
1F0
331
1F2
  5
355
331
2B1
  5
233
331
2EB
  5
26D
331
31F
  5
2A1
331
2E1
  5
263
331
28B
  5
20D
331
214
  5
2F9
331
2C5
  5
247
331
2B5
  5
237
331
2CA
  5
24C
331
248
  5
32D
331
218
  5
2FD
331
216
  5
2FB
331
2BC
  5
23E
331
2F2
  5
274
331
25B
  5
340
331
301
  5
283
331
2CF
  5
251
331
2D8
  5
25A
331
2A8
  5
22A
331
326
  5
2A8
331
2B8
  5
23A
331
2D6
  5
258
331
288
  5
20A
331
264
  5
1E6
331
2B4
  5
236
331
2BF
  5
241
331
1EA
  5
34D
331
334
  5
2B6
331
284
  5
206
331
2B7
  5
239
331
368
  5
2EA
331
35F
  5
2E1
331
324
  5
2A6
331
2A1
  5
223
331
235
  5
31A
331
278
  5
1FA
331
299
  5
21B
331
2C2
  5
244
331
209
  5
36C
331
300
  5
282
331
328
  5
2AA
331
357
  5
2D9
331
313
  5
295
331
2DF
  5
261
331
352
  5
2D4
331
2AD
  5
22F
331
2D0
  5
252
331
1F8
  5
35B
331
1EE
  5
351
331
267
  5
1E9
331
349
  5
2CB
  0
LAYOUT
  5
13
102
{ACAD_REACTORS
330
D
102
}
102
{ACAD_XDICTIONARY
360
67F
102
}
330
D
100
AcDbPlotSettings
  1

  2
HP LaserJet 2100 Series PS
  4

  6

 40
0.0
 41
0.0
 42
0.0
 43
0.0
 44
0.0
 45
0.0
 46
0.0
 47
0.0
 48
0.0
 49
0.0
140
0.0
141
0.0
142
1.0
143
1.0
 70
   688
 72
     0
 73
     0
 74
     5
  7

 75
    16
147
1.0
148
0.0
149
0.0
100
AcDbLayout
  1
Layout1
 70
     0
 71
     1
 10
0.0
 20
0.0
 11
12.0
 21
9.0
 12
0.0
 22
0.0
 32
0.0
 14
1.000000000000000E+20
 24
1.000000000000000E+20
 34
1.000000000000000E+20
 15
-1.000000000000000E+20
 25
-1.000000000000000E+20
 35
-1.000000000000000E+20
146
0.0
 13
0.0
 23
0.0
 33
0.0
 16
1.0
 26
0.0
 36
0.0
 17
0.0
 27
1.0
 37
0.0
 76
     0
330
E
  0
LAYOUT
  5
C
102
{ACAD_REACTORS
330
D
102
}
102
{ACAD_XDICTIONARY
360
681
102
}
330
D
100
AcDbPlotSettings
  1

  2
HP LaserJet 2100 Series PS
  4
Letter
  6

 40
5.365749835968018
 41
5.408084392547607
 42
5.4080810546875
 43
5.365753173828125
 44
215.8999938964844
 45
279.3999938964844
 46
0.0
 47
0.0
 48
0.0
 49
0.0
140
0.0
141
0.0
142
1.0
143
3.971318409846261
 70
 11952
 72
     0
 73
     1
 74
     2
  7

 75
     0
147
0.2518055458662435
148
0.0
149
0.0
100
AcDbLayout
  1
Model
 70
     1
 71
     0
 10
0.0
 20
0.0
 11
12.0
 21
9.0
 12
0.0
 22
0.0
 32
0.0
 14
0.0
 24
0.0
 34
0.0
 15
0.0
 25
0.0
 35
0.0
146
0.0
 13
0.0
 23
0.0
 33
0.0
 16
1.0
 26
0.0
 36
0.0
 17
0.0
 27
1.0
 37
0.0
 76
     0
330
2
  0
MLINESTYLE
  5
27
102
{ACAD_REACTORS
330
24
102
}
330
24
100
AcDbMlineStyle
  2
STANDARD
 70
     0
  3

 62
   256
 51
90.0
 52
90.0
 71
     2
 49
0.5
 62
   256
  6
BYLAYER
 49
-0.5
 62
   256
  6
BYLAYER
  0
ACDBPLACEHOLDER
  5
7
102
{ACAD_REACTORS
330
8
102
}
330
8
  0
ACAD_PROXY_OBJECT
  5
1DC
102
{ACAD_REACTORS
330
1DB
102
}
330
1DB
100
AcDbProxyObject
 90
      499
 91
      537
 95
   983063
 70
     0
 93
     1841
310
4214DD185B99185C9928B81E85EB51B8AE3F2E07A17AD46E2B8FC02B5E8DC0F42B1CFD028000000C1008070000C3001FDFF8000000C1003FBFF000000182007F7FE00000030400FEFFC00000060801FDFF8000000C1003FBFF00000018200000000000000681FA0B0000001820100E000186003FBFF000000182007F7FE000
310
00030400FEFFC00000060801FDFF8000000C1003FBFF000000182007F7FE000000304000AD7A3703D0AC73F4160000003040201C00030C007F7FE00000030400FEFFC00000060801FDFF8000000C1003FBFF000000182007F7FE00000030400FEFFC000000608000
340
16
340
16
340
16
 94
        0
  0
XRECORD
  5
67D
102
{ACAD_REACTORS
330
67C
102
}
330
67C
100
AcDbXrecord
340
1DA
  0
XRECORD
  5
67E
102
{ACAD_REACTORS
330
67C
102
}
330
67C
100
AcDbXrecord
340
1D9
  0
DICTIONARYVAR
  5
379
102
{ACAD_REACTORS
330
1D5
102
}
330
1D5
100
DictionaryVariables
280
     0
  1
STANDARD
  0
DICTIONARYVAR
  5
67B
102
{ACAD_REACTORS
330
1D5
102
}
330
1D5
100
DictionaryVariables
280
     0
  1
0
  0
DICTIONARY
  5
67F
330
13
100
AcDbDictionary
280
     1
281
     1
  3
ACAD_XREC_ROUNDTRIP
360
680
  0
DICTIONARY
  5
681
330
C
100
AcDbDictionary
280
     1
281
     1
  3
ACAD_XREC_ROUNDTRIP
360
682
  0
XRECORD
  5
680
102
{ACAD_REACTORS
330
67F
102
}
330
67F
100
AcDbXrecord
102
SHADEPLOT
 70
     0
102
SHADEPLOTRESLEVEL
 70
     2
102
SHADEPLOTCUSTOMDPI
 70
   300
  0
XRECORD
  5
682
102
{ACAD_REACTORS
330
681
102
}
330
681
100
AcDbXrecord
102
SHADEPLOT
 70
     0
102
SHADEPLOTRESLEVEL
 70
     2
102
SHADEPLOTCUSTOMDPI
 70
   300
  0
ENDSEC
  0
EOF
