  0
SECTION
  2
HEADER
  9
$ACADVER
  1
AC1015
  9
$ACADMAINTVER
 70
     6
  9
$DWGCODEPAGE
  3
ANSI_1252
  9
$INSBASE
 10
0.0
 20
0.0
 30
0.0
  9
$EXTMIN
 10
-16.04880011088153
 20
-0.0395499018874261
 30
-0.0000000000112498
  9
$EXTMAX
 10
16.52182250924292
 20
24.80915421674627
 30
0.0000000000002956
  9
$LIMMIN
 10
0.0
 20
0.0
  9
$LIMMAX
 10
42.0
 20
32.0
  9
$ORTHOMODE
 70
     1
  9
$REGENMODE
 70
     1
  9
$FILLMODE
 70
     1
  9
$QTEXTMODE
 70
     0
  9
$MIRRTEXT
 70
     1
  9
$LTSCALE
 40
0.5
  9
$ATTMODE
 70
     1
  9
$TEXTSIZE
 40
0.36
  9
$TRACEWID
 40
0.05
  9
$TEXTSTYLE
  7
STANDARD
  9
$CLAYER
  8
0
  9
$CELTYPE
  6
BYLAYER
  9
$CECOLOR
 62
   256
  9
$CELTSCALE
 40
1.0
  9
$DISPSILH
 70
     0
  9
$DIMSCALE
 40
4.0
  9
$DIMASZ
 40
0.125
  9
$DIMEXO
 40
0.062
  9
$DIMDLI
 40
0.375
  9
$DIMRND
 40
0.0
  9
$DIMDLE
 40
0.0
  9
$DIMEXE
 40
0.08
  9
$DIMTP
 40
0.0
  9
$DIMTM
 40
0.0
  9
$DIMTXT
 40
0.09
  9
$DIMCEN
 40
-0.06
  9
$DIMTSZ
 40
0.0
  9
$DIMTOL
 70
     0
  9
$DIMLIM
 70
     0
  9
$DIMTIH
 70
     1
  9
$DIMTOH
 70
     1
  9
$DIMSE1
 70
     0
  9
$DIMSE2
 70
     0
  9
$DIMTAD
 70
     0
  9
$DIMZIN
 70
     0
  9
$DIMBLK
  1

  9
$DIMASO
 70
     0
  9
$DIMSHO
 70
     0
  9
$DIMPOST
  1

  9
$DIMAPOST
  1

  9
$DIMALT
 70
     0
  9
$DIMALTD
 70
     2
  9
$DIMALTF
 40
25.4
  9
$DIMLFAC
 40
1.0
  9
$DIMTOFL
 70
     0
  9
$DIMTVP
 40
0.0
  9
$DIMTIX
 70
     0
  9
$DIMSOXD
 70
     0
  9
$DIMSAH
 70
     0
  9
$DIMBLK1
  1

  9
$DIMBLK2
  1

  9
$DIMSTYLE
  2
STANDARD
  9
$DIMCLRD
 70
     0
  9
$DIMCLRE
 70
     0
  9
$DIMCLRT
 70
     0
  9
$DIMTFAC
 40
1.0
  9
$DIMGAP
 40
0.09
  9
$DIMJUST
 70
     0
  9
$DIMSD1
 70
     0
  9
$DIMSD2
 70
     0
  9
$DIMTOLJ
 70
     1
  9
$DIMTZIN
 70
     0
  9
$DIMALTZ
 70
     0
  9
$DIMALTTZ
 70
     0
  9
$DIMUPT
 70
     0
  9
$DIMDEC
 70
     5
  9
$DIMTDEC
 70
     5
  9
$DIMALTU
 70
     5
  9
$DIMALTTD
 70
     2
  9
$DIMTXSTY
  7
STANDARD
  9
$DIMAUNIT
 70
     0
  9
$DIMADEC
 70
     0
  9
$DIMALTRND
 40
0.0
  9
$DIMAZIN
 70
     0
  9
$DIMDSEP
 70
    46
  9
$DIMATFIT
 70
     3
  9
$DIMFRAC
 70
     0
  9
$DIMLDRBLK
  1

  9
$DIMLUNIT
 70
     5
  9
$DIMLWD
 70
    -2
  9
$DIMLWE
 70
    -2
  9
$DIMTMOVE
 70
     2
  9
$LUNITS
 70
     5
  9
$LUPREC
 70
     5
  9
$SKETCHINC
 40
0.1
  9
$FILLETRAD
 40
0.125
  9
$AUNITS
 70
     0
  9
$AUPREC
 70
     0
  9
$MENU
  1
qa
  9
$ELEVATION
 40
0.0
  9
$PELEVATION
 40
0.0
  9
$THICKNESS
 40
0.0
  9
$LIMCHECK
 70
     0
  9
$CHAMFERA
 40
0.0
  9
$CHAMFERB
 40
0.0
  9
$CHAMFERC
 40
0.0
  9
$CHAMFERD
 40
0.0
  9
$SKPOLY
 70
     0
  9
$TDCREATE
 40
2449114.970069097
  9
$TDUCREATE
 40
2449115.30340243
  9
$TDUPDATE
 40
2454165.976265984
  9
$TDUUPDATE
 40
2454166.309599317
  9
$TDINDWG
 40
0.0739523611
  9
$TDUSRTIMER
 40
0.0739523611
  9
$USRTIMER
 70
     1
  9
$ANGBASE
 50
0.0
  9
$ANGDIR
 70
     0
  9
$PDMODE
 70
     0
  9
$PDSIZE
 40
0.0
  9
$PLINEWID
 40
0.0
  9
$SPLFRAME
 70
     0
  9
$SPLINETYPE
 70
     6
  9
$SPLINESEGS
 70
     8
  9
$HANDSEED
  5
509
  9
$SURFTAB1
 70
     6
  9
$SURFTAB2
 70
     6
  9
$SURFTYPE
 70
     6
  9
$SURFU
 70
     6
  9
$SURFV
 70
     6
  9
$UCSBASE
  2

  9
$UCSNAME
  2

  9
$UCSORG
 10
0.0
 20
0.0
 30
0.0
  9
$UCSXDIR
 10
1.0
 20
0.0
 30
0.0
  9
$UCSYDIR
 10
0.0
 20
1.0
 30
0.0
  9
$UCSORTHOREF
  2

  9
$UCSORTHOVIEW
 70
     0
  9
$UCSORGTOP
 10
0.0
 20
0.0
 30
0.0
  9
$UCSORGBOTTOM
 10
0.0
 20
0.0
 30
0.0
  9
$UCSORGLEFT
 10
0.0
 20
0.0
 30
0.0
  9
$UCSORGRIGHT
 10
0.0
 20
0.0
 30
0.0
  9
$UCSORGFRONT
 10
0.0
 20
0.0
 30
0.0
  9
$UCSORGBACK
 10
0.0
 20
0.0
 30
0.0
  9
$PUCSBASE
  2

  9
$PUCSNAME
  2

  9
$PUCSORG
 10
0.0
 20
0.0
 30
0.0
  9
$PUCSXDIR
 10
1.0
 20
0.0
 30
0.0
  9
$PUCSYDIR
 10
0.0
 20
1.0
 30
0.0
  9
$PUCSORTHOREF
  2

  9
$PUCSORTHOVIEW
 70
     0
  9
$PUCSORGTOP
 10
0.0
 20
0.0
 30
0.0
  9
$PUCSORGBOTTOM
 10
0.0
 20
0.0
 30
0.0
  9
$PUCSORGLEFT
 10
0.0
 20
0.0
 30
0.0
  9
$PUCSORGRIGHT
 10
0.0
 20
0.0
 30
0.0
  9
$PUCSORGFRONT
 10
0.0
 20
0.0
 30
0.0
  9
$PUCSORGBACK
 10
0.0
 20
0.0
 30
0.0
  9
$USERI1
 70
     0
  9
$USERI2
 70
     0
  9
$USERI3
 70
     0
  9
$USERI4
 70
     0
  9
$USERI5
 70
     0
  9
$USERR1
 40
0.0
  9
$USERR2
 40
0.0
  9
$USERR3
 40
0.0
  9
$USERR4
 40
0.0
  9
$USERR5
 40
0.0
  9
$WORLDVIEW
 70
     1
  9
$SHADEDGE
 70
     3
  9
$SHADEDIF
 70
    70
  9
$TILEMODE
 70
     1
  9
$MAXACTVP
 70
    16
  9
$PINSBASE
 10
0.0
 20
0.0
 30
0.0
  9
$PLIMCHECK
 70
     0
  9
$PEXTMIN
 10
1.000000000000000E+20
 20
1.000000000000000E+20
 30
1.000000000000000E+20
  9
$PEXTMAX
 10
-1.000000000000000E+20
 20
-1.000000000000000E+20
 30
-1.000000000000000E+20
  9
$PLIMMIN
 10
0.0
 20
0.0
  9
$PLIMMAX
 10
12.0
 20
9.0
  9
$UNITMODE
 70
     0
  9
$VISRETAIN
 70
     0
  9
$PLINEGEN
 70
     0
  9
$PSLTSCALE
 70
     0
  9
$TREEDEPTH
 70
  3020
  9
$CMLSTYLE
  2
STANDARD
  9
$CMLJUST
 70
     0
  9
$CMLSCALE
 40
1.0
  9
$PROXYGRAPHICS
 70
     1
  9
$MEASUREMENT
 70
     0
  9
$CELWEIGHT
370
    -1
  9
$ENDCAPS
280
     0
  9
$JOINSTYLE
280
     0
  9
$LWDISPLAY
290
     0
  9
$INSUNITS
 70
     0
  9
$HYPERLINKBASE
  1

  9
$STYLESHEET
  1

  9
$XEDIT
290
     1
  9
$CEPSNTYPE
380
     0
  9
$PSTYLEMODE
290
     1
  9
$FINGERPRINTGUID
  2
{A3F12D19-2E9E-11D5-A1EC-0080C6F22FF4}
  9
$VERSIONGUID
  2
{AB383F46-18A9-43DF-9B55-28BF1AE9562C}
  9
$EXTNAMES
290
     1
  9
$PSVPSCALE
 40
0.0
  9
$OLESTARTUP
290
     0
  0
ENDSEC
  0
SECTION
  2
CLASSES
  0
CLASS
  1
DICTIONARYVAR
  2
AcDbDictionaryVar
  3
AutoCAD 2000
 90
        0
280
     0
281
     0
  0
CLASS
  1
LWPOLYLINE
  2
AcDbPolyline
  3
AutoCAD 2000
 90
        0
280
     0
281
     1
  0
CLASS
  1
ACDBDICTIONARYWDFLT
  2
AcDbDictionaryWithDefault
  3
AutoCAD 2000
 90
        0
280
     0
281
     0
  0
CLASS
  1
ACDBPLACEHOLDER
  2
AcDbPlaceHolder
  3
ObjectDBX Classes
 90
        0
280
     0
281
     0
  0
CLASS
  1
LAYOUT
  2
AcDbLayout
  3
ObjectDBX Classes
 90
        0
280
     0
281
     0
  0
CLASS
  1
LONG_TRANSACTION
  2
AcDbLongTransaction
  3
ObjectDBX Classes
 90
   -65536
280
     1
281
     0
  0
CLASS
  1
LWPOLYLINE
  2
AcDbPolyline
  3
AutoCAD 2000
 90
        0
280
     0
281
     1
  0
CLASS
  1
HATCH
  2
AcDbHatch
  3
AutoCAD 2000
 90
        0
280
     0
281
     1
  0
CLASS
  1
XRECORD
  2
AcDbXrecord
  3
AutoCAD 2000
 90
        0
280
     0
281
     0
  0
CLASS
  1
TABLESTYLE
  2
AcDbTableStyle
  3
ObjectDBX Classes
 90
     2047
280
     1
281
     0
  0
CLASS
  1
SORTENTSTABLE
  2
AcDbSortentsTable
  3
AutoCAD 2000
 90
        0
280
     0
281
     0
  0
ENDSEC
  0
SECTION
  2
TABLES
  0
TABLE
  2
VPORT
  5
1D
330
0
100
AcDbSymbolTable
 70
     5
  0
VPORT
  5
4FB
330
1D
100
AcDbSymbolTableRecord
100
AcDbViewportTableRecord
  2
*Active
 70
     0
 10
0.0
 20
0.0
 11
1.0
 21
1.0
 12
4.730633680227729
 22
9.357219350951759
 13
0.0
 23
0.0
 14
0.063
 24
0.063
 15
0.25
 25
0.25
 16
0.0
 26
0.0
 36
1.0
 17
0.0
 27
0.0
 37
0.0
 40
32.43921170048834
 41
1.814583333333333
 42
50.0
 43
0.0
 44
0.0
 50
0.0
 51
0.0
 71
     0
 72
   100
 73
     1
 74
     1
 75
     0
 76
     0
 77
     0
 78
     0
281
     0
 65
     1
110
0.0
120
0.0
130
0.0
111
1.0
121
0.0
131
0.0
112
0.0
122
1.0
132
0.0
 79
     0
146
0.0
  0
ENDTAB
  0
TABLE
  2
LTYPE
  5
18
330
0
100
AcDbSymbolTable
 70
     2
  0
LTYPE
  5
19
330
18
100
AcDbSymbolTableRecord
100
AcDbLinetypeTableRecord
  2
BYBLOCK
 70
     0
  3

 72
    65
 73
     0
 40
0.0
  0
LTYPE
  5
1A
330
18
100
AcDbSymbolTableRecord
100
AcDbLinetypeTableRecord
  2
BYLAYER
 70
     0
  3

 72
    65
 73
     0
 40
0.0
  0
LTYPE
  5
A
330
18
100
AcDbSymbolTableRecord
100
AcDbLinetypeTableRecord
  2
CONTINUOUS
 70
     0
  3
Solid line
 72
    65
 73
     0
 40
0.0
  0
LTYPE
  5
4EE
330
18
100
AcDbSymbolTableRecord
100
AcDbLinetypeTableRecord
  2
HIDDEN
 70
     0
  3
Hidden __ __ __ __ __ __ __ __ __ __ __ __ __ _
 72
    65
 73
     2
 40
0.375
 49
0.25
 74
     0
 49
-0.125
 74
     0
  0
ENDTAB
  0
TABLE
  2
LAYER
  5
14
330
0
100
AcDbSymbolTable
 70
     2
  0
LAYER
  5
6
330
14
100
AcDbSymbolTableRecord
100
AcDbLayerTableRecord
  2
0
 70
     0
 62
     7
  6
CONTINUOUS
370
    -3
390
7
  0
ENDTAB
  0
TABLE
  2
STYLE
  5
15
330
0
100
AcDbSymbolTable
 70
     2
  0
STYLE
  5
16
330
15
100
AcDbSymbolTableRecord
100
AcDbTextStyleTableRecord
  2
STANDARD
 70
     0
 40
0.0
 41
1.0
 50
0.0
 71
     0
 42
0.36
  3
TXT
  4

  0
STYLE
  5
4ED
330
15
100
AcDbSymbolTableRecord
100
AcDbTextStyleTableRecord
  2

 70
     1
 40
0.0
 41
1.0
 50
0.0
 71
     0
 42
0.36
  3
ltypeshp.shx
  4

  0
ENDTAB
  0
TABLE
  2
VIEW
  5
1B
330
0
100
AcDbSymbolTable
 70
     0
  0
ENDTAB
  0
TABLE
  2
UCS
  5
1C
330
0
100
AcDbSymbolTable
 70
     0
  0
ENDTAB
  0
TABLE
  2
APPID
  5
1F
330
0
100
AcDbSymbolTable
 70
     1
  0
APPID
  5
20
330
1F
100
AcDbSymbolTableRecord
100
AcDbRegAppTableRecord
  2
ACAD
 70
     0
  0
ENDTAB
  0
TABLE
  2
DIMSTYLE
  5
21
330
0
100
AcDbSymbolTable
 70
     1
100
AcDbDimStyleTable
  0
DIMSTYLE
105
27
330
21
100
AcDbSymbolTableRecord
100
AcDbDimStyleTableRecord
  2
STANDARD
 70
     0
  3

  4

340
16
  0
ENDTAB
  0
TABLE
  2
BLOCK_RECORD
  5
1
330
0
100
AcDbSymbolTable
 70
     0
  0
BLOCK_RECORD
  5
2
102
{ACAD_XDICTIONARY
360
3
102
}
330
1
100
AcDbSymbolTableRecord
100
AcDbBlockTableRecord
  2
*MODEL_SPACE
340
C
  0
BLOCK_RECORD
  5
E
330
1
100
AcDbSymbolTableRecord
100
AcDbBlockTableRecord
  2
*PAPER_SPACE
340
13
  0
ENDTAB
  0
ENDSEC
  0
SECTION
  2
BLOCKS
  0
BLOCK
  5
5
330
2
100
AcDbEntity
  8
0
100
AcDbBlockBegin
  2
*MODEL_SPACE
 70
     0
 10
0.0
 20
0.0
 30
0.0
  3
*MODEL_SPACE
  1

  4

  0
ENDBLK
  5
B
330
2
100
AcDbEntity
  8
0
100
AcDbBlockEnd
  0
BLOCK
  5
11
330
E
100
AcDbEntity
 67
     1
  8
0
100
AcDbBlockBegin
  2
*PAPER_SPACE
 70
     0
 10
0.0
 20
0.0
 30
0.0
  3
*PAPER_SPACE
  1

  4

  0
ENDBLK
  5
12
330
E
100
AcDbEntity
 67
     1
  8
0
100
AcDbBlockEnd
  0
ENDSEC
  0
SECTION
  2
ENTITIES
  0
ARC
  5
236
330
2
100
AcDbEntity
  8
0
100
AcDbCircle
 10
-6.170969104289118
 20
6.035647300999994
 30
0.0
 40
0.125
100
AcDbArc
 50
315.0
 51
0.0
  0
ARC
  5
237
330
2
100
AcDbEntity
  8
0
100
AcDbCircle
 10
6.170969104289122
 20
6.027723575999996
 30
0.0
 40
0.125
100
AcDbArc
 50
180.0
 51
225.0
  0
CIRCLE
  5
238
330
2
100
AcDbEntity
  8
0
100
AcDbCircle
 10
5.045964181135838
 20
6.031250000000007
 30
0.0
 40
0.0855
  0
CIRCLE
  5
239
330
2
100
AcDbEntity
  8
0
100
AcDbCircle
 10
-5.045964181135834
 20
6.039173724782668
 30
0.0
 40
0.0855
  0
LINE
  5
23A
330
2
100
AcDbEntity
  8
0
100
AcDbLine
 10
3.72626418113584
 20
0.1874999999999965
 30
0.0
 11
3.726264181135833
 21
12.53125
 31
0.0
  0
LINE
  5
23B
330
2
100
AcDbEntity
  8
0
100
AcDbLine
 10
-3.726264181135837
 20
0.1875
 30
0.0
 11
-3.726264181135837
 21
12.53917372478266
 31
0.0
  0
LINE
  5
23C
330
2
100
AcDbEntity
  8
0
100
AcDbLine
 10
3.63251418113584
 20
0.1875
 30
0.0
 11
3.63251418113584
 21
12.53125
 31
0.0
  0
LINE
  5
23D
330
2
100
AcDbEntity
  8
0
100
AcDbLine
 10
-3.632514181135837
 20
0.1875
 30
0.0
 11
-3.632514181135837
 21
12.53917372478266
 31
0.0
  0
LINE
  5
23E
330
2
100
AcDbEntity
  8
0
100
AcDbLine
 10
-3.928971641150771
 20
5.085665802927396
 30
0.0
 11
-3.737875057503755
 21
5.085665802927396
 31
0.0
  0
LINE
  5
23F
330
2
100
AcDbEntity
  8
0
100
AcDbLine
 10
-3.924814815072065
 20
5.256665802927397
 30
0.0
 11
-3.737875057503755
 21
5.256665802927394
 31
0.0
  0
LINE
  5
240
330
2
100
AcDbEntity
  8
0
100
AcDbLine
 10
-3.924814815072065
 20
4.233109662786299
 30
0.0
 11
-3.737875057503755
 21
4.233109662786298
 31
0.0
  0
LINE
  5
241
330
2
100
AcDbEntity
  8
0
100
AcDbLine
 10
-3.928971641150771
 20
4.0621096627863
 30
0.0
 11
-3.737875057503755
 21
4.0621096627863
 31
0.0
  0
LINE
  5
242
330
2
100
AcDbEntity
  8
0
100
AcDbLine
 10
-3.928971641150771
 20
3.036640333598209
 30
0.0
 11
-3.737875057503755
 21
3.036640333598209
 31
0.0
  0
LINE
  5
243
330
2
100
AcDbEntity
  8
0
100
AcDbLine
 10
-3.924814815072065
 20
3.207640333598208
 30
0.0
 11
-3.737875057503755
 21
3.207640333598206
 31
0.0
  0
LINE
  5
244
330
2
100
AcDbEntity
  8
0
100
AcDbLine
 10
-3.928971641150771
 20
2.076219432007871
 30
0.0
 11
-3.737875057503755
 21
2.076219432007871
 31
0.0
  0
LINE
  5
245
330
2
100
AcDbEntity
  8
0
100
AcDbLine
 10
-3.924814815072065
 20
2.247219432007871
 30
0.0
 11
-3.737875057503755
 21
2.247219432007869
 31
0.0
  0
LINE
  5
246
330
2
100
AcDbEntity
  8
0
100
AcDbLine
 10
-3.924814815072065
 20
1.223663291866773
 30
0.0
 11
-3.737875057503755
 21
1.223663291866771
 31
0.0
  0
LINE
  5
247
330
2
100
AcDbEntity
  8
0
100
AcDbLine
 10
-3.928971641150771
 20
1.052663291866775
 30
0.0
 11
-3.737875057503755
 21
1.052663291866775
 31
0.0
  0
LINE
  5
248
330
2
100
AcDbEntity
  8
0
100
AcDbLine
 10
-6.045969104289118
 20
2.483870605999995
 30
0.0
 11
-3.820934968289117
 21
0.3213437889999931
 31
0.0
  0
ARC
  5
249
330
2
100
AcDbEntity
  8
0
100
AcDbCircle
 10
-6.233469104289118
 20
3.494593910999994
 30
0.0
 40
0.125
100
AcDbArc
 50
135.0
 51
180.0
  0
CIRCLE
  5
24A
330
2
100
AcDbEntity
  8
0
100
AcDbCircle
 10
-5.045964181135834
 20
2.289173724782661
 30
0.0
 40
0.0855
  0
CIRCLE
  5
24B
330
2
100
AcDbEntity
  8
0
100
AcDbCircle
 10
-4.483464181135827
 20
1.601673724782661
 30
0.0
 40
0.0855
  0
ARC
  5
24C
330
2
100
AcDbEntity
  8
0
100
AcDbCircle
 10
-3.830007471616011
 20
1.135808103333051
 30
0.0
 40
0.1292554313189278
100
AcDbArc
 50
137.1796312694826
 51
220.0353196785141
  0
ARC
  5
24D
330
2
100
AcDbEntity
  8
0
100
AcDbCircle
 10
-3.830007471616011
 20
2.159364243474151
 30
0.0
 40
0.1292554313189278
100
AcDbArc
 50
137.1796312694826
 51
220.0353196785141
  0
CIRCLE
  5
24E
330
2
100
AcDbEntity
  8
0
100
AcDbCircle
 10
-5.358464181135834
 20
3.039173724782661
 30
0.0
 40
0.0855
  0
LINE
  5
24F
330
2
100
AcDbEntity
  8
0
100
AcDbLine
 10
-6.358469104289118
 20
3.494593910999994
 30
0.0
 11
-6.358469104289118
 21
2.848147300999994
 31
0.0
  0
LINE
  5
250
330
2
100
AcDbEntity
  8
0
100
AcDbLine
 10
-6.321857452289117
 20
2.759758952999995
 30
0.0
 11
-6.045969104289118
 21
2.483870605999995
 31
0.0
  0
ARC
  5
251
330
2
100
AcDbEntity
  8
0
100
AcDbCircle
 10
-6.233469104289118
 20
2.848147300999994
 30
0.0
 40
0.125
100
AcDbArc
 50
180.0
 51
225.0
  0
CIRCLE
  5
252
330
2
100
AcDbEntity
  8
0
100
AcDbCircle
 10
-6.108464181135834
 20
3.289173724782661
 30
0.0
 40
0.0855
  0
LINE
  5
253
330
2
100
AcDbEntity
  8
0
100
AcDbLine
 10
-4.420964181135827
 20
2.874673724782664
 30
0.0
 11
-4.295964181135827
 21
2.874673724782664
 31
0.0
  0
LINE
  5
254
330
2
100
AcDbEntity
  8
0
100
AcDbLine
 10
-4.420964181135827
 20
2.703673724782664
 30
0.0
 11
-4.295964181135827
 21
2.703673724782664
 31
0.0
  0
ARC
  5
255
330
2
100
AcDbEntity
  8
0
100
AcDbCircle
 10
-4.420964181135827
 20
2.789173724782668
 30
0.0
 40
0.0855
100
AcDbArc
 50
90.00000000000003
 51
270.0
  0
ARC
  5
256
330
2
100
AcDbEntity
  8
0
100
AcDbCircle
 10
-4.295964181135827
 20
2.789173724782668
 30
0.0
 40
0.0855
100
AcDbArc
 50
270.0
 51
90.00000000000003
  0
CIRCLE
  5
257
330
2
100
AcDbEntity
  8
0
100
AcDbCircle
 10
-4.483464181135827
 20
3.289173724782661
 30
0.0
 40
0.0855
  0
ARC
  5
258
330
2
100
AcDbEntity
  8
0
100
AcDbCircle
 10
-3.830007471616011
 20
3.119785145064489
 30
0.0
 40
0.1292554313189278
100
AcDbArc
 50
137.1796312694826
 51
220.0353196785141
  0
ARC
  5
259
330
2
100
AcDbEntity
  8
0
100
AcDbCircle
 10
-4.420964181135827
 20
4.789173724782668
 30
0.0
 40
0.0855
100
AcDbArc
 50
90.00000000000003
 51
270.0
  0
ARC
  5
25A
330
2
100
AcDbEntity
  8
0
100
AcDbCircle
 10
-4.295964181135827
 20
4.789173724782668
 30
0.0
 40
0.0855
100
AcDbArc
 50
270.0
 51
90.00000000000003
  0
LINE
  5
25B
330
2
100
AcDbEntity
  8
0
100
AcDbLine
 10
-6.321857452289117
 20
4.884758952999995
 30
0.0
 11
-6.08258075728912
 21
4.645482257999994
 31
0.0
  0
LINE
  5
25C
330
2
100
AcDbEntity
  8
0
100
AcDbLine
 10
-6.045969104289118
 20
4.557093910999994
 30
0.0
 11
-6.045969104289118
 21
3.910647094999995
 31
0.0
  0
LINE
  5
25D
330
2
100
AcDbEntity
  8
0
100
AcDbLine
 10
-6.08258075728912
 20
3.822258952999995
 30
0.0
 11
-6.321857452289117
 21
3.582982257999994
 31
0.0
  0
CIRCLE
  5
25E
330
2
100
AcDbEntity
  8
0
100
AcDbCircle
 10
-5.577214181135841
 20
3.664173724782661
 30
0.0
 40
0.0855
  0
ARC
  5
25F
330
2
100
AcDbEntity
  8
0
100
AcDbCircle
 10
-6.170969104289118
 20
3.910647300999994
 30
0.0
 40
0.125
100
AcDbArc
 50
315.0
 51
0.0
  0
ARC
  5
260
330
2
100
AcDbEntity
  8
0
100
AcDbCircle
 10
-6.170969104289118
 20
4.557093910999994
 30
0.0
 40
0.125
100
AcDbArc
 50
0.0
 51
45.0
  0
CIRCLE
  5
261
330
2
100
AcDbEntity
  8
0
100
AcDbCircle
 10
-5.795964181135834
 20
4.289173724782661
 30
0.0
 40
0.0855
  0
ARC
  5
262
330
2
100
AcDbEntity
  8
0
100
AcDbCircle
 10
-3.830007471616011
 20
4.14525447425258
 30
0.0
 40
0.1292554313189278
100
AcDbArc
 50
137.1796312694826
 51
220.0353196785141
  0
CIRCLE
  5
263
330
2
100
AcDbEntity
  8
0
100
AcDbCircle
 10
-5.045964181135834
 20
4.039173724782661
 30
0.0
 40
0.0855
  0
LINE
  5
264
330
2
100
AcDbEntity
  8
0
100
AcDbLine
 10
-4.420964181135827
 20
4.703673724782664
 30
0.0
 11
-4.295964181135827
 21
4.703673724782664
 31
0.0
  0
ARC
  5
265
330
2
100
AcDbEntity
  8
0
100
AcDbCircle
 10
-4.295964181135827
 20
4.289173724782668
 30
0.0
 40
0.0855
100
AcDbArc
 50
270.0
 51
90.00000000000003
  0
ARC
  5
266
330
2
100
AcDbEntity
  8
0
100
AcDbCircle
 10
-4.420964181135827
 20
4.289173724782668
 30
0.0
 40
0.0855
100
AcDbArc
 50
90.00000000000003
 51
270.0
  0
LINE
  5
267
330
2
100
AcDbEntity
  8
0
100
AcDbLine
 10
-4.420964181135827
 20
4.374673724782664
 30
0.0
 11
-4.295964181135827
 21
4.374673724782664
 31
0.0
  0
LINE
  5
268
330
2
100
AcDbEntity
  8
0
100
AcDbLine
 10
-4.420964181135827
 20
4.203673724782664
 30
0.0
 11
-4.295964181135827
 21
4.203673724782664
 31
0.0
  0
CIRCLE
  5
269
330
2
100
AcDbEntity
  8
0
100
AcDbCircle
 10
-5.358464181135834
 20
5.039173724782661
 30
0.0
 40
0.0855
  0
LINE
  5
26A
330
2
100
AcDbEntity
  8
0
100
AcDbLine
 10
-6.358469104289118
 20
5.619593910999996
 30
0.0
 11
-6.358469104289118
 21
4.973147300999994
 31
0.0
  0
ARC
  5
26B
330
2
100
AcDbEntity
  8
0
100
AcDbCircle
 10
-6.233469104289118
 20
4.973147300999994
 30
0.0
 40
0.125
100
AcDbArc
 50
180.0
 51
225.0
  0
CIRCLE
  5
26C
330
2
100
AcDbEntity
  8
0
100
AcDbCircle
 10
-6.108464181135834
 20
5.289173724782661
 30
0.0
 40
0.0855
  0
LINE
  5
26D
330
2
100
AcDbEntity
  8
0
100
AcDbLine
 10
-6.08258075728912
 20
5.947258952999995
 30
0.0
 11
-6.321857452289117
 21
5.707982257999994
 31
0.0
  0
ARC
  5
26E
330
2
100
AcDbEntity
  8
0
100
AcDbCircle
 10
-6.233469104289118
 20
5.619593910999996
 30
0.0
 40
0.125
100
AcDbArc
 50
135.0
 51
180.0
  0
CIRCLE
  5
26F
330
2
100
AcDbEntity
  8
0
100
AcDbCircle
 10
-5.577214181135841
 20
5.664173724782661
 30
0.0
 40
0.0855
  0
CIRCLE
  5
270
330
2
100
AcDbEntity
  8
0
100
AcDbCircle
 10
-4.483464181135827
 20
5.414173724782661
 30
0.0
 40
0.0855
  0
LINE
  5
271
330
2
100
AcDbEntity
  8
0
100
AcDbLine
 10
-4.420964181135827
 20
4.874673724782664
 30
0.0
 11
-4.295964181135827
 21
4.874673724782664
 31
0.0
  0
ARC
  5
272
330
2
100
AcDbEntity
  8
0
100
AcDbCircle
 10
-3.830007471616011
 20
5.168810614393674
 30
0.0
 40
0.1292554313189278
100
AcDbArc
 50
137.1796312694826
 51
220.0353196785141
  0
LINE
  5
273
330
2
100
AcDbEntity
  8
0
100
AcDbLine
 10
6.045969104289122
 20
2.475946880999995
 30
0.0
 11
3.820934968289124
 21
0.3134200639999953
 31
0.0
  0
LINE
  5
274
330
2
100
AcDbEntity
  8
0
100
AcDbLine
 10
-3.538764181135837
 20
0.09375
 30
0.0
 11
3.53876418113584
 21
0.09375
 31
0.0
  0
LINE
  5
275
330
2
100
AcDbEntity
  8
0
100
AcDbLine
 10
-3.538764181135837
 20
0.0000000000000036
 30
0.0
 11
3.53876418113584
 21
-0.0000000000000036
 31
0.0
  0
ARC
  5
276
330
2
100
AcDbEntity
  8
0
100
AcDbCircle
 10
-4.351264181289118
 20
-0.2089871690000074
 30
0.0
 40
0.75
100
AcDbArc
 50
33.557309762
 51
45.000094244
  0
ARC
  5
277
330
2
100
AcDbEntity
  8
0
100
AcDbCircle
 10
-3.538764181135837
 20
0.1875
 30
0.0
 40
0.09375
100
AcDbArc
 50
180.0
 51
269.9999999999998
  0
ARC
  5
278
330
2
100
AcDbEntity
  8
0
100
AcDbCircle
 10
-3.538764181135837
 20
0.1875
 30
0.0
 40
0.1875
100
AcDbArc
 50
180.0
 51
270.0
  0
LINE
  5
279
330
2
100
AcDbEntity
  8
0
100
AcDbLine
 10
3.924814815072069
 20
0.8486632918667745
 30
0.0
 11
3.737875057503765
 21
0.8486632918667709
 31
0.0
  0
LINE
  5
27A
330
2
100
AcDbEntity
  8
0
100
AcDbLine
 10
3.928971641150782
 20
0.6776632918667751
 30
0.0
 11
3.737875057503765
 21
0.6776632918667751
 31
0.0
  0
ARC
  5
27B
330
2
100
AcDbEntity
  8
0
100
AcDbCircle
 10
4.351264181289118
 20
-0.2169108940000051
 30
0.0
 40
0.75
100
AcDbArc
 50
134.999905756
 51
146.442690238
  0
ARC
  5
27C
330
2
100
AcDbEntity
  8
0
100
AcDbCircle
 10
3.53876418113584
 20
0.1875
 30
0.0
 40
0.09375
100
AcDbArc
 50
270.0
 51
0.0
  0
ARC
  5
27D
330
2
100
AcDbEntity
  8
0
100
AcDbCircle
 10
3.53876418113584
 20
0.1874999999999965
 30
0.0
 40
0.1875
100
AcDbArc
 50
270.0
 51
0.0
  0
ARC
  5
27E
330
2
100
AcDbEntity
  8
0
100
AcDbCircle
 10
3.830007471616022
 20
0.7608081033330514
 30
0.0
 40
0.1292554313189278
100
AcDbArc
 50
319.9646803214859
 51
42.82036873051739
  0
ARC
  5
27F
330
2
100
AcDbEntity
  8
0
100
AcDbCircle
 10
6.233469104289122
 20
3.486670185999994
 30
0.0
 40
0.125
100
AcDbArc
 50
0.0
 51
45.0
  0
CIRCLE
  5
280
330
2
100
AcDbEntity
  8
0
100
AcDbCircle
 10
5.358464181135845
 20
3.031250000000004
 30
0.0
 40
0.0855
  0
CIRCLE
  5
281
330
2
100
AcDbEntity
  8
0
100
AcDbCircle
 10
5.045964181135845
 20
2.281250000000004
 30
0.0
 40
0.0855
  0
LINE
  5
282
330
2
100
AcDbEntity
  8
0
100
AcDbLine
 10
3.924814815072069
 20
1.872219432007871
 30
0.0
 11
3.737875057503765
 21
1.872219432007869
 31
0.0
  0
LINE
  5
283
330
2
100
AcDbEntity
  8
0
100
AcDbLine
 10
3.928971641150782
 20
1.701219432007871
 30
0.0
 11
3.737875057503765
 21
1.701219432007871
 31
0.0
  0
CIRCLE
  5
284
330
2
100
AcDbEntity
  8
0
100
AcDbCircle
 10
4.483464181135838
 20
1.59375
 30
0.0
 40
0.0855
  0
ARC
  5
285
330
2
100
AcDbEntity
  8
0
100
AcDbCircle
 10
3.830007471616022
 20
1.784364243474151
 30
0.0
 40
0.1292554313189278
100
AcDbArc
 50
319.9646803214859
 51
42.82036873051739
  0
LINE
  5
286
330
2
100
AcDbEntity
  8
0
100
AcDbLine
 10
3.924814815072069
 20
2.832640333598208
 30
0.0
 11
3.737875057503765
 21
2.832640333598206
 31
0.0
  0
LINE
  5
287
330
2
100
AcDbEntity
  8
0
100
AcDbLine
 10
3.928971641150782
 20
2.661640333598209
 30
0.0
 11
3.737875057503765
 21
2.661640333598209
 31
0.0
  0
ARC
  5
288
330
2
100
AcDbEntity
  8
0
100
AcDbCircle
 10
4.295964181135831
 20
2.781250000000004
 30
0.0
 40
0.0855
100
AcDbArc
 50
89.99999999999999
 51
270.0
  0
ARC
  5
289
330
2
100
AcDbEntity
  8
0
100
AcDbCircle
 10
4.420964181135831
 20
2.781250000000004
 30
0.0
 40
0.0855
100
AcDbArc
 50
270.0
 51
89.99999999999999
  0
LINE
  5
28A
330
2
100
AcDbEntity
  8
0
100
AcDbLine
 10
4.420964181135831
 20
2.866750000000007
 30
0.0
 11
4.295964181135831
 21
2.866750000000007
 31
0.0
  0
LINE
  5
28B
330
2
100
AcDbEntity
  8
0
100
AcDbLine
 10
4.420964181135831
 20
2.695750000000007
 30
0.0
 11
4.295964181135831
 21
2.695750000000007
 31
0.0
  0
ARC
  5
28C
330
2
100
AcDbEntity
  8
0
100
AcDbCircle
 10
3.830007471616022
 20
2.744785145064489
 30
0.0
 40
0.1292554313189278
100
AcDbArc
 50
319.9646803214859
 51
42.82036873051739
  0
CIRCLE
  5
28D
330
2
100
AcDbEntity
  8
0
100
AcDbCircle
 10
4.483464181135838
 20
3.281250000000004
 30
0.0
 40
0.0855
  0
LINE
  5
28E
330
2
100
AcDbEntity
  8
0
100
AcDbLine
 10
6.358469104289122
 20
3.486670185999994
 30
0.0
 11
6.358469104289122
 21
2.840223575999994
 31
0.0
  0
LINE
  5
28F
330
2
100
AcDbEntity
  8
0
100
AcDbLine
 10
6.321857452289124
 20
2.751835228999994
 30
0.0
 11
6.045969104289122
 21
2.475946880999995
 31
0.0
  0
ARC
  5
290
330
2
100
AcDbEntity
  8
0
100
AcDbCircle
 10
6.233469104289122
 20
2.840223575999994
 30
0.0
 40
0.125
100
AcDbArc
 50
315.0
 51
0.0
  0
CIRCLE
  5
291
330
2
100
AcDbEntity
  8
0
100
AcDbCircle
 10
6.108464181135845
 20
3.281250000000004
 30
0.0
 40
0.0855
  0
CIRCLE
  5
292
330
2
100
AcDbEntity
  8
0
100
AcDbCircle
 10
5.358464181135845
 20
5.03125
 30
0.0
 40
0.0855
  0
ARC
  5
293
330
2
100
AcDbEntity
  8
0
100
AcDbCircle
 10
4.295964181135831
 20
4.781250000000007
 30
0.0
 40
0.0855
100
AcDbArc
 50
89.99999999999999
 51
270.0
  0
ARC
  5
294
330
2
100
AcDbEntity
  8
0
100
AcDbCircle
 10
4.420964181135831
 20
4.781250000000007
 30
0.0
 40
0.0855
100
AcDbArc
 50
270.0
 51
89.99999999999999
  0
ARC
  5
295
330
2
100
AcDbEntity
  8
0
100
AcDbCircle
 10
3.830007471616022
 20
4.793810614393676
 30
0.0
 40
0.1292554313189278
100
AcDbArc
 50
319.9646803214859
 51
42.82036873051739
  0
LINE
  5
296
330
2
100
AcDbEntity
  8
0
100
AcDbLine
 10
3.928971641150782
 20
4.710665802927396
 30
0.0
 11
3.737875057503765
 21
4.710665802927396
 31
0.0
  0
LINE
  5
297
330
2
100
AcDbEntity
  8
0
100
AcDbLine
 10
3.924814815072069
 20
3.858109662786299
 30
0.0
 11
3.737875057503765
 21
3.858109662786298
 31
0.0
  0
LINE
  5
298
330
2
100
AcDbEntity
  8
0
100
AcDbLine
 10
3.928971641150782
 20
3.6871096627863
 30
0.0
 11
3.737875057503765
 21
3.6871096627863
 31
0.0
  0
ARC
  5
299
330
2
100
AcDbEntity
  8
0
100
AcDbCircle
 10
3.830007471616022
 20
3.77025447425258
 30
0.0
 40
0.1292554313189278
100
AcDbArc
 50
319.9646803214859
 51
42.82036873051739
  0
CIRCLE
  5
29A
330
2
100
AcDbEntity
  8
0
100
AcDbCircle
 10
5.045964181135845
 20
4.031250000000004
 30
0.0
 40
0.0855
  0
LINE
  5
29B
330
2
100
AcDbEntity
  8
0
100
AcDbLine
 10
4.420964181135831
 20
4.695750000000007
 30
0.0
 11
4.295964181135831
 21
4.695750000000007
 31
0.0
  0
LINE
  5
29C
330
2
100
AcDbEntity
  8
0
100
AcDbLine
 10
4.420964181135831
 20
4.195750000000007
 30
0.0
 11
4.295964181135831
 21
4.195750000000007
 31
0.0
  0
LINE
  5
29D
330
2
100
AcDbEntity
  8
0
100
AcDbLine
 10
4.420964181135831
 20
4.366750000000007
 30
0.0
 11
4.295964181135831
 21
4.366750000000007
 31
0.0
  0
ARC
  5
29E
330
2
100
AcDbEntity
  8
0
100
AcDbCircle
 10
4.420964181135831
 20
4.281250000000004
 30
0.0
 40
0.0855
100
AcDbArc
 50
270.0
 51
89.99999999999999
  0
ARC
  5
29F
330
2
100
AcDbEntity
  8
0
100
AcDbCircle
 10
4.295964181135831
 20
4.281250000000004
 30
0.0
 40
0.0855
100
AcDbArc
 50
89.99999999999999
 51
270.0
  0
LINE
  5
2A0
330
2
100
AcDbEntity
  8
0
100
AcDbLine
 10
3.924814815072069
 20
4.881665802927396
 30
0.0
 11
3.737875057503765
 21
4.881665802927394
 31
0.0
  0
CIRCLE
  5
2A1
330
2
100
AcDbEntity
  8
0
100
AcDbCircle
 10
4.483464181135838
 20
5.40625
 30
0.0
 40
0.0855
  0
LINE
  5
2A2
330
2
100
AcDbEntity
  8
0
100
AcDbLine
 10
4.420964181135831
 20
4.866750000000007
 30
0.0
 11
4.295964181135831
 21
4.866750000000007
 31
0.0
  0
LINE
  5
2A3
330
2
100
AcDbEntity
  8
0
100
AcDbLine
 10
6.321857452289124
 20
4.876835228999994
 30
0.0
 11
6.082580757289123
 21
4.637558532999995
 31
0.0
  0
LINE
  5
2A4
330
2
100
AcDbEntity
  8
0
100
AcDbLine
 10
6.045969104289122
 20
3.902723575999994
 30
0.0
 11
6.045969104289122
 21
4.413446880999995
 31
0.0
  0
LINE
  5
2A5
330
2
100
AcDbEntity
  8
0
100
AcDbLine
 10
6.045969104289122
 20
4.549170185999994
 30
0.0
 11
6.045969104289122
 21
3.902723369999995
 31
0.0
  0
LINE
  5
2A6
330
2
100
AcDbEntity
  8
0
100
AcDbLine
 10
6.082580757289123
 20
3.814335228999994
 30
0.0
 11
6.321857452289124
 21
3.575058532999995
 31
0.0
  0
ARC
  5
2A7
330
2
100
AcDbEntity
  8
0
100
AcDbCircle
 10
6.170969104289122
 20
3.902723575999994
 30
0.0
 40
0.125
100
AcDbArc
 50
180.0
 51
225.0
  0
CIRCLE
  5
2A8
330
2
100
AcDbEntity
  8
0
100
AcDbCircle
 10
5.577214181135845
 20
3.65625
 30
0.0
 40
0.0855
  0
ARC
  5
2A9
330
2
100
AcDbEntity
  8
0
100
AcDbCircle
 10
6.170969104289122
 20
4.549170185999994
 30
0.0
 40
0.125
100
AcDbArc
 50
135.0
 51
180.0
  0
CIRCLE
  5
2AA
330
2
100
AcDbEntity
  8
0
100
AcDbCircle
 10
5.795964181135845
 20
4.281250000000004
 30
0.0
 40
0.0855
  0
LINE
  5
2AB
330
2
100
AcDbEntity
  8
0
100
AcDbLine
 10
6.358469104289122
 20
5.611670185999994
 30
0.0
 11
6.358469104289122
 21
4.965223575999994
 31
0.0
  0
CIRCLE
  5
2AC
330
2
100
AcDbEntity
  8
0
100
AcDbCircle
 10
6.108464181135845
 20
5.28125
 30
0.0
 40
0.0855
  0
ARC
  5
2AD
330
2
100
AcDbEntity
  8
0
100
AcDbCircle
 10
6.233469104289122
 20
4.965223575999994
 30
0.0
 40
0.125
100
AcDbArc
 50
315.0
 51
0.0
  0
LINE
  5
2AE
330
2
100
AcDbEntity
  8
0
100
AcDbLine
 10
6.082580757289123
 20
5.939335228999994
 30
0.0
 11
6.321857452289124
 21
5.700058532999996
 31
0.0
  0
CIRCLE
  5
2AF
330
2
100
AcDbEntity
  8
0
100
AcDbCircle
 10
5.577214181135845
 20
5.65625
 30
0.0
 40
0.0855
  0
ARC
  5
2B0
330
2
100
AcDbEntity
  8
0
100
AcDbCircle
 10
6.233469104289122
 20
5.611670185999994
 30
0.0
 40
0.125
100
AcDbArc
 50
0.0
 51
45.0
  0
LINE
  5
2B1
330
2
100
AcDbEntity
  8
0
100
AcDbLine
 10
-3.924814815072065
 20
11.24255603370583
 30
0.0
 11
-3.737875057503755
 21
11.24255603370582
 31
0.0
  0
LINE
  5
2B2
330
2
100
AcDbEntity
  8
0
100
AcDbLine
 10
-3.928971641150771
 20
11.07155603370583
 30
0.0
 11
-3.737875057503755
 21
11.07155603370583
 31
0.0
  0
LINE
  5
2B3
330
2
100
AcDbEntity
  8
0
100
AcDbLine
 10
-3.632514181135837
 20
12.53917372478266
 30
0.0
 11
-6.045969104289118
 21
12.53917372478266
 31
0.0
  0
LINE
  5
2B4
330
2
100
AcDbEntity
  8
0
100
AcDbLine
 10
-3.924814815072065
 20
9.242556033705828
 30
0.0
 11
-3.737875057503755
 21
9.242556033705824
 31
0.0
  0
LINE
  5
2B5
330
2
100
AcDbEntity
  8
0
100
AcDbLine
 10
-3.928971641150771
 20
9.071556033705829
 30
0.0
 11
-3.737875057503755
 21
9.071556033705829
 31
0.0
  0
LINE
  5
2B6
330
2
100
AcDbEntity
  8
0
100
AcDbLine
 10
-3.928971641150771
 20
7.071556033705829
 30
0.0
 11
-3.737875057503755
 21
7.071556033705829
 31
0.0
  0
LINE
  5
2B7
330
2
100
AcDbEntity
  8
0
100
AcDbLine
 10
-3.924814815072065
 20
7.242556033705828
 30
0.0
 11
-3.737875057503755
 21
7.242556033705824
 31
0.0
  0
CIRCLE
  5
2B8
330
2
100
AcDbEntity
  8
0
100
AcDbCircle
 10
-5.358464181135834
 20
11.03917372478266
 30
0.0
 40
0.0855
  0
LINE
  5
2B9
330
2
100
AcDbEntity
  8
0
100
AcDbLine
 10
-6.358469104289118
 20
11.619593911
 30
0.0
 11
-6.358469104289118
 21
10.97314730099999
 31
0.0
  0
LINE
  5
2BA
330
2
100
AcDbEntity
  8
0
100
AcDbLine
 10
-6.045969104289118
 20
8.027723677999994
 30
0.0
 11
-6.045969104289118
 21
8.557093910999996
 31
0.0
  0
LINE
  5
2BB
330
2
100
AcDbEntity
  8
0
100
AcDbLine
 10
-6.358469104289118
 20
7.611670185999994
 30
0.0
 11
-6.358469104289118
 21
6.965223575999996
 31
0.0
  0
CIRCLE
  5
2BC
330
2
100
AcDbEntity
  8
0
100
AcDbCircle
 10
-6.108464181135834
 20
7.289173724782661
 30
0.0
 40
0.0855
  0
CIRCLE
  5
2BD
330
2
100
AcDbEntity
  8
0
100
AcDbCircle
 10
-5.358464181135834
 20
7.039173724782661
 30
0.0
 40
0.0855
  0
ARC
  5
2BE
330
2
100
AcDbEntity
  8
0
100
AcDbCircle
 10
-6.170969104289118
 20
6.549170185999994
 30
0.0
 40
0.125
100
AcDbArc
 50
0.0
 51
45.0
  0
LINE
  5
2BF
330
2
100
AcDbEntity
  8
0
100
AcDbLine
 10
-6.045969104289118
 20
6.539173724999994
 30
0.0
 11
-6.045969104289118
 21
6.035647300999994
 31
0.0
  0
CIRCLE
  5
2C0
330
2
100
AcDbEntity
  8
0
100
AcDbCircle
 10
-5.795964181135834
 20
6.289173724782668
 30
0.0
 40
0.0855
  0
LINE
  5
2C1
330
2
100
AcDbEntity
  8
0
100
AcDbLine
 10
-6.321857452289117
 20
6.876835228999994
 30
0.0
 11
-6.082580757289116
 21
6.637558532999996
 31
0.0
  0
ARC
  5
2C2
330
2
100
AcDbEntity
  8
0
100
AcDbCircle
 10
-6.233469104289118
 20
6.965223575999996
 30
0.0
 40
0.125
100
AcDbArc
 50
180.0
 51
225.0
  0
ARC
  5
2C3
330
2
100
AcDbEntity
  8
0
100
AcDbCircle
 10
-4.295964181135827
 20
6.289173724782668
 30
0.0
 40
0.0855
100
AcDbArc
 50
270.0
 51
90.00000000000003
  0
ARC
  5
2C4
330
2
100
AcDbEntity
  8
0
100
AcDbCircle
 10
-4.420964181135827
 20
6.289173724782668
 30
0.0
 40
0.0855
100
AcDbArc
 50
90.00000000000003
 51
270.0
  0
LINE
  5
2C5
330
2
100
AcDbEntity
  8
0
100
AcDbLine
 10
-4.420964181135827
 20
6.374673724782664
 30
0.0
 11
-4.295964181135827
 21
6.374673724782664
 31
0.0
  0
LINE
  5
2C6
330
2
100
AcDbEntity
  8
0
100
AcDbLine
 10
-4.420964181135827
 20
6.203673724782664
 30
0.0
 11
-4.295964181135827
 21
6.203673724782664
 31
0.0
  0
ARC
  5
2C7
330
2
100
AcDbEntity
  8
0
100
AcDbCircle
 10
-3.830007471616011
 20
7.154700845172105
 30
0.0
 40
0.1292554313189278
100
AcDbArc
 50
137.1796312694826
 51
220.0353196785141
  0
LINE
  5
2C8
330
2
100
AcDbEntity
  8
0
100
AcDbLine
 10
-6.082580757289116
 20
7.939335228999994
 30
0.0
 11
-6.321857452289117
 21
7.700058532999996
 31
0.0
  0
ARC
  5
2C9
330
2
100
AcDbEntity
  8
0
100
AcDbCircle
 10
-6.233469104289118
 20
7.611670185999994
 30
0.0
 40
0.125
100
AcDbArc
 50
135.0
 51
180.0
  0
ARC
  5
2CA
330
2
100
AcDbEntity
  8
0
100
AcDbCircle
 10
-6.170969104289118
 20
8.027723575999996
 30
0.0
 40
0.125
100
AcDbArc
 50
315.0
 51
0.0
  0
CIRCLE
  5
2CB
330
2
100
AcDbEntity
  8
0
100
AcDbCircle
 10
-5.795964181135834
 20
8.289173724782668
 30
0.0
 40
0.0855
  0
CIRCLE
  5
2CC
330
2
100
AcDbEntity
  8
0
100
AcDbCircle
 10
-4.483464181135827
 20
7.65625
 30
0.0
 40
0.0855
  0
ARC
  5
2CD
330
2
100
AcDbEntity
  8
0
100
AcDbCircle
 10
-4.420964181135827
 20
8.289173724782668
 30
0.0
 40
0.0855
100
AcDbArc
 50
90.00000000000003
 51
270.0
  0
ARC
  5
2CE
330
2
100
AcDbEntity
  8
0
100
AcDbCircle
 10
-4.295964181135827
 20
8.289173724782668
 30
0.0
 40
0.0855
100
AcDbArc
 50
270.0
 51
90.00000000000003
  0
LINE
  5
2CF
330
2
100
AcDbEntity
  8
0
100
AcDbLine
 10
-4.420964181135827
 20
8.203673724782664
 30
0.0
 11
-4.295964181135827
 21
8.203673724782664
 31
0.0
  0
LINE
  5
2D0
330
2
100
AcDbEntity
  8
0
100
AcDbLine
 10
-4.420964181135827
 20
8.374673724782664
 30
0.0
 11
-4.295964181135827
 21
8.374673724782664
 31
0.0
  0
LINE
  5
2D1
330
2
100
AcDbEntity
  8
0
100
AcDbLine
 10
-6.082580757289116
 20
9.939335228999994
 30
0.0
 11
-6.321857452289117
 21
9.700058532999996
 31
0.0
  0
CIRCLE
  5
2D2
330
2
100
AcDbEntity
  8
0
100
AcDbCircle
 10
-5.358464181135834
 20
9.039173724782661
 30
0.0
 40
0.0855
  0
LINE
  5
2D3
330
2
100
AcDbEntity
  8
0
100
AcDbLine
 10
-6.358469104289118
 20
9.611670185999994
 30
0.0
 11
-6.358469104289118
 21
8.965223575999996
 31
0.0
  0
LINE
  5
2D4
330
2
100
AcDbEntity
  8
0
100
AcDbLine
 10
-6.321857452289117
 20
8.876835228999994
 30
0.0
 11
-6.082580757289116
 21
8.637558532999996
 31
0.0
  0
ARC
  5
2D5
330
2
100
AcDbEntity
  8
0
100
AcDbCircle
 10
-6.233469104289118
 20
8.965223575999996
 30
0.0
 40
0.125
100
AcDbArc
 50
180.0
 51
225.0
  0
ARC
  5
2D6
330
2
100
AcDbEntity
  8
0
100
AcDbCircle
 10
-6.170969104289118
 20
8.549170185999994
 30
0.0
 40
0.125
100
AcDbArc
 50
0.0
 51
45.0
  0
ARC
  5
2D7
330
2
100
AcDbEntity
  8
0
100
AcDbCircle
 10
-6.233469104289118
 20
9.611670185999994
 30
0.0
 40
0.125
100
AcDbArc
 50
135.0
 51
180.0
  0
CIRCLE
  5
2D8
330
2
100
AcDbEntity
  8
0
100
AcDbCircle
 10
-6.108464181135834
 20
9.289173724782661
 30
0.0
 40
0.0855
  0
ARC
  5
2D9
330
2
100
AcDbEntity
  8
0
100
AcDbCircle
 10
-3.830007471616011
 20
9.154700845172105
 30
0.0
 40
0.1292554313189278
100
AcDbArc
 50
137.1796312694826
 51
220.0353196785141
  0
CIRCLE
  5
2DA
330
2
100
AcDbEntity
  8
0
100
AcDbCircle
 10
-4.483464181135827
 20
9.65625
 30
0.0
 40
0.0855
  0
LINE
  5
2DB
330
2
100
AcDbEntity
  8
0
100
AcDbLine
 10
-6.045969104289118
 20
10.02772367799999
 30
0.0
 11
-6.045969104289118
 21
10.557093911
 31
0.0
  0
ARC
  5
2DC
330
2
100
AcDbEntity
  8
0
100
AcDbCircle
 10
-6.170969104289118
 20
10.027723576
 30
0.0
 40
0.125
100
AcDbArc
 50
315.0
 51
0.0
  0
CIRCLE
  5
2DD
330
2
100
AcDbEntity
  8
0
100
AcDbCircle
 10
-5.795964181135834
 20
10.28917372478267
 30
0.0
 40
0.0855
  0
LINE
  5
2DE
330
2
100
AcDbEntity
  8
0
100
AcDbLine
 10
-6.321857452289117
 20
10.884758953
 30
0.0
 11
-6.08258075728912
 21
10.64548225799999
 31
0.0
  0
ARC
  5
2DF
330
2
100
AcDbEntity
  8
0
100
AcDbCircle
 10
-6.233469104289118
 20
10.97314730099999
 30
0.0
 40
0.125
100
AcDbArc
 50
180.0
 51
225.0
  0
ARC
  5
2E0
330
2
100
AcDbEntity
  8
0
100
AcDbCircle
 10
-6.170969104289118
 20
10.557093911
 30
0.0
 40
0.125
100
AcDbArc
 50
0.0
 51
45.0
  0
LINE
  5
2E1
330
2
100
AcDbEntity
  8
0
100
AcDbLine
 10
-4.420964181135827
 20
10.37467372478266
 30
0.0
 11
-4.295964181135827
 21
10.37467372478266
 31
0.0
  0
LINE
  5
2E2
330
2
100
AcDbEntity
  8
0
100
AcDbLine
 10
-4.420964181135827
 20
10.20367372478266
 30
0.0
 11
-4.295964181135827
 21
10.20367372478266
 31
0.0
  0
ARC
  5
2E3
330
2
100
AcDbEntity
  8
0
100
AcDbCircle
 10
-4.420964181135827
 20
10.28917372478267
 30
0.0
 40
0.0855
100
AcDbArc
 50
90.00000000000003
 51
270.0
  0
ARC
  5
2E4
330
2
100
AcDbEntity
  8
0
100
AcDbCircle
 10
-4.295964181135827
 20
10.28917372478267
 30
0.0
 40
0.0855
100
AcDbArc
 50
270.0
 51
90.00000000000003
  0
ARC
  5
2E5
330
2
100
AcDbEntity
  8
0
100
AcDbCircle
 10
-4.295964181135827
 20
12.28917372478267
 30
0.0
 40
0.0855
100
AcDbArc
 50
270.0
 51
90.00000000000003
  0
ARC
  5
2E6
330
2
100
AcDbEntity
  8
0
100
AcDbCircle
 10
-4.420964181135827
 20
12.28917372478267
 30
0.0
 40
0.0855
100
AcDbArc
 50
90.00000000000003
 51
270.0
  0
CIRCLE
  5
2E7
330
2
100
AcDbEntity
  8
0
100
AcDbCircle
 10
-5.795964181135834
 20
12.28917372478267
 30
0.0
 40
0.0855
  0
LINE
  5
2E8
330
2
100
AcDbEntity
  8
0
100
AcDbLine
 10
-6.045969104289118
 20
12.035647403
 30
0.0
 11
-6.045969104289118
 21
12.53917372499999
 31
0.0
  0
ARC
  5
2E9
330
2
100
AcDbEntity
  8
0
100
AcDbCircle
 10
-6.233469104289118
 20
11.619593911
 30
0.0
 40
0.125
100
AcDbArc
 50
135.0
 51
180.0
  0
CIRCLE
  5
2EA
330
2
100
AcDbEntity
  8
0
100
AcDbCircle
 10
-6.108464181135834
 20
11.28917372478266
 30
0.0
 40
0.0855
  0
LINE
  5
2EB
330
2
100
AcDbEntity
  8
0
100
AcDbLine
 10
-6.08258075728912
 20
11.947258953
 30
0.0
 11
-6.321857452289117
 21
11.70798225799999
 31
0.0
  0
ARC
  5
2EC
330
2
100
AcDbEntity
  8
0
100
AcDbCircle
 10
-6.170969104289118
 20
12.03564730099999
 30
0.0
 40
0.125
100
AcDbArc
 50
315.0
 51
0.0
  0
CIRCLE
  5
2ED
330
2
100
AcDbEntity
  8
0
100
AcDbCircle
 10
-4.483464181135827
 20
11.65625
 30
0.0
 40
0.0855
  0
ARC
  5
2EE
330
2
100
AcDbEntity
  8
0
100
AcDbCircle
 10
-3.830007471616011
 20
11.15470084517211
 30
0.0
 40
0.1292554313189278
100
AcDbArc
 50
137.1796312694826
 51
220.0353196785141
  0
LINE
  5
2EF
330
2
100
AcDbEntity
  8
0
100
AcDbLine
 10
-4.420964181135827
 20
12.20367372478266
 30
0.0
 11
-4.295964181135827
 21
12.20367372478266
 31
0.0
  0
LINE
  5
2F0
330
2
100
AcDbEntity
  8
0
100
AcDbLine
 10
-4.420964181135827
 20
12.37467372478266
 30
0.0
 11
-4.295964181135827
 21
12.37467372478266
 31
0.0
  0
LINE
  5
2F1
330
2
100
AcDbEntity
  8
0
100
AcDbLine
 10
6.358469104289122
 20
11.61167018599999
 30
0.0
 11
6.358469104289122
 21
10.965223576
 31
0.0
  0
CIRCLE
  5
2F2
330
2
100
AcDbEntity
  8
0
100
AcDbCircle
 10
5.358464181135845
 20
11.03125
 30
0.0
 40
0.0855
  0
LINE
  5
2F3
330
2
100
AcDbEntity
  8
0
100
AcDbLine
 10
-3.726264181135837
 20
6.339173724782658
 30
0.0
 11
-3.726264181135837
 21
6.239173724782656
 31
0.0
  0
LINE
  5
2F4
330
2
100
AcDbEntity
  8
0
100
AcDbLine
 10
6.045969104289122
 20
8.027723677999994
 30
0.0
 11
6.045969104289122
 21
8.549170185999994
 31
0.0
  0
CIRCLE
  5
2F5
330
2
100
AcDbEntity
  8
0
100
AcDbCircle
 10
5.358464181135845
 20
7.03125
 30
0.0
 40
0.0855
  0
LINE
  5
2F6
330
2
100
AcDbEntity
  8
0
100
AcDbLine
 10
3.924814815072069
 20
6.867556033705828
 30
0.0
 11
3.737875057503765
 21
6.867556033705824
 31
0.0
  0
LINE
  5
2F7
330
2
100
AcDbEntity
  8
0
100
AcDbLine
 10
3.928971641150782
 20
6.696556033705829
 30
0.0
 11
3.737875057503765
 21
6.696556033705829
 31
0.0
  0
LINE
  5
2F8
330
2
100
AcDbEntity
  8
0
100
AcDbLine
 10
4.420964181135831
 20
6.195750000000007
 30
0.0
 11
4.295964181135831
 21
6.195750000000007
 31
0.0
  0
LINE
  5
2F9
330
2
100
AcDbEntity
  8
0
100
AcDbLine
 10
4.420964181135831
 20
6.366750000000007
 30
0.0
 11
4.295964181135831
 21
6.366750000000007
 31
0.0
  0
ARC
  5
2FA
330
2
100
AcDbEntity
  8
0
100
AcDbCircle
 10
4.420964181135831
 20
6.281250000000007
 30
0.0
 40
0.0855
100
AcDbArc
 50
270.0
 51
89.99999999999999
  0
ARC
  5
2FB
330
2
100
AcDbEntity
  8
0
100
AcDbCircle
 10
4.295964181135831
 20
6.281250000000007
 30
0.0
 40
0.0855
100
AcDbArc
 50
89.99999999999999
 51
270.0
  0
ARC
  5
2FC
330
2
100
AcDbEntity
  8
0
100
AcDbCircle
 10
3.830007471616022
 20
6.779700845172105
 30
0.0
 40
0.1292554313189278
100
AcDbArc
 50
319.9646803214859
 51
42.82036873051739
  0
CIRCLE
  5
2FD
330
2
100
AcDbEntity
  8
0
100
AcDbCircle
 10
4.483464181135838
 20
7.65625
 30
0.0
 40
0.0855
  0
LINE
  5
2FE
330
2
100
AcDbEntity
  8
0
100
AcDbLine
 10
4.420964181135831
 20
8.366750000000007
 30
0.0
 11
4.295964181135831
 21
8.366750000000007
 31
0.0
  0
LINE
  5
2FF
330
2
100
AcDbEntity
  8
0
100
AcDbLine
 10
4.420964181135831
 20
8.195750000000007
 30
0.0
 11
4.295964181135831
 21
8.195750000000007
 31
0.0
  0
ARC
  5
300
330
2
100
AcDbEntity
  8
0
100
AcDbCircle
 10
4.295964181135831
 20
8.281250000000007
 30
0.0
 40
0.0855
100
AcDbArc
 50
89.99999999999999
 51
270.0
  0
ARC
  5
301
330
2
100
AcDbEntity
  8
0
100
AcDbCircle
 10
4.420964181135831
 20
8.281250000000007
 30
0.0
 40
0.0855
100
AcDbArc
 50
270.0
 51
89.99999999999999
  0
CIRCLE
  5
302
330
2
100
AcDbEntity
  8
0
100
AcDbCircle
 10
6.108464181135845
 20
7.28125
 30
0.0
 40
0.0855
  0
LINE
  5
303
330
2
100
AcDbEntity
  8
0
100
AcDbLine
 10
6.358469104289122
 20
7.611670185999994
 30
0.0
 11
6.358469104289122
 21
6.965223575999996
 31
0.0
  0
ARC
  5
304
330
2
100
AcDbEntity
  8
0
100
AcDbCircle
 10
6.170969104289122
 20
6.549170185999994
 30
0.0
 40
0.125
100
AcDbArc
 50
135.0
 51
180.0
  0
LINE
  5
305
330
2
100
AcDbEntity
  8
0
100
AcDbLine
 10
6.045969104289122
 20
6.027723677999994
 30
0.0
 11
6.045969104289122
 21
6.531249999999996
 31
0.0
  0
LINE
  5
306
330
2
100
AcDbEntity
  8
0
100
AcDbLine
 10
6.045969104289122
 20
6.531249999999996
 30
0.0
 11
6.045969104289122
 21
6.027723575999996
 31
0.0
  0
CIRCLE
  5
307
330
2
100
AcDbEntity
  8
0
100
AcDbCircle
 10
5.795964181135838
 20
6.281250000000007
 30
0.0
 40
0.0855
  0
LINE
  5
308
330
2
100
AcDbEntity
  8
0
100
AcDbLine
 10
6.321857452289124
 20
6.876835228999994
 30
0.0
 11
6.082580757289123
 21
6.637558532999996
 31
0.0
  0
ARC
  5
309
330
2
100
AcDbEntity
  8
0
100
AcDbCircle
 10
6.233469104289122
 20
6.965223575999996
 30
0.0
 40
0.125
100
AcDbArc
 50
315.0
 51
0.0
  0
LINE
  5
30A
330
2
100
AcDbEntity
  8
0
100
AcDbLine
 10
6.082580757289123
 20
7.939335228999994
 30
0.0
 11
6.321857452289124
 21
7.700058532999996
 31
0.0
  0
ARC
  5
30B
330
2
100
AcDbEntity
  8
0
100
AcDbCircle
 10
6.233469104289122
 20
7.611670185999994
 30
0.0
 40
0.125
100
AcDbArc
 50
0.0
 51
45.0
  0
ARC
  5
30C
330
2
100
AcDbEntity
  8
0
100
AcDbCircle
 10
6.170969104289122
 20
8.027723575999996
 30
0.0
 40
0.125
100
AcDbArc
 50
180.0
 51
225.0
  0
CIRCLE
  5
30D
330
2
100
AcDbEntity
  8
0
100
AcDbCircle
 10
5.795964181135838
 20
8.281250000000007
 30
0.0
 40
0.0855
  0
CIRCLE
  5
30E
330
2
100
AcDbEntity
  8
0
100
AcDbCircle
 10
5.358464181135845
 20
9.03125
 30
0.0
 40
0.0855
  0
LINE
  5
30F
330
2
100
AcDbEntity
  8
0
100
AcDbLine
 10
3.924814815072069
 20
8.867556033705828
 30
0.0
 11
3.737875057503765
 21
8.867556033705824
 31
0.0
  0
LINE
  5
310
330
2
100
AcDbEntity
  8
0
100
AcDbLine
 10
3.928971641150782
 20
8.696556033705829
 30
0.0
 11
3.737875057503765
 21
8.696556033705829
 31
0.0
  0
ARC
  5
311
330
2
100
AcDbEntity
  8
0
100
AcDbCircle
 10
3.830007471616022
 20
8.779700845172105
 30
0.0
 40
0.1292554313189278
100
AcDbArc
 50
319.9646803214859
 51
42.82036873051739
  0
CIRCLE
  5
312
330
2
100
AcDbEntity
  8
0
100
AcDbCircle
 10
4.483464181135838
 20
9.65625
 30
0.0
 40
0.0855
  0
LINE
  5
313
330
2
100
AcDbEntity
  8
0
100
AcDbLine
 10
3.924814815072069
 20
10.86755603370583
 30
0.0
 11
3.737875057503765
 21
10.86755603370582
 31
0.0
  0
LINE
  5
314
330
2
100
AcDbEntity
  8
0
100
AcDbLine
 10
3.928971641150782
 20
10.69655603370583
 30
0.0
 11
3.737875057503765
 21
10.69655603370583
 31
0.0
  0
ARC
  5
315
330
2
100
AcDbEntity
  8
0
100
AcDbCircle
 10
4.295964181135831
 20
10.28125000000001
 30
0.0
 40
0.0855
100
AcDbArc
 50
89.99999999999999
 51
270.0
  0
LINE
  5
316
330
2
100
AcDbEntity
  8
0
100
AcDbLine
 10
4.420964181135831
 20
10.19575000000001
 30
0.0
 11
4.295964181135831
 21
10.19575000000001
 31
0.0
  0
LINE
  5
317
330
2
100
AcDbEntity
  8
0
100
AcDbLine
 10
4.420964181135831
 20
10.36675000000001
 30
0.0
 11
4.295964181135831
 21
10.36675000000001
 31
0.0
  0
ARC
  5
318
330
2
100
AcDbEntity
  8
0
100
AcDbCircle
 10
4.420964181135831
 20
10.28125000000001
 30
0.0
 40
0.0855
100
AcDbArc
 50
270.0
 51
89.99999999999999
  0
ARC
  5
319
330
2
100
AcDbEntity
  8
0
100
AcDbCircle
 10
3.830007471616022
 20
10.77970084517211
 30
0.0
 40
0.1292554313189278
100
AcDbArc
 50
319.9646803214859
 51
42.82036873051739
  0
LINE
  5
31A
330
2
100
AcDbEntity
  8
0
100
AcDbLine
 10
6.082580757289123
 20
9.939335228999994
 30
0.0
 11
6.321857452289124
 21
9.700058532999996
 31
0.0
  0
LINE
  5
31B
330
2
100
AcDbEntity
  8
0
100
AcDbLine
 10
6.358469104289122
 20
9.611670185999994
 30
0.0
 11
6.358469104289122
 21
8.965223575999996
 31
0.0
  0
LINE
  5
31C
330
2
100
AcDbEntity
  8
0
100
AcDbLine
 10
6.321857452289124
 20
8.876835228999994
 30
0.0
 11
6.082580757289123
 21
8.637558532999996
 31
0.0
  0
ARC
  5
31D
330
2
100
AcDbEntity
  8
0
100
AcDbCircle
 10
6.170969104289122
 20
8.549170185999994
 30
0.0
 40
0.125
100
AcDbArc
 50
135.0
 51
180.0
  0
ARC
  5
31E
330
2
100
AcDbEntity
  8
0
100
AcDbCircle
 10
6.233469104289122
 20
8.965223575999996
 30
0.0
 40
0.125
100
AcDbArc
 50
315.0
 51
0.0
  0
CIRCLE
  5
31F
330
2
100
AcDbEntity
  8
0
100
AcDbCircle
 10
6.108464181135845
 20
9.28125
 30
0.0
 40
0.0855
  0
ARC
  5
320
330
2
100
AcDbEntity
  8
0
100
AcDbCircle
 10
6.233469104289122
 20
9.611670185999994
 30
0.0
 40
0.125
100
AcDbArc
 50
0.0
 51
45.0
  0
LINE
  5
321
330
2
100
AcDbEntity
  8
0
100
AcDbLine
 10
6.045969104289122
 20
10.02772367799999
 30
0.0
 11
6.045969104289122
 21
10.54917018599999
 31
0.0
  0
ARC
  5
322
330
2
100
AcDbEntity
  8
0
100
AcDbCircle
 10
6.170969104289122
 20
10.027723576
 30
0.0
 40
0.125
100
AcDbArc
 50
180.0
 51
225.0
  0
CIRCLE
  5
323
330
2
100
AcDbEntity
  8
0
100
AcDbCircle
 10
5.795964181135838
 20
10.28125000000001
 30
0.0
 40
0.0855
  0
LINE
  5
324
330
2
100
AcDbEntity
  8
0
100
AcDbLine
 10
6.321857452289124
 20
10.87683522899999
 30
0.0
 11
6.082580757289123
 21
10.637558533
 31
0.0
  0
ARC
  5
325
330
2
100
AcDbEntity
  8
0
100
AcDbCircle
 10
6.170969104289122
 20
10.54917018599999
 30
0.0
 40
0.125
100
AcDbArc
 50
135.0
 51
180.0
  0
ARC
  5
326
330
2
100
AcDbEntity
  8
0
100
AcDbCircle
 10
6.233469104289122
 20
10.965223576
 30
0.0
 40
0.125
100
AcDbArc
 50
315.0
 51
0.0
  0
LINE
  5
327
330
2
100
AcDbEntity
  8
0
100
AcDbLine
 10
3.63251418113584
 20
12.53125
 30
0.0
 11
6.045969104289122
 21
12.53125
 31
0.0
  0
ARC
  5
328
330
2
100
AcDbEntity
  8
0
100
AcDbCircle
 10
4.295964181135831
 20
12.28125000000001
 30
0.0
 40
0.0855
100
AcDbArc
 50
89.99999999999999
 51
270.0
  0
ARC
  5
329
330
2
100
AcDbEntity
  8
0
100
AcDbCircle
 10
4.420964181135831
 20
12.28125000000001
 30
0.0
 40
0.0855
100
AcDbArc
 50
270.0
 51
89.99999999999999
  0
CIRCLE
  5
32A
330
2
100
AcDbEntity
  8
0
100
AcDbCircle
 10
4.483464181135838
 20
11.65625
 30
0.0
 40
0.0855
  0
LINE
  5
32B
330
2
100
AcDbEntity
  8
0
100
AcDbLine
 10
4.420964181135831
 20
12.19575000000001
 30
0.0
 11
4.295964181135831
 21
12.19575000000001
 31
0.0
  0
LINE
  5
32C
330
2
100
AcDbEntity
  8
0
100
AcDbLine
 10
4.420964181135831
 20
12.36675000000001
 30
0.0
 11
4.295964181135831
 21
12.36675000000001
 31
0.0
  0
LINE
  5
32D
330
2
100
AcDbEntity
  8
0
100
AcDbLine
 10
6.045969104289122
 20
12.02772367799999
 30
0.0
 11
6.045969104289122
 21
12.53125
 31
0.0
  0
CIRCLE
  5
32E
330
2
100
AcDbEntity
  8
0
100
AcDbCircle
 10
5.795964181135838
 20
12.28125000000001
 30
0.0
 40
0.0855
  0
ARC
  5
32F
330
2
100
AcDbEntity
  8
0
100
AcDbCircle
 10
6.233469104289122
 20
11.61167018599999
 30
0.0
 40
0.125
100
AcDbArc
 50
0.0
 51
45.0
  0
CIRCLE
  5
330
330
2
100
AcDbEntity
  8
0
100
AcDbCircle
 10
6.108464181135845
 20
11.28125
 30
0.0
 40
0.0855
  0
LINE
  5
331
330
2
100
AcDbEntity
  8
0
100
AcDbLine
 10
6.082580757289123
 20
11.93933522899999
 30
0.0
 11
6.321857452289124
 21
11.700058533
 31
0.0
  0
ARC
  5
332
330
2
100
AcDbEntity
  8
0
100
AcDbCircle
 10
6.170969104289122
 20
12.027723576
 30
0.0
 40
0.125
100
AcDbArc
 50
180.0
 51
225.0
  0
ENDSEC
  0
SECTION
  2
OBJECTS
  0
DICTIONARY
  5
9
330
0
100
AcDbDictionary
281
     1
  3
ACAD_COLOR
350
22C
  3
ACAD_GROUP
350
23
  3
ACAD_LAYOUT
350
D
  3
ACAD_MATERIAL
350
22B
  3
ACAD_MLINESTYLE
350
24
  3
ACAD_PLOTSETTINGS
350
25
  3
ACAD_PLOTSTYLENAME
350
8
  3
ACAD_TABLESTYLE
350
22D
  3
ACDBHEADERROUNDTRIPXREC
350
502
  3
AcDbVariableDictionary
350
227
  0
DICTIONARY
  5
3
330
2
100
AcDbDictionary
280
     1
281
     1
  3
ACAD_SORTENTS
360
232
  0
DICTIONARY
  5
22C
102
{ACAD_REACTORS
330
9
102
}
330
9
100
AcDbDictionary
281
     1
  0
DICTIONARY
  5
23
102
{ACAD_REACTORS
330
9
102
}
330
9
100
AcDbDictionary
281
     1
  0
DICTIONARY
  5
D
102
{ACAD_REACTORS
330
9
102
}
330
9
100
AcDbDictionary
281
     1
  3
Layout1
350
13
  3
Model
350
C
  0
DICTIONARY
  5
22B
102
{ACAD_REACTORS
330
9
102
}
330
9
100
AcDbDictionary
281
     1
  0
DICTIONARY
  5
24
102
{ACAD_REACTORS
330
9
102
}
330
9
100
AcDbDictionary
281
     1
  3
STANDARD
350
26
  0
DICTIONARY
  5
25
102
{ACAD_REACTORS
330
9
102
}
330
9
100
AcDbDictionary
281
     1
  0
ACDBDICTIONARYWDFLT
  5
8
102
{ACAD_REACTORS
330
9
102
}
330
9
100
AcDbDictionary
281
     1
  3
Normal
350
7
100
AcDbDictionaryWithDefault
340
7
  0
DICTIONARY
  5
22D
102
{ACAD_REACTORS
330
9
102
}
330
9
100
AcDbDictionary
281
     1
  3
Standard
350
22E
  0
DICTIONARY
  5
502
102
{ACAD_REACTORS
330
9
102
}
330
9
100
AcDbDictionary
281
     1
  3
COLORDICT
350
503
  3
MATERIALDICT
350
504
  0
DICTIONARY
  5
227
102
{ACAD_REACTORS
330
9
102
}
330
9
100
AcDbDictionary
281
     1
  3
CTABLESTYLE
350
41B
  3
HIDETEXT
350
501
  0
SORTENTSTABLE
  5
232
102
{ACAD_REACTORS
330
3
102
}
330
3
100
AcDbSortentsTable
330
2
331
0
  5
30D
331
266
  5
348
331
25C
  5
33E
331
2DA
  5
3BC
331
241
  5
323
331
2BD
  5
39F
331
262
  5
344
331
31A
  5
3FC
331
2F1
  5
3D3
331
24D
  5
32F
331
2D8
  5
3BA
331
2A3
  5
385
331
2DF
  5
3C1
331
31F
  5
401
331
238
  5
31A
331
263
  5
345
331
298
  5
37A
331
2C2
  5
3A4
331
315
  5
3F7
331
2D4
  5
3B6
331
28A
  5
36C
331
321
  5
403
331
242
  5
324
331
23E
  5
320
331
245
  5
327
331
2C4
  5
3A6
331
25D
  5
33F
331
31D
  5
3FF
331
2A9
  5
38B
331
2EB
  5
3CD
331
2F4
  5
3D6
331
299
  5
37B
331
310
  5
3F2
331
23D
  5
31F
331
287
  5
369
331
290
  5
372
331
2DD
  5
3BF
331
26A
  5
34C
331
2C8
  5
3AA
331
249
  5
32B
331
30F
  5
3F1
331
312
  5
3F4
331
26C
  5
34E
331
26E
  5
350
331
2AA
  5
38C
331
31E
  5
400
331
23C
  5
31E
331
25F
  5
341
331
32F
  5
411
331
2E8
  5
3CA
331
29B
  5
37D
331
2C1
  5
3A3
331
2D7
  5
3B9
331
2BB
  5
39D
331
27E
  5
360
331
2A6
  5
388
331
2FB
  5
3DD
331
28F
  5
371
331
324
  5
406
331
2C6
  5
3A8
331
239
  5
31B
331
2F6
  5
3D8
331
2B3
  5
395
331
251
  5
333
331
2D6
  5
3B8
331
2BC
  5
39E
331
2D5
  5
3B7
331
250
  5
332
331
274
  5
356
331
2E6
  5
3C8
331
2A4
  5
386
331
2B9
  5
39B
331
308
  5
3EA
331
2A7
  5
389
331
307
  5
3E9
331
253
  5
335
331
29A
  5
37C
331
2E3
  5
3C5
331
2EE
  5
3D0
331
2ED
  5
3CF
331
328
  5
40A
331
325
  5
407
331
2F0
  5
3D2
331
32D
  5
40F
331
237
  5
319
331
2FD
  5
3DF
331
258
  5
33A
331
32C
  5
40E
331
273
  5
355
331
292
  5
374
331
305
  5
3E7
331
2F9
  5
3DB
331
2DC
  5
3BE
331
280
  5
362
331
2D1
  5
3B3
331
243
  5
325
331
2CD
  5
3AF
331
268
  5
34A
331
2D2
  5
3B4
331
331
  5
413
331
261
  5
343
331
2DE
  5
3C0
331
30E
  5
3F0
331
2CA
  5
3AC
331
27A
  5
35C
331
2EF
  5
3D1
331
30C
  5
3EE
331
294
  5
376
331
25B
  5
33D
331
313
  5
3F5
331
27B
  5
35D
331
322
  5
404
331
256
  5
338
331
2D3
  5
3B5
331
2B5
  5
397
331
320
  5
402
331
281
  5
363
331
317
  5
3F9
331
311
  5
3F3
331
2B0
  5
392
331
278
  5
35A
331
2AF
  5
391
331
296
  5
378
331
28D
  5
36F
331
282
  5
364
331
316
  5
3F8
331
272
  5
354
331
23F
  5
321
331
265
  5
347
331
295
  5
377
331
24C
  5
32E
331
314
  5
3F6
331
32B
  5
40D
331
276
  5
358
331
2EA
  5
3CC
331
2F5
  5
3D7
331
24B
  5
32D
331
2B6
  5
398
331
304
  5
3E6
331
302
  5
3E4
331
2DB
  5
3BD
331
286
  5
368
331
2C9
  5
3AB
331
319
  5
3FB
331
28C
  5
36E
331
24E
  5
330
331
279
  5
35B
331
260
  5
342
331
297
  5
379
331
301
  5
3E3
331
240
  5
322
331
303
  5
3E5
331
2C3
  5
3A5
331
246
  5
328
331
2FC
  5
3DE
331
2E9
  5
3CB
331
2AB
  5
38D
331
2D0
  5
3B2
331
2F2
  5
3D4
331
289
  5
36B
331
2AC
  5
38E
331
318
  5
3FA
331
30A
  5
3EC
331
2A2
  5
384
331
25E
  5
340
331
270
  5
352
331
275
  5
357
331
254
  5
336
331
323
  5
405
331
2B7
  5
399
331
332
  5
414
331
236
  5
318
331
257
  5
339
331
26B
  5
34D
331
32A
  5
40C
331
2A8
  5
38A
331
309
  5
3EB
331
24A
  5
32C
331
2F7
  5
3D9
331
300
  5
3E2
331
30D
  5
3EF
331
25A
  5
33C
331
327
  5
409
331
2FE
  5
3E0
331
271
  5
353
331
291
  5
373
331
248
  5
32A
331
247
  5
329
331
288
  5
36A
331
32E
  5
410
331
2C0
  5
3A2
331
23A
  5
31C
331
259
  5
33B
331
2CF
  5
3B1
331
2A0
  5
382
331
30B
  5
3ED
331
2B4
  5
396
331
23B
  5
31D
331
2E2
  5
3C4
331
2B1
  5
393
331
2C7
  5
3A9
331
27C
  5
35E
331
29E
  5
380
331
255
  5
337
331
285
  5
367
331
284
  5
366
331
2E4
  5
3C6
331
2BF
  5
3A1
331
267
  5
349
331
283
  5
365
331
2AD
  5
38F
331
2FF
  5
3E1
331
28B
  5
36D
331
31C
  5
3FE
331
329
  5
40B
331
2CB
  5
3AD
331
2B2
  5
394
331
2A5
  5
387
331
2E1
  5
3C3
331
29D
  5
37F
331
2CC
  5
3AE
331
252
  5
334
331
2BE
  5
3A0
331
2EC
  5
3CE
331
27F
  5
361
331
2CE
  5
3B0
331
2C5
  5
3A7
331
2AE
  5
390
331
26D
  5
34F
331
24F
  5
331
331
29C
  5
37E
331
2F3
  5
3D5
331
264
  5
346
331
2A1
  5
383
331
2FA
  5
3DC
331
269
  5
34B
331
2B8
  5
39A
331
244
  5
326
331
2F8
  5
3DA
331
293
  5
375
331
26F
  5
351
331
277
  5
359
331
28E
  5
370
331
29F
  5
381
331
31B
  5
3FD
331
306
  5
3E8
331
2BA
  5
39C
331
330
  5
412
331
2E0
  5
3C2
331
27D
  5
35F
331
326
  5
408
331
2D9
  5
3BB
331
2E7
  5
3C9
331
2E5
  5
3C7
  0
LAYOUT
  5
13
102
{ACAD_REACTORS
330
D
102
}
102
{ACAD_XDICTIONARY
360
505
102
}
330
D
100
AcDbPlotSettings
  1

  2
CANON BJC-6000
  4

  6

 40
0.0
 41
0.0
 42
0.0
 43
0.0
 44
0.0
 45
0.0
 46
0.0
 47
0.0
 48
0.0
 49
0.0
140
0.0
141
0.0
142
1.0
143
1.0
 70
   688
 72
     0
 73
     0
 74
     5
  7

 75
    16
147
1.0
148
0.0
149
0.0
100
AcDbLayout
  1
Layout1
 70
     0
 71
     1
 10
0.0
 20
0.0
 11
12.0
 21
9.0
 12
0.0
 22
0.0
 32
0.0
 14
1.000000000000000E+20
 24
1.000000000000000E+20
 34
1.000000000000000E+20
 15
-1.000000000000000E+20
 25
-1.000000000000000E+20
 35
-1.000000000000000E+20
146
0.0
 13
0.0
 23
0.0
 33
0.0
 16
1.0
 26
0.0
 36
0.0
 17
0.0
 27
1.0
 37
0.0
 76
     0
330
E
  0
LAYOUT
  5
C
102
{ACAD_REACTORS
330
D
102
}
102
{ACAD_XDICTIONARY
360
507
102
}
330
D
100
AcDbPlotSettings
  1

  2
CANON BJC-6000
  4

  6

 40
0.0
 41
0.0
 42
0.0
 43
0.0
 44
0.0
 45
0.0
 46
0.0
 47
0.0
 48
0.0
 49
0.0
140
0.0
141
0.0
142
1.0
143
1.0
 70
  1712
 72
     0
 73
     0
 74
     0
  7

 75
     0
147
1.0
148
0.0
149
0.0
100
AcDbLayout
  1
Model
 70
     1
 71
     0
 10
0.0
 20
0.0
 11
12.0
 21
9.0
 12
0.0
 22
0.0
 32
0.0
 14
0.0
 24
0.0
 34
0.0
 15
0.0
 25
0.0
 35
0.0
146
0.0
 13
0.0
 23
0.0
 33
0.0
 16
1.0
 26
0.0
 36
0.0
 17
0.0
 27
1.0
 37
0.0
 76
     0
330
2
  0
MLINESTYLE
  5
26
102
{ACAD_REACTORS
330
24
102
}
330
24
100
AcDbMlineStyle
  2
STANDARD
 70
     0
  3

 62
   256
 51
90.0
 52
90.0
 71
     2
 49
0.5
 62
   256
  6
BYLAYER
 49
-0.5
 62
   256
  6
BYLAYER
  0
ACDBPLACEHOLDER
  5
7
102
{ACAD_REACTORS
330
8
102
}
330
8
  0
ACAD_PROXY_OBJECT
  5
22E
102
{ACAD_REACTORS
330
22D
102
}
330
22D
100
AcDbProxyObject
 90
      499
 91
      509
 95
   983063
 70
     0
 93
     1841
310
4214DD185B99185C9928B81E85EB51B8AE3F2E07A17AD46E2B8FC02B5E8DC0F42B1CFD028000000C1008070000C3001FDFF8000000C1003FBFF000000182007F7FE00000030400FEFFC00000060801FDFF8000000C1003FBFF00000018200000000000000681FA0B0000001820100E000186003FBFF000000182007F7FE000
310
00030400FEFFC00000060801FDFF8000000C1003FBFF000000182007F7FE000000304000AD7A3703D0AC73F4160000003040201C00030C007F7FE00000030400FEFFC00000060801FDFF8000000C1003FBFF000000182007F7FE00000030400FEFFC000000608000
340
16
340
16
340
16
 94
        0
  0
XRECORD
  5
503
102
{ACAD_REACTORS
330
502
102
}
330
502
100
AcDbXrecord
340
22C
  0
XRECORD
  5
504
102
{ACAD_REACTORS
330
502
102
}
330
502
100
AcDbXrecord
340
22B
  0
DICTIONARYVAR
  5
41B
102
{ACAD_REACTORS
330
227
102
}
330
227
100
DictionaryVariables
280
     0
  1
STANDARD
  0
DICTIONARYVAR
  5
501
102
{ACAD_REACTORS
330
227
102
}
330
227
100
DictionaryVariables
280
     0
  1
0
  0
DICTIONARY
  5
505
330
13
100
AcDbDictionary
280
     1
281
     1
  3
ACAD_XREC_ROUNDTRIP
360
506
  0
DICTIONARY
  5
507
330
C
100
AcDbDictionary
280
     1
281
     1
  3
ACAD_XREC_ROUNDTRIP
360
508
  0
XRECORD
  5
506
102
{ACAD_REACTORS
330
505
102
}
330
505
100
AcDbXrecord
102
SHADEPLOT
 70
     0
102
SHADEPLOTRESLEVEL
 70
     2
102
SHADEPLOTCUSTOMDPI
 70
   300
  0
XRECORD
  5
508
102
{ACAD_REACTORS
330
507
102
}
330
507
100
AcDbXrecord
102
SHADEPLOT
 70
     0
102
SHADEPLOTRESLEVEL
 70
     2
102
SHADEPLOTCUSTOMDPI
 70
   300
  0
ENDSEC
  0
EOF
