  0
SECTION
  2
HEADER
  9
$ACADVER
  1
AC1015
  9
$ACADMAINTVER
 70
     6
  9
$DWGCODEPAGE
  3
ANSI_1252
  9
$INSBASE
 10
0.0
 20
0.0
 30
0.0
  9
$EXTMIN
 10
-16.04802823609398
 20
-0.0388325214724812
 30
0.0
  9
$EXTMAX
 10
16.5187709774475
 20
24.80911269678079
 30
0.0
  9
$LIMMIN
 10
0.0
 20
0.0
  9
$LIMMAX
 10
42.0
 20
32.0
  9
$ORTHOMODE
 70
     1
  9
$REGENMODE
 70
     1
  9
$FILLMODE
 70
     1
  9
$QTEXTMODE
 70
     0
  9
$MIRRTEXT
 70
     1
  9
$LTSCALE
 40
0.5
  9
$ATTMODE
 70
     1
  9
$TEXTSIZE
 40
0.36
  9
$TRACEWID
 40
0.05
  9
$TEXTSTYLE
  7
STANDARD
  9
$CLAYER
  8
0
  9
$CELTYPE
  6
BYLAYER
  9
$CECOLOR
 62
   256
  9
$CELTSCALE
 40
1.0
  9
$DISPSILH
 70
     0
  9
$DIMSCALE
 40
4.0
  9
$DIMASZ
 40
0.125
  9
$DIMEXO
 40
0.062
  9
$DIMDLI
 40
0.375
  9
$DIMRND
 40
0.0
  9
$DIMDLE
 40
0.0
  9
$DIMEXE
 40
0.08
  9
$DIMTP
 40
0.0
  9
$DIMTM
 40
0.0
  9
$DIMTXT
 40
0.09
  9
$DIMCEN
 40
-0.06
  9
$DIMTSZ
 40
0.0
  9
$DIMTOL
 70
     0
  9
$DIMLIM
 70
     0
  9
$DIMTIH
 70
     1
  9
$DIMTOH
 70
     1
  9
$DIMSE1
 70
     0
  9
$DIMSE2
 70
     0
  9
$DIMTAD
 70
     0
  9
$DIMZIN
 70
     0
  9
$DIMBLK
  1

  9
$DIMASO
 70
     0
  9
$DIMSHO
 70
     0
  9
$DIMPOST
  1

  9
$DIMAPOST
  1

  9
$DIMALT
 70
     0
  9
$DIMALTD
 70
     2
  9
$DIMALTF
 40
25.4
  9
$DIMLFAC
 40
1.0
  9
$DIMTOFL
 70
     0
  9
$DIMTVP
 40
0.0
  9
$DIMTIX
 70
     0
  9
$DIMSOXD
 70
     0
  9
$DIMSAH
 70
     0
  9
$DIMBLK1
  1

  9
$DIMBLK2
  1

  9
$DIMSTYLE
  2
STANDARD
  9
$DIMCLRD
 70
     0
  9
$DIMCLRE
 70
     0
  9
$DIMCLRT
 70
     0
  9
$DIMTFAC
 40
1.0
  9
$DIMGAP
 40
0.09
  9
$DIMJUST
 70
     0
  9
$DIMSD1
 70
     0
  9
$DIMSD2
 70
     0
  9
$DIMTOLJ
 70
     1
  9
$DIMTZIN
 70
     0
  9
$DIMALTZ
 70
     0
  9
$DIMALTTZ
 70
     0
  9
$DIMUPT
 70
     0
  9
$DIMDEC
 70
     5
  9
$DIMTDEC
 70
     5
  9
$DIMALTU
 70
     5
  9
$DIMALTTD
 70
     2
  9
$DIMTXSTY
  7
STANDARD
  9
$DIMAUNIT
 70
     0
  9
$DIMADEC
 70
     0
  9
$DIMALTRND
 40
0.0
  9
$DIMAZIN
 70
     0
  9
$DIMDSEP
 70
    46
  9
$DIMATFIT
 70
     3
  9
$DIMFRAC
 70
     0
  9
$DIMLDRBLK
  1

  9
$DIMLUNIT
 70
     5
  9
$DIMLWD
 70
    -2
  9
$DIMLWE
 70
    -2
  9
$DIMTMOVE
 70
     2
  9
$LUNITS
 70
     5
  9
$LUPREC
 70
     5
  9
$SKETCHINC
 40
0.1
  9
$FILLETRAD
 40
0.125
  9
$AUNITS
 70
     0
  9
$AUPREC
 70
     0
  9
$MENU
  1
qa
  9
$ELEVATION
 40
0.0
  9
$PELEVATION
 40
0.0
  9
$THICKNESS
 40
0.0
  9
$LIMCHECK
 70
     0
  9
$CHAMFERA
 40
0.0
  9
$CHAMFERB
 40
0.0
  9
$CHAMFERC
 40
0.0
  9
$CHAMFERD
 40
0.0
  9
$SKPOLY
 70
     0
  9
$TDCREATE
 40
2449114.970069097
  9
$TDUCREATE
 40
2449115.30340243
  9
$TDUPDATE
 40
2454165.976700915
  9
$TDUUPDATE
 40
2454166.310034248
  9
$TDINDWG
 40
0.073955787
  9
$TDUSRTIMER
 40
0.073955787
  9
$USRTIMER
 70
     1
  9
$ANGBASE
 50
0.0
  9
$ANGDIR
 70
     0
  9
$PDMODE
 70
     0
  9
$PDSIZE
 40
0.0
  9
$PLINEWID
 40
0.0
  9
$SPLFRAME
 70
     0
  9
$SPLINETYPE
 70
     6
  9
$SPLINESEGS
 70
     8
  9
$HANDSEED
  5
50D
  9
$SURFTAB1
 70
     6
  9
$SURFTAB2
 70
     6
  9
$SURFTYPE
 70
     6
  9
$SURFU
 70
     6
  9
$SURFV
 70
     6
  9
$UCSBASE
  2

  9
$UCSNAME
  2

  9
$UCSORG
 10
0.0
 20
0.0
 30
0.0
  9
$UCSXDIR
 10
1.0
 20
0.0
 30
0.0
  9
$UCSYDIR
 10
0.0
 20
1.0
 30
0.0
  9
$UCSORTHOREF
  2

  9
$UCSORTHOVIEW
 70
     0
  9
$UCSORGTOP
 10
0.0
 20
0.0
 30
0.0
  9
$UCSORGBOTTOM
 10
0.0
 20
0.0
 30
0.0
  9
$UCSORGLEFT
 10
0.0
 20
0.0
 30
0.0
  9
$UCSORGRIGHT
 10
0.0
 20
0.0
 30
0.0
  9
$UCSORGFRONT
 10
0.0
 20
0.0
 30
0.0
  9
$UCSORGBACK
 10
0.0
 20
0.0
 30
0.0
  9
$PUCSBASE
  2

  9
$PUCSNAME
  2

  9
$PUCSORG
 10
0.0
 20
0.0
 30
0.0
  9
$PUCSXDIR
 10
1.0
 20
0.0
 30
0.0
  9
$PUCSYDIR
 10
0.0
 20
1.0
 30
0.0
  9
$PUCSORTHOREF
  2

  9
$PUCSORTHOVIEW
 70
     0
  9
$PUCSORGTOP
 10
0.0
 20
0.0
 30
0.0
  9
$PUCSORGBOTTOM
 10
0.0
 20
0.0
 30
0.0
  9
$PUCSORGLEFT
 10
0.0
 20
0.0
 30
0.0
  9
$PUCSORGRIGHT
 10
0.0
 20
0.0
 30
0.0
  9
$PUCSORGFRONT
 10
0.0
 20
0.0
 30
0.0
  9
$PUCSORGBACK
 10
0.0
 20
0.0
 30
0.0
  9
$USERI1
 70
     0
  9
$USERI2
 70
     0
  9
$USERI3
 70
     0
  9
$USERI4
 70
     0
  9
$USERI5
 70
     0
  9
$USERR1
 40
0.0
  9
$USERR2
 40
0.0
  9
$USERR3
 40
0.0
  9
$USERR4
 40
0.0
  9
$USERR5
 40
0.0
  9
$WORLDVIEW
 70
     1
  9
$SHADEDGE
 70
     3
  9
$SHADEDIF
 70
    70
  9
$TILEMODE
 70
     1
  9
$MAXACTVP
 70
    16
  9
$PINSBASE
 10
0.0
 20
0.0
 30
0.0
  9
$PLIMCHECK
 70
     0
  9
$PEXTMIN
 10
1.000000000000000E+20
 20
1.000000000000000E+20
 30
1.000000000000000E+20
  9
$PEXTMAX
 10
-1.000000000000000E+20
 20
-1.000000000000000E+20
 30
-1.000000000000000E+20
  9
$PLIMMIN
 10
0.0
 20
0.0
  9
$PLIMMAX
 10
12.0
 20
9.0
  9
$UNITMODE
 70
     0
  9
$VISRETAIN
 70
     0
  9
$PLINEGEN
 70
     0
  9
$PSLTSCALE
 70
     0
  9
$TREEDEPTH
 70
  3020
  9
$CMLSTYLE
  2
STANDARD
  9
$CMLJUST
 70
     0
  9
$CMLSCALE
 40
1.0
  9
$PROXYGRAPHICS
 70
     1
  9
$MEASUREMENT
 70
     0
  9
$CELWEIGHT
370
    -1
  9
$ENDCAPS
280
     0
  9
$JOINSTYLE
280
     0
  9
$LWDISPLAY
290
     0
  9
$INSUNITS
 70
     0
  9
$HYPERLINKBASE
  1

  9
$STYLESHEET
  1

  9
$XEDIT
290
     1
  9
$CEPSNTYPE
380
     0
  9
$PSTYLEMODE
290
     1
  9
$FINGERPRINTGUID
  2
{A3F12D19-2E9E-11D5-A1EC-0080C6F22FF4}
  9
$VERSIONGUID
  2
{44CFB8E3-EA9A-4A2F-8BE3-4EC7F2169B24}
  9
$EXTNAMES
290
     1
  9
$PSVPSCALE
 40
0.0
  9
$OLESTARTUP
290
     0
  0
ENDSEC
  0
SECTION
  2
CLASSES
  0
CLASS
  1
DICTIONARYVAR
  2
AcDbDictionaryVar
  3
AutoCAD 2000
 90
        0
280
     0
281
     0
  0
CLASS
  1
LWPOLYLINE
  2
AcDbPolyline
  3
AutoCAD 2000
 90
        0
280
     0
281
     1
  0
CLASS
  1
ACDBDICTIONARYWDFLT
  2
AcDbDictionaryWithDefault
  3
AutoCAD 2000
 90
        0
280
     0
281
     0
  0
CLASS
  1
ACDBPLACEHOLDER
  2
AcDbPlaceHolder
  3
ObjectDBX Classes
 90
        0
280
     0
281
     0
  0
CLASS
  1
LAYOUT
  2
AcDbLayout
  3
ObjectDBX Classes
 90
        0
280
     0
281
     0
  0
CLASS
  1
LONG_TRANSACTION
  2
AcDbLongTransaction
  3
ObjectDBX Classes
 90
   -65536
280
     1
281
     0
  0
CLASS
  1
LWPOLYLINE
  2
AcDbPolyline
  3
AutoCAD 2000
 90
        0
280
     0
281
     1
  0
CLASS
  1
HATCH
  2
AcDbHatch
  3
AutoCAD 2000
 90
        0
280
     0
281
     1
  0
CLASS
  1
XRECORD
  2
AcDbXrecord
  3
AutoCAD 2000
 90
        0
280
     0
281
     0
  0
CLASS
  1
TABLESTYLE
  2
AcDbTableStyle
  3
ObjectDBX Classes
 90
     2047
280
     1
281
     0
  0
CLASS
  1
SORTENTSTABLE
  2
AcDbSortentsTable
  3
AutoCAD 2000
 90
        0
280
     0
281
     0
  0
ENDSEC
  0
SECTION
  2
TABLES
  0
TABLE
  2
VPORT
  5
1D
330
0
100
AcDbSymbolTable
 70
     3
  0
VPORT
  5
4FF
330
1D
100
AcDbSymbolTableRecord
100
AcDbViewportTableRecord
  2
*Active
 70
     0
 10
0.0
 20
0.0
 11
1.0
 21
1.0
 12
7.501483046658688
 22
14.62859123420665
 13
0.0
 23
0.0
 14
0.063
 24
0.063
 15
0.25
 25
0.25
 16
0.0
 26
0.0
 36
1.0
 17
0.0
 27
0.0
 37
0.0
 40
32.43921163191975
 41
1.814583333333333
 42
50.0
 43
0.0
 44
0.0
 50
0.0
 51
0.0
 71
     0
 72
   100
 73
     1
 74
     1
 75
     0
 76
     0
 77
     0
 78
     0
281
     0
 65
     1
110
0.0
120
0.0
130
0.0
111
1.0
121
0.0
131
0.0
112
0.0
122
1.0
132
0.0
 79
     0
146
0.0
  0
ENDTAB
  0
TABLE
  2
LTYPE
  5
18
330
0
100
AcDbSymbolTable
 70
     2
  0
LTYPE
  5
19
330
18
100
AcDbSymbolTableRecord
100
AcDbLinetypeTableRecord
  2
BYBLOCK
 70
     0
  3

 72
    65
 73
     0
 40
0.0
  0
LTYPE
  5
1A
330
18
100
AcDbSymbolTableRecord
100
AcDbLinetypeTableRecord
  2
BYLAYER
 70
     0
  3

 72
    65
 73
     0
 40
0.0
  0
LTYPE
  5
A
330
18
100
AcDbSymbolTableRecord
100
AcDbLinetypeTableRecord
  2
CONTINUOUS
 70
     0
  3
Solid line
 72
    65
 73
     0
 40
0.0
  0
LTYPE
  5
4EE
330
18
100
AcDbSymbolTableRecord
100
AcDbLinetypeTableRecord
  2
HIDDEN
 70
     0
  3
Hidden __ __ __ __ __ __ __ __ __ __ __ __ __ _
 72
    65
 73
     2
 40
0.375
 49
0.25
 74
     0
 49
-0.125
 74
     0
  0
ENDTAB
  0
TABLE
  2
LAYER
  5
14
330
0
100
AcDbSymbolTable
 70
     1
  0
LAYER
  5
6
330
14
100
AcDbSymbolTableRecord
100
AcDbLayerTableRecord
  2
0
 70
     0
 62
     7
  6
CONTINUOUS
370
    -3
390
7
  0
ENDTAB
  0
TABLE
  2
STYLE
  5
15
330
0
100
AcDbSymbolTable
 70
     2
  0
STYLE
  5
16
330
15
100
AcDbSymbolTableRecord
100
AcDbTextStyleTableRecord
  2
STANDARD
 70
     0
 40
0.0
 41
1.0
 50
0.0
 71
     0
 42
0.36
  3
TXT
  4

  0
STYLE
  5
4ED
330
15
100
AcDbSymbolTableRecord
100
AcDbTextStyleTableRecord
  2

 70
     1
 40
0.0
 41
1.0
 50
0.0
 71
     0
 42
0.36
  3
ltypeshp.shx
  4

  0
ENDTAB
  0
TABLE
  2
VIEW
  5
1B
330
0
100
AcDbSymbolTable
 70
     0
  0
ENDTAB
  0
TABLE
  2
UCS
  5
1C
330
0
100
AcDbSymbolTable
 70
     0
  0
ENDTAB
  0
TABLE
  2
APPID
  5
1F
330
0
100
AcDbSymbolTable
 70
     1
  0
APPID
  5
20
330
1F
100
AcDbSymbolTableRecord
100
AcDbRegAppTableRecord
  2
ACAD
 70
     0
  0
ENDTAB
  0
TABLE
  2
DIMSTYLE
  5
21
330
0
100
AcDbSymbolTable
 70
     1
100
AcDbDimStyleTable
  0
DIMSTYLE
105
27
330
21
100
AcDbSymbolTableRecord
100
AcDbDimStyleTableRecord
  2
STANDARD
 70
     0
  3

  4

340
16
  0
ENDTAB
  0
TABLE
  2
BLOCK_RECORD
  5
1
330
0
100
AcDbSymbolTable
 70
     0
  0
BLOCK_RECORD
  5
2
102
{ACAD_XDICTIONARY
360
3
102
}
330
1
100
AcDbSymbolTableRecord
100
AcDbBlockTableRecord
  2
*MODEL_SPACE
340
C
  0
BLOCK_RECORD
  5
E
330
1
100
AcDbSymbolTableRecord
100
AcDbBlockTableRecord
  2
*PAPER_SPACE
340
13
  0
ENDTAB
  0
ENDSEC
  0
SECTION
  2
BLOCKS
  0
BLOCK
  5
5
330
2
100
AcDbEntity
  8
0
100
AcDbBlockBegin
  2
*MODEL_SPACE
 70
     0
 10
0.0
 20
0.0
 30
0.0
  3
*MODEL_SPACE
  1

  4

  0
ENDBLK
  5
B
330
2
100
AcDbEntity
  8
0
100
AcDbBlockEnd
  0
BLOCK
  5
11
330
E
100
AcDbEntity
 67
     1
  8
0
100
AcDbBlockBegin
  2
*PAPER_SPACE
 70
     0
 10
0.0
 20
0.0
 30
0.0
  3
*PAPER_SPACE
  1

  4

  0
ENDBLK
  5
12
330
E
100
AcDbEntity
 67
     1
  8
0
100
AcDbBlockEnd
  0
ENDSEC
  0
SECTION
  2
ENTITIES
  0
ARC
  5
333
330
2
100
AcDbEntity
  8
0
100
AcDbCircle
 10
-2.883875841492788
 20
6.027723576038721
 30
0.0
 40
0.125
100
AcDbArc
 50
180.0
 51
225.0000000000001
  0
LINE
  5
334
330
2
100
AcDbEntity
  8
0
100
AcDbLine
 10
-1.32858076464607
 20
0.1976672045633414
 30
0.0
 11
-1.32858076464607
 21
6.507423724782655
 31
0.0
  0
LINE
  5
335
330
2
100
AcDbEntity
  8
0
100
AcDbLine
 10
-1.23483076464607
 20
0.3628690193955571
 30
0.0
 11
-1.23483076464607
 21
12.53125
 31
0.0
  0
LINE
  5
336
330
2
100
AcDbEntity
  8
0
100
AcDbLine
 10
-1.418116237330452
 20
-0.0000000000000036
 30
0.0
 11
-5.418116237330452
 21
-0.0000000000000036
 31
0.0
  0
LINE
  5
337
330
2
100
AcDbEntity
  8
0
  6
HIDDEN
100
AcDbLine
 10
-1.378526012663407
 20
0.0937499999999964
 30
0.0
 11
-5.357261144787998
 21
0.0937499999999964
 31
0.0
  0
LINE
  5
338
330
2
100
AcDbEntity
  8
0
100
AcDbLine
 10
-5.328580764646063
 20
0.1351672043592096
 30
0.0
 11
-2.732987493844469
 21
2.7307604751608
 31
0.0
  0
ARC
  5
339
330
2
100
AcDbEntity
  8
0
100
AcDbCircle
 10
-3.113757162013116
 20
-1.429181678776537
 30
0.0
 40
2.71157353190871
100
AcDbArc
 50
144.7661113583947
 51
148.1924841111322
  0
LINE
  5
33A
330
2
100
AcDbEntity
  8
0
100
AcDbLine
 10
-2.062080764646062
 20
0.8667499999999961
 30
0.0
 11
-2.062080764646069
 21
0.6957500000000003
 31
0.0
  0
ARC
  5
33B
330
2
100
AcDbEntity
  8
0
100
AcDbCircle
 10
-2.26608076464607
 20
0.7812499999999965
 30
0.0
 40
0.0855
100
AcDbArc
 50
90.0
 51
270.0
  0
ARC
  5
33C
330
2
100
AcDbEntity
  8
0
100
AcDbCircle
 10
-2.232195266047505
 20
0.7812500000003517
 30
0.0
 40
0.0855
100
AcDbArc
 50
89.99983493434672
 51
270.0001650656533
  0
ARC
  5
33D
330
2
100
AcDbEntity
  8
0
100
AcDbCircle
 10
-2.211827835936497
 20
0.7812500000003517
 30
0.0
 40
0.0855
100
AcDbArc
 50
89.99983493434672
 51
270.0001650656533
  0
LINE
  5
33E
330
2
100
AcDbEntity
  8
0
100
AcDbLine
 10
-2.26608076464607
 20
0.8667499999999997
 30
0.0
 11
-2.062080764646069
 21
0.8667499999999961
 31
0.0
  0
LINE
  5
33F
330
2
100
AcDbEntity
  8
0
100
AcDbLine
 10
-2.26608076464607
 20
0.6957500000000003
 30
0.0
 11
-2.062080764646069
 21
0.6957500000000003
 31
0.0
  0
ARC
  5
340
330
2
100
AcDbEntity
  8
0
100
AcDbCircle
 10
-2.821375841492788
 20
3.486670185445451
 30
0.0
 40
0.125
100
AcDbArc
 50
0.0
 51
44.99999999999956
  0
LINE
  5
341
330
2
100
AcDbEntity
  8
0
100
AcDbLine
 10
-2.062080764646069
 20
1.866749999999996
 30
0.0
 11
-2.062080764646069
 21
1.695749999999997
 31
0.0
  0
ARC
  5
342
330
2
100
AcDbEntity
  8
0
100
AcDbCircle
 10
-2.26608076464607
 20
1.78125
 30
0.0
 40
0.0855
100
AcDbArc
 50
90.0
 51
270.0
  0
ARC
  5
343
330
2
100
AcDbEntity
  8
0
100
AcDbCircle
 10
-2.210823297753024
 20
1.781250000000355
 30
0.0
 40
0.0855
100
AcDbArc
 50
89.99983493434672
 51
270.0001650656533
  0
ARC
  5
344
330
2
100
AcDbEntity
  8
0
100
AcDbCircle
 10
-2.231190727864032
 20
1.781250000000355
 30
0.0
 40
0.0855
100
AcDbArc
 50
89.99983493434672
 51
270.0001650656533
  0
LINE
  5
345
330
2
100
AcDbEntity
  8
0
100
AcDbLine
 10
-2.26608076464607
 20
1.695749999999997
 30
0.0
 11
-2.062080764646069
 21
1.695749999999997
 31
0.0
  0
LINE
  5
346
330
2
100
AcDbEntity
  8
0
100
AcDbLine
 10
-2.26608076464607
 20
1.866749999999996
 30
0.0
 11
-2.062080764646062
 21
1.866749999999996
 31
0.0
  0
LINE
  5
347
330
2
100
AcDbEntity
  8
0
100
AcDbLine
 10
-2.696375841492788
 20
3.486670185445451
 30
0.0
 11
-2.696375841492788
 21
2.819148822809119
 31
0.0
  0
LINE
  5
348
330
2
100
AcDbEntity
  8
0
100
AcDbLine
 10
-2.062080764646069
 20
2.866750000000003
 30
0.0
 11
-2.062080764646069
 21
2.69575
 31
0.0
  0
ARC
  5
349
330
2
100
AcDbEntity
  8
0
100
AcDbCircle
 10
-2.26608076464607
 20
2.78125
 30
0.0
 40
0.0855
100
AcDbArc
 50
90.0
 51
270.0
  0
ARC
  5
34A
330
2
100
AcDbEntity
  8
0
100
AcDbCircle
 10
-2.205556251050872
 20
2.781250000000355
 30
0.0
 40
0.0855
100
AcDbArc
 50
89.99983493434672
 51
270.0001650656533
  0
ARC
  5
34B
330
2
100
AcDbEntity
  8
0
100
AcDbCircle
 10
-2.225923681161881
 20
2.781250000000355
 30
0.0
 40
0.0855
100
AcDbArc
 50
89.99983493434672
 51
270.0001650656533
  0
LINE
  5
34C
330
2
100
AcDbEntity
  8
0
100
AcDbLine
 10
-2.26608076464607
 20
2.695750000000004
 30
0.0
 11
-2.062080764646062
 21
2.695750000000004
 31
0.0
  0
LINE
  5
34D
330
2
100
AcDbEntity
  8
0
100
AcDbLine
 10
-2.26608076464607
 20
2.866750000000003
 30
0.0
 11
-2.062080764646062
 21
2.866750000000003
 31
0.0
  0
ARC
  5
34E
330
2
100
AcDbEntity
  8
0
100
AcDbCircle
 10
-2.821375841492788
 20
2.819148822809119
 30
0.0
 40
0.125
100
AcDbArc
 50
314.9999999999999
 51
0.0
  0
LINE
  5
34F
330
2
100
AcDbEntity
  8
0
100
AcDbLine
 10
-2.062080764646062
 20
4.86675
 30
0.0
 11
-2.062080764646062
 21
4.695750000000002
 31
0.0
  0
ARC
  5
350
330
2
100
AcDbEntity
  8
0
100
AcDbCircle
 10
-2.26608076464607
 20
4.781249999999996
 30
0.0
 40
0.0855
100
AcDbArc
 50
90.0
 51
270.0
  0
ARC
  5
351
330
2
100
AcDbEntity
  8
0
100
AcDbCircle
 10
-2.227679363395936
 20
4.781250000000355
 30
0.0
 40
0.0855
100
AcDbArc
 50
89.99983493434672
 51
270.0001650656533
  0
LINE
  5
352
330
2
100
AcDbEntity
  8
0
100
AcDbLine
 10
-2.732987493844469
 20
4.876835228390402
 30
0.0
 11
-2.972264189141107
 21
4.637558533093763
 31
0.0
  0
LINE
  5
353
330
2
100
AcDbEntity
  8
0
100
AcDbLine
 10
-3.008875841492788
 20
4.549170185445444
 30
0.0
 11
-3.008875841492788
 21
3.902723576038724
 31
0.0
  0
LINE
  5
354
330
2
100
AcDbEntity
  8
0
100
AcDbLine
 10
-3.008875841492788
 20
3.902723415289103
 30
0.0
 11
-3.008875841492788
 21
4.413446880742082
 31
0.0
  0
LINE
  5
355
330
2
100
AcDbEntity
  8
0
100
AcDbLine
 10
-2.972264189141107
 20
3.814335228390405
 30
0.0
 11
-2.732987493844469
 21
3.57505853309377
 31
0.0
  0
ARC
  5
356
330
2
100
AcDbEntity
  8
0
100
AcDbCircle
 10
-2.883875841492788
 20
3.902723576038724
 30
0.0
 40
0.125
100
AcDbArc
 50
180.0
 51
225.0000000000001
  0
LINE
  5
357
330
2
100
AcDbEntity
  8
0
100
AcDbLine
 10
-2.062080764646062
 20
3.866749999999996
 30
0.0
 11
-2.062080764646062
 21
3.695749999999997
 31
0.0
  0
ARC
  5
358
330
2
100
AcDbEntity
  8
0
100
AcDbCircle
 10
-2.26608076464607
 20
3.781249999999996
 30
0.0
 40
0.0855
100
AcDbArc
 50
90.0
 51
270.0
  0
ARC
  5
359
330
2
100
AcDbEntity
  8
0
100
AcDbCircle
 10
-2.205556251050872
 20
3.781250000000352
 30
0.0
 40
0.0855
100
AcDbArc
 50
89.99983493434672
 51
270.0001650656533
  0
LINE
  5
35A
330
2
100
AcDbEntity
  8
0
100
AcDbLine
 10
-2.26608076464607
 20
3.695749999999997
 30
0.0
 11
-2.062080764646062
 21
3.695749999999997
 31
0.0
  0
LINE
  5
35B
330
2
100
AcDbEntity
  8
0
100
AcDbLine
 10
-2.26608076464607
 20
3.866749999999996
 30
0.0
 11
-2.062080764646062
 21
3.866749999999994
 31
0.0
  0
ARC
  5
35C
330
2
100
AcDbEntity
  8
0
100
AcDbCircle
 10
-2.883875841492788
 20
4.549170185445444
 30
0.0
 40
0.125
100
AcDbArc
 50
134.9999999999999
 51
180.0
  0
LINE
  5
35D
330
2
100
AcDbEntity
  8
0
100
AcDbLine
 10
-2.26608076464607
 20
4.69575
 30
0.0
 11
-2.062080764646062
 21
4.69575
 31
0.0
  0
LINE
  5
35E
330
2
100
AcDbEntity
  8
0
100
AcDbLine
 10
-2.696375841492788
 20
5.611670185445444
 30
0.0
 11
-2.696375841492788
 21
4.965223576038721
 31
0.0
  0
LINE
  5
35F
330
2
100
AcDbEntity
  8
0
100
AcDbLine
 10
-2.26608076464607
 20
4.86675
 30
0.0
 11
-2.062080764646062
 21
4.86675
 31
0.0
  0
ARC
  5
360
330
2
100
AcDbEntity
  8
0
100
AcDbCircle
 10
-2.821375841492788
 20
4.965223576038721
 30
0.0
 40
0.125
100
AcDbArc
 50
314.9999999999996
 51
0.0
  0
LINE
  5
361
330
2
100
AcDbEntity
  8
0
100
AcDbLine
 10
-2.972264189141107
 20
5.939335228390402
 30
0.0
 11
-2.732987493844469
 21
5.700058533093763
 31
0.0
  0
ARC
  5
362
330
2
100
AcDbEntity
  8
0
100
AcDbCircle
 10
-2.821375841492788
 20
5.611670185445444
 30
0.0
 40
0.125
100
AcDbArc
 50
0.0
 51
45.00000000000012
  0
ARC
  5
363
330
2
100
AcDbEntity
  8
0
100
AcDbCircle
 10
0.6649532408371783
 20
-0.8244369540601433
 30
0.0
 40
2.240284522575986
100
AcDbArc
 50
147.9958970189987
 51
158.407338193781
  0
LINE
  5
364
330
2
100
AcDbEntity
  8
0
100
AcDbLine
 10
-3.008875841492788
 20
12.53125
 30
0.0
 11
-1.23483076464607
 21
12.53125
 31
0.0
  0
LINE
  5
365
330
2
100
AcDbEntity
  8
0
100
AcDbLine
 10
-2.696375841492788
 20
11.61167018544544
 30
0.0
 11
-2.696375841492788
 21
10.96522357603872
 31
0.0
  0
LINE
  5
366
330
2
100
AcDbEntity
  8
0
100
AcDbLine
 10
-3.008875841492788
 20
8.549170185445444
 30
0.0
 11
-3.008875841492788
 21
8.027723319994447
 31
0.0
  0
LINE
  5
367
330
2
100
AcDbEntity
  8
0
100
AcDbLine
 10
-3.008875841492788
 20
8.027723576038721
 30
0.0
 11
-3.008875841492788
 21
8.531249999999996
 31
0.0
  0
LINE
  5
368
330
2
100
AcDbEntity
  8
0
100
AcDbLine
 10
-2.696375841492788
 20
7.611670185445444
 30
0.0
 11
-2.696375841492788
 21
6.965223576038721
 31
0.0
  0
ARC
  5
369
330
2
100
AcDbEntity
  8
0
100
AcDbCircle
 10
-2.883875841492788
 20
6.549170185445444
 30
0.0
 40
0.125
100
AcDbArc
 50
134.9999999999999
 51
180.0
  0
LINE
  5
36A
330
2
100
AcDbEntity
  8
0
100
AcDbLine
 10
-3.008875841492788
 20
6.027723576038721
 30
0.0
 11
-3.008875841492788
 21
6.531249999999996
 31
0.0
  0
LINE
  5
36B
330
2
100
AcDbEntity
  8
0
100
AcDbLine
 10
-3.008875841492788
 20
6.531249999999996
 30
0.0
 11
-3.008875841492788
 21
6.027723319994447
 31
0.0
  0
LINE
  5
36C
330
2
100
AcDbEntity
  8
0
100
AcDbLine
 10
-2.732987493844469
 20
6.876835228390402
 30
0.0
 11
-2.972264189141107
 21
6.637558533093763
 31
0.0
  0
LINE
  5
36D
330
2
100
AcDbEntity
  8
0
100
AcDbLine
 10
-2.062080764646062
 20
6.845376393061205
 30
0.0
 11
-2.062080764646062
 21
6.695749999999993
 31
0.0
  0
LINE
  5
36E
330
2
100
AcDbEntity
  8
0
100
AcDbLine
 10
-2.26608076464607
 20
6.69575
 30
0.0
 11
-2.07858076464607
 21
6.69575
 31
0.0
  0
LINE
  5
36F
330
2
100
AcDbEntity
  8
0
100
AcDbLine
 10
-2.26608076464607
 20
6.86675
 30
0.0
 11
-2.07858076464607
 21
6.86675
 31
0.0
  0
ARC
  5
370
330
2
100
AcDbEntity
  8
0
100
AcDbCircle
 10
-2.26608076464607
 20
6.781249999999996
 30
0.0
 40
0.0855
100
AcDbArc
 50
90.0
 51
270.0
  0
ARC
  5
371
330
2
100
AcDbEntity
  8
0
100
AcDbCircle
 10
-2.227346865986668
 20
6.781249999999996
 30
0.0
 40
0.0855
100
AcDbArc
 50
89.99983493434672
 51
270.0001650656533
  0
LINE
  5
372
330
2
100
AcDbEntity
  8
0
100
AcDbLine
 10
-2.26608076464607
 20
6.695749999999993
 30
0.0
 11
-2.062080764646062
 21
6.695749999999993
 31
0.0
  0
LINE
  5
373
330
2
100
AcDbEntity
  8
0
100
AcDbLine
 10
-2.26608076464607
 20
6.866749999999993
 30
0.0
 11
-2.062080764646062
 21
6.866749999999993
 31
0.0
  0
ARC
  5
374
330
2
100
AcDbEntity
  8
0
100
AcDbCircle
 10
-2.821375841492788
 20
6.965223576038721
 30
0.0
 40
0.125
100
AcDbArc
 50
314.9999999999996
 51
0.0
  0
LINE
  5
375
330
2
100
AcDbEntity
  8
0
100
AcDbLine
 10
-2.972264189141107
 20
7.939335228390402
 30
0.0
 11
-2.732987493844469
 21
7.700058533093763
 31
0.0
  0
ARC
  5
376
330
2
100
AcDbEntity
  8
0
100
AcDbCircle
 10
-2.821375841492788
 20
7.611670185445444
 30
0.0
 40
0.125
100
AcDbArc
 50
0.0
 51
45.00000000000012
  0
ARC
  5
377
330
2
100
AcDbEntity
  8
0
100
AcDbCircle
 10
-2.883875841492788
 20
8.027723576038721
 30
0.0
 40
0.125
100
AcDbArc
 50
180.0
 51
225.0000000000001
  0
LINE
  5
378
330
2
100
AcDbEntity
  8
0
100
AcDbLine
 10
-2.972264189141107
 20
9.939335228390402
 30
0.0
 11
-2.732987493844469
 21
9.700058533093763
 31
0.0
  0
LINE
  5
379
330
2
100
AcDbEntity
  8
0
100
AcDbLine
 10
-2.696375841492788
 20
9.611670185445444
 30
0.0
 11
-2.696375841492788
 21
8.965223576038721
 31
0.0
  0
LINE
  5
37A
330
2
100
AcDbEntity
  8
0
100
AcDbLine
 10
-2.732987493844469
 20
8.876835228390402
 30
0.0
 11
-2.972264189141107
 21
8.637558533093763
 31
0.0
  0
ARC
  5
37B
330
2
100
AcDbEntity
  8
0
100
AcDbCircle
 10
-2.883875841492788
 20
8.549170185445444
 30
0.0
 40
0.125
100
AcDbArc
 50
134.9999999999999
 51
180.0
  0
LINE
  5
37C
330
2
100
AcDbEntity
  8
0
100
AcDbLine
 10
-2.062080764646062
 20
8.845376393061205
 30
0.0
 11
-2.062080764646062
 21
8.695749999999993
 31
0.0
  0
ARC
  5
37D
330
2
100
AcDbEntity
  8
0
100
AcDbCircle
 10
-2.227346865986668
 20
8.781249999999996
 30
0.0
 40
0.0855
100
AcDbArc
 50
89.99983493434672
 51
270.0001650656533
  0
ARC
  5
37E
330
2
100
AcDbEntity
  8
0
100
AcDbCircle
 10
-2.26608076464607
 20
8.781249999999996
 30
0.0
 40
0.0855
100
AcDbArc
 50
90.0
 51
270.0
  0
LINE
  5
37F
330
2
100
AcDbEntity
  8
0
100
AcDbLine
 10
-2.26608076464607
 20
8.866749999999993
 30
0.0
 11
-2.062080764646062
 21
8.866749999999993
 31
0.0
  0
LINE
  5
380
330
2
100
AcDbEntity
  8
0
100
AcDbLine
 10
-2.26608076464607
 20
8.695749999999993
 30
0.0
 11
-2.062080764646062
 21
8.695749999999993
 31
0.0
  0
LINE
  5
381
330
2
100
AcDbEntity
  8
0
100
AcDbLine
 10
-2.26608076464607
 20
8.86675
 30
0.0
 11
-2.07858076464607
 21
8.86675
 31
0.0
  0
LINE
  5
382
330
2
100
AcDbEntity
  8
0
100
AcDbLine
 10
-2.26608076464607
 20
8.69575
 30
0.0
 11
-2.07858076464607
 21
8.69575
 31
0.0
  0
ARC
  5
383
330
2
100
AcDbEntity
  8
0
100
AcDbCircle
 10
-2.821375841492788
 20
8.965223576038721
 30
0.0
 40
0.125
100
AcDbArc
 50
314.9999999999996
 51
0.0
  0
ARC
  5
384
330
2
100
AcDbEntity
  8
0
100
AcDbCircle
 10
-2.821375841492788
 20
9.611670185445444
 30
0.0
 40
0.125
100
AcDbArc
 50
0.0
 51
45.00000000000012
  0
LINE
  5
385
330
2
100
AcDbEntity
  8
0
100
AcDbLine
 10
-3.008875841492788
 20
10.53125
 30
0.0
 11
-3.008875841492788
 21
10.02772331999445
 31
0.0
  0
ARC
  5
386
330
2
100
AcDbEntity
  8
0
100
AcDbCircle
 10
-2.883875841492788
 20
10.02772357603872
 30
0.0
 40
0.125
100
AcDbArc
 50
180.0
 51
225.0000000000001
  0
LINE
  5
387
330
2
100
AcDbEntity
  8
0
100
AcDbLine
 10
-2.732987493844469
 20
10.8768352283904
 30
0.0
 11
-2.972264189141107
 21
10.63755853309376
 31
0.0
  0
ARC
  5
388
330
2
100
AcDbEntity
  8
0
100
AcDbCircle
 10
-2.883875841492788
 20
10.54917018544544
 30
0.0
 40
0.125
100
AcDbArc
 50
134.9999999999999
 51
180.0
  0
LINE
  5
389
330
2
100
AcDbEntity
  8
0
100
AcDbLine
 10
-2.062080764646062
 20
10.84537639306121
 30
0.0
 11
-2.062080764646062
 21
10.69574999999999
 31
0.0
  0
ARC
  5
38A
330
2
100
AcDbEntity
  8
0
100
AcDbCircle
 10
-2.26608076464607
 20
10.78125
 30
0.0
 40
0.0855
100
AcDbArc
 50
90.0
 51
270.0
  0
ARC
  5
38B
330
2
100
AcDbEntity
  8
0
100
AcDbCircle
 10
-2.227346865986668
 20
10.78125
 30
0.0
 40
0.0855
100
AcDbArc
 50
89.99983493434672
 51
270.0001650656533
  0
LINE
  5
38C
330
2
100
AcDbEntity
  8
0
100
AcDbLine
 10
-2.26608076464607
 20
10.69575
 30
0.0
 11
-2.07858076464607
 21
10.69575
 31
0.0
  0
LINE
  5
38D
330
2
100
AcDbEntity
  8
0
100
AcDbLine
 10
-2.26608076464607
 20
10.86675
 30
0.0
 11
-2.07858076464607
 21
10.86675
 31
0.0
  0
LINE
  5
38E
330
2
100
AcDbEntity
  8
0
100
AcDbLine
 10
-2.26608076464607
 20
10.69574999999999
 30
0.0
 11
-2.062080764646062
 21
10.69574999999999
 31
0.0
  0
LINE
  5
38F
330
2
100
AcDbEntity
  8
0
100
AcDbLine
 10
-2.26608076464607
 20
10.86674999999999
 30
0.0
 11
-2.062080764646062
 21
10.86674999999999
 31
0.0
  0
ARC
  5
390
330
2
100
AcDbEntity
  8
0
100
AcDbCircle
 10
-2.821375841492788
 20
10.96522357603872
 30
0.0
 40
0.125
100
AcDbArc
 50
314.9999999999996
 51
0.0
  0
LINE
  5
391
330
2
100
AcDbEntity
  8
0
100
AcDbLine
 10
-3.008875841492788
 20
12.02772357603872
 30
0.0
 11
-3.008875841492788
 21
12.53125
 31
0.0
  0
LINE
  5
392
330
2
100
AcDbEntity
  8
0
100
AcDbLine
 10
-3.008875841492788
 20
12.53125
 30
0.0
 11
-3.008875841492788
 21
12.02772331999445
 31
0.0
  0
ARC
  5
393
330
2
100
AcDbEntity
  8
0
100
AcDbCircle
 10
-2.821375841492788
 20
11.61167018544544
 30
0.0
 40
0.125
100
AcDbArc
 50
0.0
 51
45.00000000000012
  0
LINE
  5
394
330
2
100
AcDbEntity
  8
0
100
AcDbLine
 10
-2.972264189141107
 20
11.9393352283904
 30
0.0
 11
-2.732987493844469
 21
11.70005853309376
 31
0.0
  0
ARC
  5
395
330
2
100
AcDbEntity
  8
0
100
AcDbCircle
 10
-2.883875841492788
 20
12.02772357603872
 30
0.0
 40
0.125
100
AcDbArc
 50
180.0
 51
225.0000000000001
  0
LINE
  5
396
330
2
100
AcDbEntity
  8
0
100
AcDbLine
 10
-1.32858076464607
 20
12.53125
 30
0.0
 11
-1.32858076464607
 21
6.207423724782654
 31
0.0
  0
ENDSEC
  0
SECTION
  2
OBJECTS
  0
DICTIONARY
  5
9
330
0
100
AcDbDictionary
281
     1
  3
ACAD_COLOR
350
22C
  3
ACAD_GROUP
350
23
  3
ACAD_LAYOUT
350
D
  3
ACAD_MATERIAL
350
22B
  3
ACAD_MLINESTYLE
350
24
  3
ACAD_PLOTSETTINGS
350
25
  3
ACAD_PLOTSTYLENAME
350
8
  3
ACAD_TABLESTYLE
350
22D
  3
ACDBHEADERROUNDTRIPXREC
350
506
  3
AcDbVariableDictionary
350
227
  0
DICTIONARY
  5
3
330
2
100
AcDbDictionary
280
     1
281
     1
  3
ACAD_SORTENTS
360
232
  0
DICTIONARY
  5
22C
102
{ACAD_REACTORS
330
9
102
}
330
9
100
AcDbDictionary
281
     1
  0
DICTIONARY
  5
23
102
{ACAD_REACTORS
330
9
102
}
330
9
100
AcDbDictionary
281
     1
  0
DICTIONARY
  5
D
102
{ACAD_REACTORS
330
9
102
}
330
9
100
AcDbDictionary
281
     1
  3
Layout1
350
13
  3
Model
350
C
  0
DICTIONARY
  5
22B
102
{ACAD_REACTORS
330
9
102
}
330
9
100
AcDbDictionary
281
     1
  0
DICTIONARY
  5
24
102
{ACAD_REACTORS
330
9
102
}
330
9
100
AcDbDictionary
281
     1
  3
STANDARD
350
26
  0
DICTIONARY
  5
25
102
{ACAD_REACTORS
330
9
102
}
330
9
100
AcDbDictionary
281
     1
  0
ACDBDICTIONARYWDFLT
  5
8
102
{ACAD_REACTORS
330
9
102
}
330
9
100
AcDbDictionary
281
     1
  3
Normal
350
7
100
AcDbDictionaryWithDefault
340
7
  0
DICTIONARY
  5
22D
102
{ACAD_REACTORS
330
9
102
}
330
9
100
AcDbDictionary
281
     1
  3
Standard
350
22E
  0
DICTIONARY
  5
506
102
{ACAD_REACTORS
330
9
102
}
330
9
100
AcDbDictionary
281
     1
  3
COLORDICT
350
507
  3
MATERIALDICT
350
508
  0
DICTIONARY
  5
227
102
{ACAD_REACTORS
330
9
102
}
330
9
100
AcDbDictionary
281
     1
  3
CTABLESTYLE
350
41B
  3
HIDETEXT
350
505
  0
SORTENTSTABLE
  5
232
102
{ACAD_REACTORS
330
3
102
}
330
3
100
AcDbSortentsTable
330
2
331
0
  5
3F2
331
362
  5
2E3
331
358
  5
2D9
331
33D
  5
2BE
331
35E
  5
2DF
331
349
  5
2CA
331
334
  5
2B5
331
35F
  5
2E0
331
395
  5
316
331
386
  5
307
331
33E
  5
2BF
331
33A
  5
2BB
331
341
  5
2C2
331
359
  5
2DA
331
339
  5
2BA
331
383
  5
304
331
38C
  5
30D
331
366
  5
2E7
331
345
  5
2C6
331
368
  5
2E9
331
36A
  5
2EB
331
338
  5
2B9
331
35B
  5
2DC
331
37A
  5
2FB
331
38F
  5
310
331
38B
  5
30C
331
335
  5
2B6
331
34D
  5
2CE
331
34C
  5
2CD
331
370
  5
2F1
331
34F
  5
2D0
331
333
  5
2B4
331
354
  5
2D5
331
36F
  5
2F0
331
38E
  5
30F
331
37C
  5
2FD
331
33F
  5
2C0
331
364
  5
2E5
331
35D
  5
2DE
331
376
  5
2F7
331
391
  5
312
331
357
  5
2D8
331
377
  5
2F8
331
352
  5
2D3
331
37D
  5
2FE
331
374
  5
2F5
331
393
  5
314
331
389
  5
30A
331
37E
  5
2FF
331
36E
  5
2EF
331
33B
  5
2BC
331
361
  5
2E2
331
392
  5
313
331
396
  5
317
331
348
  5
2C9
331
372
  5
2F3
331
347
  5
2C8
331
382
  5
303
331
388
  5
309
331
34A
  5
2CB
331
375
  5
2F6
331
35C
  5
2DD
331
394
  5
315
331
33C
  5
2BD
331
342
  5
2C3
331
385
  5
306
331
35A
  5
2DB
331
36C
  5
2ED
331
371
  5
2F2
331
350
  5
2D1
331
353
  5
2D4
331
367
  5
2E8
331
346
  5
2C7
331
356
  5
2D7
331
36D
  5
2EE
331
38D
  5
30E
331
344
  5
2C5
331
343
  5
2C4
331
384
  5
305
331
336
  5
2B7
331
355
  5
2D6
331
337
  5
2B8
331
378
  5
2F9
331
351
  5
2D2
331
381
  5
302
331
380
  5
301
331
363
  5
2E4
331
37F
  5
300
331
387
  5
308
331
34E
  5
2CF
331
37B
  5
2FC
331
369
  5
2EA
331
34B
  5
2CC
331
360
  5
2E1
331
365
  5
2E6
331
340
  5
2C1
331
390
  5
311
331
36B
  5
2EC
331
373
  5
2F4
331
38A
  5
30B
331
379
  5
2FA
  0
LAYOUT
  5
13
102
{ACAD_REACTORS
330
D
102
}
102
{ACAD_XDICTIONARY
360
509
102
}
330
D
100
AcDbPlotSettings
  1

  2
CANON BJC-6000
  4

  6

 40
0.0
 41
0.0
 42
0.0
 43
0.0
 44
0.0
 45
0.0
 46
0.0
 47
0.0
 48
0.0
 49
0.0
140
0.0
141
0.0
142
1.0
143
1.0
 70
   688
 72
     0
 73
     0
 74
     5
  7

 75
    16
147
1.0
148
0.0
149
0.0
100
AcDbLayout
  1
Layout1
 70
     0
 71
     1
 10
0.0
 20
0.0
 11
12.0
 21
9.0
 12
0.0
 22
0.0
 32
0.0
 14
1.000000000000000E+20
 24
1.000000000000000E+20
 34
1.000000000000000E+20
 15
-1.000000000000000E+20
 25
-1.000000000000000E+20
 35
-1.000000000000000E+20
146
0.0
 13
0.0
 23
0.0
 33
0.0
 16
1.0
 26
0.0
 36
0.0
 17
0.0
 27
1.0
 37
0.0
 76
     0
330
E
  0
LAYOUT
  5
C
102
{ACAD_REACTORS
330
D
102
}
102
{ACAD_XDICTIONARY
360
50B
102
}
330
D
100
AcDbPlotSettings
  1

  2
CANON BJC-6000
  4

  6

 40
0.0
 41
0.0
 42
0.0
 43
0.0
 44
0.0
 45
0.0
 46
0.0
 47
0.0
 48
0.0
 49
0.0
140
0.0
141
0.0
142
1.0
143
1.0
 70
  1712
 72
     0
 73
     0
 74
     0
  7

 75
     0
147
1.0
148
0.0
149
0.0
100
AcDbLayout
  1
Model
 70
     1
 71
     0
 10
0.0
 20
0.0
 11
12.0
 21
9.0
 12
0.0
 22
0.0
 32
0.0
 14
0.0
 24
0.0
 34
0.0
 15
0.0
 25
0.0
 35
0.0
146
0.0
 13
0.0
 23
0.0
 33
0.0
 16
1.0
 26
0.0
 36
0.0
 17
0.0
 27
1.0
 37
0.0
 76
     0
330
2
  0
MLINESTYLE
  5
26
102
{ACAD_REACTORS
330
24
102
}
330
24
100
AcDbMlineStyle
  2
STANDARD
 70
     0
  3

 62
   256
 51
90.0
 52
90.0
 71
     2
 49
0.5
 62
   256
  6
BYLAYER
 49
-0.5
 62
   256
  6
BYLAYER
  0
ACDBPLACEHOLDER
  5
7
102
{ACAD_REACTORS
330
8
102
}
330
8
  0
ACAD_PROXY_OBJECT
  5
22E
102
{ACAD_REACTORS
330
22D
102
}
330
22D
100
AcDbProxyObject
 90
      499
 91
      509
 95
   983063
 70
     0
 93
     1841
310
4214DD185B99185C9928B81E85EB51B8AE3F2E07A17AD46E2B8FC02B5E8DC0F42B1CFD028000000C1008070000C3001FDFF8000000C1003FBFF000000182007F7FE00000030400FEFFC00000060801FDFF8000000C1003FBFF00000018200000000000000681FA0B0000001820100E000186003FBFF000000182007F7FE000
310
00030400FEFFC00000060801FDFF8000000C1003FBFF000000182007F7FE000000304000AD7A3703D0AC73F4160000003040201C00030C007F7FE00000030400FEFFC00000060801FDFF8000000C1003FBFF000000182007F7FE00000030400FEFFC000000608000
340
16
340
16
340
16
 94
        0
  0
XRECORD
  5
507
102
{ACAD_REACTORS
330
506
102
}
330
506
100
AcDbXrecord
340
22C
  0
XRECORD
  5
508
102
{ACAD_REACTORS
330
506
102
}
330
506
100
AcDbXrecord
340
22B
  0
DICTIONARYVAR
  5
41B
102
{ACAD_REACTORS
330
227
102
}
330
227
100
DictionaryVariables
280
     0
  1
STANDARD
  0
DICTIONARYVAR
  5
505
102
{ACAD_REACTORS
330
227
102
}
330
227
100
DictionaryVariables
280
     0
  1
0
  0
DICTIONARY
  5
509
330
13
100
AcDbDictionary
280
     1
281
     1
  3
ACAD_XREC_ROUNDTRIP
360
50A
  0
DICTIONARY
  5
50B
330
C
100
AcDbDictionary
280
     1
281
     1
  3
ACAD_XREC_ROUNDTRIP
360
50C
  0
XRECORD
  5
50A
102
{ACAD_REACTORS
330
509
102
}
330
509
100
AcDbXrecord
102
SHADEPLOT
 70
     0
102
SHADEPLOTRESLEVEL
 70
     2
102
SHADEPLOTCUSTOMDPI
 70
   300
  0
XRECORD
  5
50C
102
{ACAD_REACTORS
330
50B
102
}
330
50B
100
AcDbXrecord
102
SHADEPLOT
 70
     0
102
SHADEPLOTRESLEVEL
 70
     2
102
SHADEPLOTCUSTOMDPI
 70
   300
  0
ENDSEC
  0
EOF
