  0
SECTION
  2
HEADER
  9
$ACADVER
  1
AC1015
  9
$ACADMAINTVER
 70
     6
  9
$DWGCODEPAGE
  3
ANSI_1252
  9
$INSBASE
 10
0.0
 20
0.0
 30
0.0
  9
$EXTMIN
 10
-24.55490102939645
 20
-0.1232909226362722
 30
-0.0015258207003583
  9
$EXTMAX
 10
23.36608895550725
 20
17.73559577033809
 30
0.0000000349246037
  9
$LIMMIN
 10
0.0
 20
0.0
  9
$LIMMAX
 10
52.5
 20
40.0
  9
$ORTHOMODE
 70
     1
  9
$REGENMODE
 70
     1
  9
$FILLMODE
 70
     1
  9
$QTEXTMODE
 70
     0
  9
$MIRRTEXT
 70
     0
  9
$LTSCALE
 40
1.0
  9
$ATTMODE
 70
     1
  9
$TEXTSIZE
 40
0.45
  9
$TRACEWID
 40
0.05
  9
$TEXTSTYLE
  7
STANDARD
  9
$CLAYER
  8
0
  9
$CELTYPE
  6
BYLAYER
  9
$CECOLOR
 62
   256
  9
$CELTSCALE
 40
1.0
  9
$DISPSILH
 70
     0
  9
$DIMSCALE
 40
5.0
  9
$DIMASZ
 40
0.125
  9
$DIMEXO
 40
0.062
  9
$DIMDLI
 40
0.375
  9
$DIMRND
 40
0.0
  9
$DIMDLE
 40
0.0
  9
$DIMEXE
 40
0.08
  9
$DIMTP
 40
0.0
  9
$DIMTM
 40
0.0
  9
$DIMTXT
 40
0.09
  9
$DIMCEN
 40
-0.06
  9
$DIMTSZ
 40
0.0
  9
$DIMTOL
 70
     0
  9
$DIMLIM
 70
     0
  9
$DIMTIH
 70
     1
  9
$DIMTOH
 70
     1
  9
$DIMSE1
 70
     0
  9
$DIMSE2
 70
     0
  9
$DIMTAD
 70
     0
  9
$DIMZIN
 70
     0
  9
$DIMBLK
  1

  9
$DIMASO
 70
     0
  9
$DIMSHO
 70
     0
  9
$DIMPOST
  1

  9
$DIMAPOST
  1

  9
$DIMALT
 70
     0
  9
$DIMALTD
 70
     2
  9
$DIMALTF
 40
25.4
  9
$DIMLFAC
 40
1.0
  9
$DIMTOFL
 70
     0
  9
$DIMTVP
 40
0.0
  9
$DIMTIX
 70
     0
  9
$DIMSOXD
 70
     0
  9
$DIMSAH
 70
     0
  9
$DIMBLK1
  1

  9
$DIMBLK2
  1

  9
$DIMSTYLE
  2
STANDARD
  9
$DIMCLRD
 70
     0
  9
$DIMCLRE
 70
     0
  9
$DIMCLRT
 70
     0
  9
$DIMTFAC
 40
1.0
  9
$DIMGAP
 40
0.09375
  9
$DIMJUST
 70
     0
  9
$DIMSD1
 70
     0
  9
$DIMSD2
 70
     0
  9
$DIMTOLJ
 70
     1
  9
$DIMTZIN
 70
     0
  9
$DIMALTZ
 70
     0
  9
$DIMALTTZ
 70
     0
  9
$DIMUPT
 70
     0
  9
$DIMDEC
 70
     5
  9
$DIMTDEC
 70
     5
  9
$DIMALTU
 70
     5
  9
$DIMALTTD
 70
     2
  9
$DIMTXSTY
  7
STANDARD
  9
$DIMAUNIT
 70
     0
  9
$DIMADEC
 70
     0
  9
$DIMALTRND
 40
0.0
  9
$DIMAZIN
 70
     0
  9
$DIMDSEP
 70
    46
  9
$DIMATFIT
 70
     3
  9
$DIMFRAC
 70
     2
  9
$DIMLDRBLK
  1

  9
$DIMLUNIT
 70
     5
  9
$DIMLWD
 70
    -2
  9
$DIMLWE
 70
    -2
  9
$DIMTMOVE
 70
     2
  9
$LUNITS
 70
     5
  9
$LUPREC
 70
     5
  9
$SKETCHINC
 40
0.1
  9
$FILLETRAD
 40
0.0
  9
$AUNITS
 70
     0
  9
$AUPREC
 70
     0
  9
$MENU
  1
qa
  9
$ELEVATION
 40
0.0
  9
$PELEVATION
 40
0.0
  9
$THICKNESS
 40
0.0
  9
$LIMCHECK
 70
     0
  9
$CHAMFERA
 40
0.0
  9
$CHAMFERB
 40
0.0
  9
$CHAMFERC
 40
0.0
  9
$CHAMFERD
 40
0.0
  9
$SKPOLY
 70
     0
  9
$TDCREATE
 40
2450575.69274919
  9
$TDUCREATE
 40
2450576.026082523
  9
$TDUPDATE
 40
2454167.662473843
  9
$TDUUPDATE
 40
2454167.995807176
  9
$TDINDWG
 40
0.3661879282
  9
$TDUSRTIMER
 40
0.3661879282
  9
$USRTIMER
 70
     1
  9
$ANGBASE
 50
0.0
  9
$ANGDIR
 70
     0
  9
$PDMODE
 70
     0
  9
$PDSIZE
 40
0.0
  9
$PLINEWID
 40
0.0
  9
$SPLFRAME
 70
     0
  9
$SPLINETYPE
 70
     6
  9
$SPLINESEGS
 70
     8
  9
$HANDSEED
  5
1340
  9
$SURFTAB1
 70
     6
  9
$SURFTAB2
 70
     6
  9
$SURFTYPE
 70
     6
  9
$SURFU
 70
     6
  9
$SURFV
 70
     6
  9
$UCSBASE
  2

  9
$UCSNAME
  2

  9
$UCSORG
 10
0.0
 20
0.0
 30
0.0
  9
$UCSXDIR
 10
1.0
 20
0.0
 30
0.0
  9
$UCSYDIR
 10
0.0
 20
1.0
 30
0.0
  9
$UCSORTHOREF
  2

  9
$UCSORTHOVIEW
 70
     0
  9
$UCSORGTOP
 10
0.0
 20
0.0
 30
0.0
  9
$UCSORGBOTTOM
 10
0.0
 20
0.0
 30
0.0
  9
$UCSORGLEFT
 10
0.0
 20
0.0
 30
0.0
  9
$UCSORGRIGHT
 10
0.0
 20
0.0
 30
0.0
  9
$UCSORGFRONT
 10
0.0
 20
0.0
 30
0.0
  9
$UCSORGBACK
 10
0.0
 20
0.0
 30
0.0
  9
$PUCSBASE
  2

  9
$PUCSNAME
  2

  9
$PUCSORG
 10
0.0
 20
0.0
 30
0.0
  9
$PUCSXDIR
 10
1.0
 20
0.0
 30
0.0
  9
$PUCSYDIR
 10
0.0
 20
1.0
 30
0.0
  9
$PUCSORTHOREF
  2

  9
$PUCSORTHOVIEW
 70
     0
  9
$PUCSORGTOP
 10
0.0
 20
0.0
 30
0.0
  9
$PUCSORGBOTTOM
 10
0.0
 20
0.0
 30
0.0
  9
$PUCSORGLEFT
 10
0.0
 20
0.0
 30
0.0
  9
$PUCSORGRIGHT
 10
0.0
 20
0.0
 30
0.0
  9
$PUCSORGFRONT
 10
0.0
 20
0.0
 30
0.0
  9
$PUCSORGBACK
 10
0.0
 20
0.0
 30
0.0
  9
$USERI1
 70
     0
  9
$USERI2
 70
     0
  9
$USERI3
 70
     0
  9
$USERI4
 70
     0
  9
$USERI5
 70
     0
  9
$USERR1
 40
0.0
  9
$USERR2
 40
0.0
  9
$USERR3
 40
0.0
  9
$USERR4
 40
0.0
  9
$USERR5
 40
0.0
  9
$WORLDVIEW
 70
     1
  9
$SHADEDGE
 70
     3
  9
$SHADEDIF
 70
    70
  9
$TILEMODE
 70
     1
  9
$MAXACTVP
 70
    16
  9
$PINSBASE
 10
0.0
 20
0.0
 30
0.0
  9
$PLIMCHECK
 70
     0
  9
$PEXTMIN
 10
1.000000000000000E+20
 20
1.000000000000000E+20
 30
1.000000000000000E+20
  9
$PEXTMAX
 10
-1.000000000000000E+20
 20
-1.000000000000000E+20
 30
-1.000000000000000E+20
  9
$PLIMMIN
 10
0.0
 20
0.0
  9
$PLIMMAX
 10
12.0
 20
9.0
  9
$UNITMODE
 70
     0
  9
$VISRETAIN
 70
     0
  9
$PLINEGEN
 70
     0
  9
$PSLTSCALE
 70
     0
  9
$TREEDEPTH
 70
  3020
  9
$CMLSTYLE
  2
STANDARD
  9
$CMLJUST
 70
     0
  9
$CMLSCALE
 40
1.0
  9
$PROXYGRAPHICS
 70
     1
  9
$MEASUREMENT
 70
     0
  9
$CELWEIGHT
370
    -1
  9
$ENDCAPS
280
     0
  9
$JOINSTYLE
280
     0
  9
$LWDISPLAY
290
     0
  9
$INSUNITS
 70
     0
  9
$HYPERLINKBASE
  1

  9
$STYLESHEET
  1

  9
$XEDIT
290
     1
  9
$CEPSNTYPE
380
     0
  9
$PSTYLEMODE
290
     1
  9
$FINGERPRINTGUID
  2
{2988C309-482F-4F84-9C51-487784A65633}
  9
$VERSIONGUID
  2
{05A855CC-B917-4C3D-B6C6-D0DA2414C552}
  9
$EXTNAMES
290
     1
  9
$PSVPSCALE
 40
0.0
  9
$OLESTARTUP
290
     0
  0
ENDSEC
  0
SECTION
  2
CLASSES
  0
CLASS
  1
DICTIONARYVAR
  2
AcDbDictionaryVar
  3
AutoCAD 2000
 90
        0
280
     0
281
     0
  0
CLASS
  1
LWPOLYLINE
  2
AcDbPolyline
  3
AutoCAD 2000
 90
        0
280
     0
281
     1
  0
CLASS
  1
ACDBDICTIONARYWDFLT
  2
AcDbDictionaryWithDefault
  3
AutoCAD 2000
 90
        0
280
     0
281
     0
  0
CLASS
  1
ACDBPLACEHOLDER
  2
AcDbPlaceHolder
  3
ObjectDBX Classes
 90
        0
280
     0
281
     0
  0
CLASS
  1
LAYOUT
  2
AcDbLayout
  3
ObjectDBX Classes
 90
        0
280
     0
281
     0
  0
CLASS
  1
LONG_TRANSACTION
  2
AcDbLongTransaction
  3
ObjectDBX Classes
 90
   -65536
280
     1
281
     0
  0
CLASS
  1
LWPOLYLINE
  2
AcDbPolyline
  3
AutoCAD 2000
 90
        0
280
     0
281
     1
  0
CLASS
  1
HATCH
  2
AcDbHatch
  3
AutoCAD 2000
 90
        0
280
     0
281
     1
  0
CLASS
  1
XRECORD
  2
AcDbXrecord
  3
AutoCAD 2000
 90
        0
280
     0
281
     0
  0
CLASS
  1
TABLESTYLE
  2
AcDbTableStyle
  3
ObjectDBX Classes
 90
     2047
280
     1
281
     0
  0
ENDSEC
  0
SECTION
  2
TABLES
  0
TABLE
  2
VPORT
  5
8
330
0
100
AcDbSymbolTable
 70
     3
  0
VPORT
  5
132F
330
8
100
AcDbSymbolTableRecord
100
AcDbViewportTableRecord
  2
*Active
 70
     0
 10
0.0
 20
0.0
 11
1.0
 21
1.0
 12
13.97254948530178
 22
19.93835453868186
 13
0.0
 23
0.0
 14
0.063
 24
0.063
 15
0.25
 25
0.25
 16
0.0
 26
0.0
 36
1.0
 17
0.0
 27
0.0
 37
0.0
 40
42.75615181503814
 41
1.814583333333333
 42
50.0
 43
0.0
 44
0.0
 50
0.0
 51
0.0
 71
     0
 72
   100
 73
     1
 74
     0
 75
     0
 76
     0
 77
     0
 78
     0
281
     0
 65
     1
110
0.0
120
0.0
130
0.0
111
1.0
121
0.0
131
0.0
112
0.0
122
1.0
132
0.0
 79
     0
146
0.0
  0
ENDTAB
  0
TABLE
  2
LTYPE
  5
5
330
0
100
AcDbSymbolTable
 70
     2
  0
LTYPE
  5
11
330
5
100
AcDbSymbolTableRecord
100
AcDbLinetypeTableRecord
  2
BYBLOCK
 70
     0
  3

 72
    65
 73
     0
 40
0.0
  0
LTYPE
  5
12
330
5
100
AcDbSymbolTableRecord
100
AcDbLinetypeTableRecord
  2
BYLAYER
 70
     0
  3

 72
    65
 73
     0
 40
0.0
  0
LTYPE
  5
13
330
5
100
AcDbSymbolTableRecord
100
AcDbLinetypeTableRecord
  2
CONTINUOUS
 70
     0
  3
Solid line
 72
    65
 73
     0
 40
0.0
  0
LTYPE
  5
2D
330
5
100
AcDbSymbolTableRecord
100
AcDbLinetypeTableRecord
  2
HIDDEN
 70
     0
  3
_ _ _ _ _ _ _ _ _ _ _ _ _ _ _ _ _ _ _ _ _ _ _
 72
    65
 73
     2
 40
0.375
 49
0.25
 74
     0
 49
-0.125
 74
     0
  0
ENDTAB
  0
TABLE
  2
LAYER
  5
2
330
0
100
AcDbSymbolTable
 70
     4
  0
LAYER
  5
E
330
2
100
AcDbSymbolTableRecord
100
AcDbLayerTableRecord
  2
0
 70
     0
 62
     7
  6
CONTINUOUS
370
    -3
390
874
  0
ENDTAB
  0
TABLE
  2
STYLE
  5
3
330
0
100
AcDbSymbolTable
 70
     1
  0
STYLE
  5
F
330
3
100
AcDbSymbolTableRecord
100
AcDbTextStyleTableRecord
  2
STANDARD
 70
     0
 40
0.0
 41
1.0
 50
0.0
 71
     0
 42
0.45
  3
TXT
  4

  0
ENDTAB
  0
TABLE
  2
VIEW
  5
6
330
0
100
AcDbSymbolTable
 70
     0
  0
ENDTAB
  0
TABLE
  2
UCS
  5
7
330
0
100
AcDbSymbolTable
 70
     0
  0
ENDTAB
  0
TABLE
  2
APPID
  5
9
330
0
100
AcDbSymbolTable
 70
     1
  0
APPID
  5
10
330
9
100
AcDbSymbolTableRecord
100
AcDbRegAppTableRecord
  2
ACAD
 70
     0
  0
ENDTAB
  0
TABLE
  2
DIMSTYLE
  5
A
330
0
100
AcDbSymbolTable
 70
     1
100
AcDbDimStyleTable
  0
DIMSTYLE
105
45E
330
A
100
AcDbSymbolTableRecord
100
AcDbDimStyleTableRecord
  2
STANDARD
 70
     0
  3

  4

340
F
  0
ENDTAB
  0
TABLE
  2
BLOCK_RECORD
  5
1
330
0
100
AcDbSymbolTable
 70
     0
  0
BLOCK_RECORD
  5
17
330
1
100
AcDbSymbolTableRecord
100
AcDbBlockTableRecord
  2
*MODEL_SPACE
340
877
  0
BLOCK_RECORD
  5
14
330
1
100
AcDbSymbolTableRecord
100
AcDbBlockTableRecord
  2
*PAPER_SPACE
340
878
  0
ENDTAB
  0
ENDSEC
  0
SECTION
  2
BLOCKS
  0
BLOCK
  5
48
330
17
100
AcDbEntity
  8
0
100
AcDbBlockBegin
  2
*MODEL_SPACE
 70
     0
 10
0.0
 20
0.0
 30
0.0
  3
*MODEL_SPACE
  1

  4

  0
ENDBLK
  5
49
330
17
100
AcDbEntity
  8
0
100
AcDbBlockEnd
  0
BLOCK
  5
46
330
14
100
AcDbEntity
 67
     1
  8
0
100
AcDbBlockBegin
  2
*PAPER_SPACE
 70
     0
 10
0.0
 20
0.0
 30
0.0
  3
*PAPER_SPACE
  1

  4

  0
ENDBLK
  5
47
330
14
100
AcDbEntity
 67
     1
  8
0
100
AcDbBlockEnd
  0
ENDSEC
  0
SECTION
  2
ENTITIES
  0
LINE
  5
A73
330
17
100
AcDbEntity
  8
0
  6
Continuous
100
AcDbLine
 10
22.94305763248682
 20
0.0
 30
0.0
 11
17.69305763248652
 21
0.0000000000000071
 31
0.0
  0
LINE
  5
A77
330
17
100
AcDbEntity
  8
0
  6
HIDDEN
100
AcDbLine
 10
22.94305763248681
 20
0.2349999999999923
 30
0.0
 11
17.69305763248665
 21
0.2350000000000065
 31
0.0
  0
LINE
  5
A78
330
17
100
AcDbEntity
  8
0
  6
Continuous
100
AcDbLine
 10
23.36555763248659
 20
17.73500000000001
 30
0.0
 11
17.69305763248701
 21
17.73499999999999
 31
0.0
  0
LINE
  5
A7A
330
17
100
AcDbEntity
  8
0
  6
Continuous
100
AcDbLine
 10
4.703749999999914
 20
17.73500000000001
 30
0.0
 11
4.70375000000017
 21
0.5879999999999725
 31
0.0
  0
LINE
  5
A7B
330
17
100
AcDbEntity
  8
0
  6
Continuous
100
AcDbLine
 10
-4.703749999999907
 20
17.73500000000004
 30
0.0
 11
-4.703750000000163
 21
0.5880000000000294
 31
0.0
  0
LINE
  5
A7E
330
17
100
AcDbEntity
  8
0
  6
Continuous
100
AcDbLine
 10
17.69305763248703
 20
17.73499999999999
 30
0.0
 11
17.69305763248652
 21
0.0000000000000071
 31
0.0
  0
LINE
  5
A7F
330
17
100
AcDbEntity
  8
0
 62
     7
100
AcDbLine
 10
9.393705302685035
 20
17.73500000000002
 30
0.0
 11
9.393705302685056
 21
5.235000000000014
 31
0.0
  0
LINE
  5
A80
330
17
100
AcDbEntity
  8
0
  6
Continuous
100
AcDbLine
 10
4.468749999999911
 20
17.73500000000001
 30
0.0
 11
4.468750000000171
 21
0.5879999999999725
 31
0.0
  0
LINE
  5
A81
330
17
100
AcDbEntity
  8
0
  6
Continuous
100
AcDbLine
 10
-4.468749999999908
 20
17.73500000000004
 30
0.0
 11
-4.468750000000163
 21
0.5880000000000294
 31
0.0
  0
LINE
  5
A82
330
17
100
AcDbEntity
  8
0
 62
     7
100
AcDbLine
 10
-9.393705302685
 20
17.73500000000006
 30
0.0
 11
-9.393705302685028
 21
5.235000000000071
 31
0.0
  0
LINE
  5
A83
330
17
100
AcDbEntity
  8
0
  6
Continuous
100
AcDbLine
 10
-4.115750000000169
 20
0.0000000000000355
 30
0.0
 11
4.115750000000169
 21
-0.0000000000000355
 31
0.0
  0
LINE
  5
A84
330
17
100
AcDbEntity
  8
0
  6
Continuous
100
AcDbLine
 10
-4.115750000000162
 20
0.2350000000000208
 30
0.0
 11
4.115750000000169
 21
0.2349999999999639
 31
0.0
  0
LINE
  5
A86
330
17
100
AcDbEntity
  8
0
  6
Continuous
100
AcDbLine
 10
-9.393705302685028
 20
5.235000000000071
 30
0.0
 11
-4.703750000000092
 21
5.235000000000042
 31
0.0
  0
ARC
  5
A87
330
17
100
AcDbEntity
  8
0
  6
Continuous
100
AcDbCircle
 10
-4.115750000000162
 20
0.5880000000000223
 30
0.0
 40
0.588
100
AcDbArc
 50
179.9999999999992
 51
269.9999999999996
  0
ARC
  5
A88
330
17
100
AcDbEntity
  8
0
  6
Continuous
100
AcDbCircle
 10
-4.115750000000162
 20
0.5880000000000223
 30
0.0
 40
0.353
100
AcDbArc
 50
179.9999999999992
 51
269.9999999999996
  0
ARC
  5
A9C
330
17
100
AcDbEntity
  8
0
  6
Continuous
100
AcDbCircle
 10
4.115750000000173
 20
0.5879999999999654
 30
0.0
 40
0.588
100
AcDbArc
 50
269.9999999999995
 51
0.0000000000008142
  0
ARC
  5
A9D
330
17
100
AcDbEntity
  8
0
  6
Continuous
100
AcDbCircle
 10
4.115750000000173
 20
0.5879999999999654
 30
0.0
 40
0.353
100
AcDbArc
 50
269.9999999999996
 51
0.0000000000008142
  0
LINE
  5
A9E
330
17
100
AcDbEntity
  8
0
  6
Continuous
100
AcDbLine
 10
4.703750000000099
 20
5.235000000000014
 30
0.0
 11
9.393705302685056
 21
5.235000000000014
 31
0.0
  0
LINE
  5
AB3
330
17
100
AcDbEntity
  8
0
  6
Continuous
100
AcDbLine
 10
-9.393705302685
 20
17.73500000000007
 30
0.0
 11
-4.468749999999922
 21
17.73500000000004
 31
0.0
  0
LINE
  5
AB7
330
17
100
AcDbEntity
  8
0
  6
Continuous
100
AcDbLine
 10
4.468749999999925
 20
17.73500000000001
 30
0.0
 11
9.393705302685035
 21
17.73500000000001
 31
0.0
  0
LINE
  5
ABB
330
17
100
AcDbEntity
  8
0
  6
Continuous
100
AcDbLine
 10
23.36555763248657
 20
17.73500000000001
 30
0.0
 11
23.36555763248676
 21
5.235000000000014
 31
0.0
  0
LINE
  5
ABC
330
17
100
AcDbEntity
  8
0
  6
Continuous
100
AcDbLine
 10
23.13055763248658
 20
17.73500000000001
 30
0.0
 11
23.13055763248676
 21
5.235000000000014
 31
0.0
  0
LINE
  5
AC1
330
17
100
AcDbEntity
  8
0
  6
Continuous
100
AcDbLine
 10
22.94305763248682
 20
5.234999999999985
 30
0.0
 11
22.94305763248682
 21
0.0
 31
0.0
  0
LINE
  5
ACE
330
17
100
AcDbEntity
  8
0
  6
Continuous
100
AcDbLine
 10
22.94305763248682
 20
5.234999999999985
 30
0.0
 11
23.36555763248676
 21
5.235000000000014
 31
0.0
  0
LINE
  5
D5E
330
17
100
AcDbEntity
  8
0
  6
Continuous
100
AcDbLine
 10
-24.13096916613617
 20
5.234999999999985
 30
0.0
 11
-24.13096916613617
 21
0.0
 31
0.0
  0
LINE
  5
D5F
330
17
100
AcDbEntity
  8
0
  6
Continuous
100
AcDbLine
 10
-18.88096916613637
 20
17.73499999999999
 30
0.0
 11
-18.88096916613587
 21
0.0000000000000071
 31
0.0
  0
LINE
  5
D62
330
17
100
AcDbEntity
  8
0
  6
HIDDEN
100
AcDbLine
 10
-24.13096916613615
 20
0.2349999999999923
 30
0.0
 11
-18.880969166136
 21
0.2350000000000065
 31
0.0
  0
LINE
  5
D63
330
17
100
AcDbEntity
  8
0
  6
Continuous
100
AcDbLine
 10
-24.13096916613617
 20
0.0
 30
0.0
 11
-18.88096916613587
 21
0.0000000000000071
 31
0.0
  0
LINE
  5
D77
330
17
100
AcDbEntity
  8
0
  6
Continuous
100
AcDbLine
 10
-24.55346916613592
 20
17.73500000000001
 30
0.0
 11
-24.55346916613611
 21
5.235000000000014
 31
0.0
  0
LINE
  5
D78
330
17
100
AcDbEntity
  8
0
  6
Continuous
100
AcDbLine
 10
-24.31846916613593
 20
17.73500000000001
 30
0.0
 11
-24.31846916613611
 21
5.235000000000014
 31
0.0
  0
LINE
  5
D8E
330
17
100
AcDbEntity
  8
0
  6
Continuous
100
AcDbLine
 10
-24.13096916613617
 20
5.234999999999985
 30
0.0
 11
-24.55346916613611
 21
5.235000000000014
 31
0.0
  0
LINE
  5
D94
330
17
100
AcDbEntity
  8
0
  6
Continuous
100
AcDbLine
 10
-24.55346916613594
 20
17.73500000000001
 30
0.0
 11
-18.88096916613635
 21
17.73499999999999
 31
0.0
  0
CIRCLE
  5
1224
330
17
100
AcDbEntity
  8
0
100
AcDbCircle
 10
-21.38096916613603
 20
1.264999999999791
 30
0.0
 40
0.1405
  0
CIRCLE
  5
1227
330
17
100
AcDbEntity
  8
0
100
AcDbCircle
 10
-21.63096916613604
 20
3.264999999999819
 30
0.0
 40
0.1405
  0
CIRCLE
  5
1228
330
17
100
AcDbEntity
  8
0
100
AcDbCircle
 10
-20.63096916613604
 20
2.264999999999791
 30
0.0
 40
0.1405
  0
CIRCLE
  5
124D
330
17
100
AcDbEntity
  8
0
100
AcDbCircle
 10
-21.38096916613603
 20
5.264999999999791
 30
0.0
 40
0.1405
  0
CIRCLE
  5
124E
330
17
100
AcDbEntity
  8
0
100
AcDbCircle
 10
-22.38096916613604
 20
4.264999999999819
 30
0.0
 40
0.1405
  0
CIRCLE
  5
124F
330
17
100
AcDbEntity
  8
0
100
AcDbCircle
 10
-19.88096916613604
 20
4.264999999999819
 30
0.0
 40
0.1405
  0
CIRCLE
  5
1252
330
17
100
AcDbEntity
  8
0
100
AcDbCircle
 10
-20.63096916613605
 20
6.264999999999805
 30
0.0
 40
0.1405
  0
CIRCLE
  5
1253
330
17
100
AcDbEntity
  8
0
100
AcDbCircle
 10
-21.38096916613605
 20
9.264999999999791
 30
0.0
 40
0.1405
  0
CIRCLE
  5
1254
330
17
100
AcDbEntity
  8
0
100
AcDbCircle
 10
-21.63096916613605
 20
7.264999999999819
 30
0.0
 40
0.1405
  0
CIRCLE
  5
1255
330
17
100
AcDbEntity
  8
0
100
AcDbCircle
 10
-22.38096916613605
 20
8.264999999999763
 30
0.0
 40
0.1405
  0
CIRCLE
  5
1256
330
17
100
AcDbEntity
  8
0
100
AcDbCircle
 10
-19.88096916613605
 20
8.264999999999777
 30
0.0
 40
0.1405
  0
CIRCLE
  5
1258
330
17
100
AcDbEntity
  8
0
100
AcDbCircle
 10
-21.63096916613605
 20
11.26499999999976
 30
0.0
 40
0.1405
  0
CIRCLE
  5
1259
330
17
100
AcDbEntity
  8
0
100
AcDbCircle
 10
-20.63096916613605
 20
10.26499999999981
 30
0.0
 40
0.1405
  0
CIRCLE
  5
125A
330
17
100
AcDbEntity
  8
0
100
AcDbCircle
 10
-19.88096916613605
 20
12.26499999999978
 30
0.0
 40
0.1405
  0
CIRCLE
  5
128B
330
17
100
AcDbEntity
  8
0
100
AcDbCircle
 10
5.643705302684868
 20
8.860000000000007
 30
0.0
 40
0.1405
  0
CIRCLE
  5
128D
330
17
100
AcDbEntity
  8
0
100
AcDbCircle
 10
8.643705302684836
 20
8.860000000000007
 30
0.0
 40
0.1405
  0
CIRCLE
  5
128E
330
17
100
AcDbEntity
  8
0
100
AcDbCircle
 10
7.143705302684865
 20
8.235000000000035
 30
0.0
 40
0.1405
  0
CIRCLE
  5
128F
330
17
100
AcDbEntity
  8
0
100
AcDbCircle
 10
6.393705302684865
 20
9.485000000000007
 30
0.0
 40
0.1405
  0
CIRCLE
  5
1290
330
17
100
AcDbEntity
  8
0
100
AcDbCircle
 10
7.893705302684893
 20
10.11000000000004
 30
0.0
 40
0.1405
  0
CIRCLE
  5
1292
330
17
100
AcDbEntity
  8
0
100
AcDbCircle
 10
5.643705302684868
 20
16.36000000000001
 30
0.0
 40
0.1405
  0
CIRCLE
  5
1293
330
17
100
AcDbEntity
  8
0
100
AcDbCircle
 10
5.643705302684868
 20
13.86000000000004
 30
0.0
 40
0.1405
  0
CIRCLE
  5
1294
330
17
100
AcDbEntity
  8
0
100
AcDbCircle
 10
5.643705302684868
 20
11.36000000000001
 30
0.0
 40
0.1405
  0
CIRCLE
  5
1295
330
17
100
AcDbEntity
  8
0
100
AcDbCircle
 10
8.643705302684836
 20
11.36000000000001
 30
0.0
 40
0.1405
  0
CIRCLE
  5
1296
330
17
100
AcDbEntity
  8
0
100
AcDbCircle
 10
6.393705302684865
 20
11.98500000000001
 30
0.0
 40
0.1405
  0
CIRCLE
  5
1297
330
17
100
AcDbEntity
  8
0
100
AcDbCircle
 10
7.143705302684865
 20
10.73499999999998
 30
0.0
 40
0.1405
  0
CIRCLE
  5
1298
330
17
100
AcDbEntity
  8
0
100
AcDbCircle
 10
7.143705302684893
 20
13.23500000000001
 30
0.0
 40
0.1405
  0
CIRCLE
  5
1299
330
17
100
AcDbEntity
  8
0
100
AcDbCircle
 10
7.893705302684893
 20
12.60999999999998
 30
0.0
 40
0.1405
  0
CIRCLE
  5
129A
330
17
100
AcDbEntity
  8
0
100
AcDbCircle
 10
8.643705302684893
 20
16.35999999999998
 30
0.0
 40
0.1405
  0
CIRCLE
  5
129B
330
17
100
AcDbEntity
  8
0
100
AcDbCircle
 10
8.643705302684865
 20
13.86000000000004
 30
0.0
 40
0.1405
  0
CIRCLE
  5
129C
330
17
100
AcDbEntity
  8
0
100
AcDbCircle
 10
7.893705302684779
 20
15.10999999999998
 30
0.0
 40
0.1405
  0
CIRCLE
  5
129D
330
17
100
AcDbEntity
  8
0
100
AcDbCircle
 10
6.393705302684808
 20
14.48500000000004
 30
0.0
 40
0.1405
  0
CIRCLE
  5
129E
330
17
100
AcDbEntity
  8
0
100
AcDbCircle
 10
7.143705302684865
 20
15.73499999999992
 30
0.0
 40
0.1405
  0
CIRCLE
  5
12D0
330
17
100
AcDbEntity
  8
0
100
AcDbCircle
 10
18.44305763248675
 20
1.264999999999798
 30
0.0
 40
0.1405
  0
CIRCLE
  5
12D1
330
17
100
AcDbEntity
  8
0
100
AcDbCircle
 10
19.19305763248669
 20
3.264999999999819
 30
0.0
 40
0.1405
  0
CIRCLE
  5
12D2
330
17
100
AcDbEntity
  8
0
100
AcDbCircle
 10
20.69305763248669
 20
2.264999999999791
 30
0.0
 40
0.1405
  0
CIRCLE
  5
12D4
330
17
100
AcDbEntity
  8
0
100
AcDbCircle
 10
21.44305763248668
 20
1.264999999999798
 30
0.0
 40
0.1405
  0
CIRCLE
  5
12DA
330
17
100
AcDbEntity
  8
0
100
AcDbCircle
 10
18.44305763248675
 20
5.264999999999791
 30
0.0
 40
0.1405
  0
CIRCLE
  5
12DB
330
17
100
AcDbEntity
  8
0
100
AcDbCircle
 10
21.44305763248668
 20
5.264999999999791
 30
0.0
 40
0.1405
  0
CIRCLE
  5
12DC
330
17
100
AcDbEntity
  8
0
100
AcDbCircle
 10
19.94305763248669
 20
4.264999999999819
 30
0.0
 40
0.1405
  0
CIRCLE
  5
12DD
330
17
100
AcDbEntity
  8
0
100
AcDbCircle
 10
20.69305763248669
 20
6.264999999999791
 30
0.0
 40
0.1405
  0
CIRCLE
  5
12DE
330
17
100
AcDbEntity
  8
0
100
AcDbCircle
 10
19.19305763248669
 20
7.264999999999819
 30
0.0
 40
0.1405
  0
CIRCLE
  5
12DF
330
17
100
AcDbEntity
  8
0
100
AcDbCircle
 10
18.44305763248674
 20
9.264999999999791
 30
0.0
 40
0.1405
  0
CIRCLE
  5
12E0
330
17
100
AcDbEntity
  8
0
100
AcDbCircle
 10
19.94305763248669
 20
8.264999999999763
 30
0.0
 40
0.1405
  0
CIRCLE
  5
12E1
330
17
100
AcDbEntity
  8
0
100
AcDbCircle
 10
21.44305763248669
 20
9.264999999999791
 30
0.0
 40
0.1405
  0
CIRCLE
  5
12E2
330
17
100
AcDbEntity
  8
0
100
AcDbCircle
 10
19.19305763248669
 20
11.26499999999976
 30
0.0
 40
0.1405
  0
CIRCLE
  5
12E3
330
17
100
AcDbEntity
  8
0
100
AcDbCircle
 10
20.69305763248669
 20
10.26499999999979
 30
0.0
 40
0.1405
  0
CIRCLE
  5
12ED
330
17
100
AcDbEntity
  8
0
100
AcDbCircle
 10
7.893705302685085
 20
7.485000000000071
 30
0.0
 40
0.1405
  0
CIRCLE
  5
12EE
330
17
100
AcDbEntity
  8
0
100
AcDbCircle
 10
8.643705302685028
 20
6.235000000000042
 30
0.0
 40
0.1405
  0
CIRCLE
  5
12EF
330
17
100
AcDbEntity
  8
0
100
AcDbCircle
 10
6.393705302685056
 20
6.860000000000042
 30
0.0
 40
0.1405
  0
CIRCLE
  5
12F0
330
17
100
AcDbEntity
  8
0
100
AcDbCircle
 10
5.64370530268506
 20
6.235000000000042
 30
0.0
 40
0.1405
  0
CIRCLE
  5
12F1
330
17
100
AcDbEntity
  8
0
100
AcDbCircle
 10
-8.643705302684893
 20
16.35999999999998
 30
0.0
 40
0.1405
  0
CIRCLE
  5
12F2
330
17
100
AcDbEntity
  8
0
100
AcDbCircle
 10
-5.643705302684868
 20
16.36000000000001
 30
0.0
 40
0.1405
  0
CIRCLE
  5
12F3
330
17
100
AcDbEntity
  8
0
100
AcDbCircle
 10
-7.893705302684893
 20
10.11000000000004
 30
0.0
 40
0.1405
  0
CIRCLE
  5
12F4
330
17
100
AcDbEntity
  8
0
100
AcDbCircle
 10
-6.393705302685056
 20
6.860000000000042
 30
0.0
 40
0.1405
  0
CIRCLE
  5
12F5
330
17
100
AcDbEntity
  8
0
100
AcDbCircle
 10
-5.64370530268506
 20
6.235000000000042
 30
0.0
 40
0.1405
  0
CIRCLE
  5
12F6
330
17
100
AcDbEntity
  8
0
100
AcDbCircle
 10
-8.643705302685028
 20
6.235000000000042
 30
0.0
 40
0.1405
  0
CIRCLE
  5
12F7
330
17
100
AcDbEntity
  8
0
100
AcDbCircle
 10
-7.143705302684865
 20
8.235000000000035
 30
0.0
 40
0.1405
  0
CIRCLE
  5
12F8
330
17
100
AcDbEntity
  8
0
100
AcDbCircle
 10
-5.643705302684868
 20
8.860000000000007
 30
0.0
 40
0.1405
  0
CIRCLE
  5
12F9
330
17
100
AcDbEntity
  8
0
100
AcDbCircle
 10
-6.393705302684865
 20
9.485000000000007
 30
0.0
 40
0.1405
  0
CIRCLE
  5
12FA
330
17
100
AcDbEntity
  8
0
100
AcDbCircle
 10
-7.893705302685085
 20
7.485000000000071
 30
0.0
 40
0.1405
  0
CIRCLE
  5
12FB
330
17
100
AcDbEntity
  8
0
100
AcDbCircle
 10
-8.643705302684836
 20
8.860000000000007
 30
0.0
 40
0.1405
  0
CIRCLE
  5
12FC
330
17
100
AcDbEntity
  8
0
100
AcDbCircle
 10
-7.143705302684893
 20
13.23500000000001
 30
0.0
 40
0.1405
  0
CIRCLE
  5
12FD
330
17
100
AcDbEntity
  8
0
100
AcDbCircle
 10
-5.643705302684868
 20
11.36000000000001
 30
0.0
 40
0.1405
  0
CIRCLE
  5
12FE
330
17
100
AcDbEntity
  8
0
100
AcDbCircle
 10
-7.143705302684865
 20
10.73499999999998
 30
0.0
 40
0.1405
  0
CIRCLE
  5
12FF
330
17
100
AcDbEntity
  8
0
100
AcDbCircle
 10
-6.393705302684865
 20
11.98500000000001
 30
0.0
 40
0.1405
  0
CIRCLE
  5
1300
330
17
100
AcDbEntity
  8
0
100
AcDbCircle
 10
-8.643705302684836
 20
11.36000000000001
 30
0.0
 40
0.1405
  0
CIRCLE
  5
1301
330
17
100
AcDbEntity
  8
0
100
AcDbCircle
 10
-7.893705302684893
 20
12.60999999999998
 30
0.0
 40
0.1405
  0
CIRCLE
  5
1302
330
17
100
AcDbEntity
  8
0
100
AcDbCircle
 10
-5.643705302684868
 20
13.86000000000004
 30
0.0
 40
0.1405
  0
CIRCLE
  5
1303
330
17
100
AcDbEntity
  8
0
100
AcDbCircle
 10
-6.393705302684808
 20
14.48500000000004
 30
0.0
 40
0.1405
  0
CIRCLE
  5
1304
330
17
100
AcDbEntity
  8
0
100
AcDbCircle
 10
-7.143705302684865
 20
15.73499999999992
 30
0.0
 40
0.1405
  0
CIRCLE
  5
1305
330
17
100
AcDbEntity
  8
0
100
AcDbCircle
 10
-8.643705302684865
 20
13.86000000000004
 30
0.0
 40
0.1405
  0
CIRCLE
  5
1306
330
17
100
AcDbEntity
  8
0
100
AcDbCircle
 10
-7.893705302684779
 20
15.10999999999998
 30
0.0
 40
0.1405
  0
ENDSEC
  0
SECTION
  2
OBJECTS
  0
DICTIONARY
  5
C
330
0
100
AcDbDictionary
281
     1
  3
ACAD_COLOR
350
1320
  3
ACAD_GROUP
350
D
  3
ACAD_LAYOUT
350
875
  3
ACAD_MATERIAL
350
131F
  3
ACAD_MLINESTYLE
350
1A
  3
ACAD_PLOTSETTINGS
350
876
  3
ACAD_PLOTSTYLENAME
350
873
  3
ACAD_TABLESTYLE
350
1321
  3
ACDBHEADERROUNDTRIPXREC
350
1339
  3
ACDBVARIABLEDICTIONARY
350
4A
  0
DICTIONARY
  5
1320
102
{ACAD_REACTORS
330
C
102
}
330
C
100
AcDbDictionary
281
     1
  0
DICTIONARY
  5
D
102
{ACAD_REACTORS
330
C
102
}
330
C
100
AcDbDictionary
281
     1
  0
DICTIONARY
  5
875
102
{ACAD_REACTORS
330
C
102
}
330
C
100
AcDbDictionary
281
     1
  3
Layout1
350
878
  3
Model
350
877
  0
DICTIONARY
  5
131F
102
{ACAD_REACTORS
330
C
102
}
330
C
100
AcDbDictionary
281
     1
  0
DICTIONARY
  5
1A
102
{ACAD_REACTORS
330
C
102
}
330
C
100
AcDbDictionary
281
     1
  3
STANDARD
350
1B
  0
DICTIONARY
  5
876
102
{ACAD_REACTORS
330
C
102
}
330
C
100
AcDbDictionary
281
     1
  0
ACDBDICTIONARYWDFLT
  5
873
102
{ACAD_REACTORS
330
C
102
}
330
C
100
AcDbDictionary
281
     1
  3
Normal
350
874
100
AcDbDictionaryWithDefault
340
874
  0
DICTIONARY
  5
1321
102
{ACAD_REACTORS
330
C
102
}
330
C
100
AcDbDictionary
281
     1
  3
Standard
350
1322
  0
DICTIONARY
  5
1339
102
{ACAD_REACTORS
330
C
102
}
330
C
100
AcDbDictionary
281
     1
  3
COLORDICT
350
133A
  3
MATERIALDICT
350
133B
  0
DICTIONARY
  5
4A
102
{ACAD_REACTORS
330
C
102
}
330
C
100
AcDbDictionary
281
     1
  3
CTABLESTYLE
350
1335
  3
DIMADEC
350
4B
  0
LAYOUT
  5
878
102
{ACAD_REACTORS
330
875
102
}
102
{ACAD_XDICTIONARY
360
133C
102
}
330
875
100
AcDbPlotSettings
  1

  2
C:\ACAD2000\plotters\HP LaserJet 2100 Series PS.pc3
  4

  6

 40
0.0
 41
0.0
 42
0.0
 43
0.0
 44
0.0
 45
0.0
 46
0.0
 47
0.0
 48
0.0
 49
0.0
140
0.0
141
0.0
142
1.0
143
1.0
 70
   688
 72
     0
 73
     0
 74
     5
  7

 75
    16
147
1.0
148
0.0
149
0.0
100
AcDbLayout
  1
Layout1
 70
     0
 71
     1
 10
0.0
 20
0.0
 11
12.0
 21
9.0
 12
0.0
 22
0.0
 32
0.0
 14
1.000000000000000E+20
 24
1.000000000000000E+20
 34
1.000000000000000E+20
 15
-1.000000000000000E+20
 25
-1.000000000000000E+20
 35
-1.000000000000000E+20
146
0.0
 13
0.0
 23
0.0
 33
0.0
 16
1.0
 26
0.0
 36
0.0
 17
0.0
 27
1.0
 37
0.0
 76
     0
330
14
  0
LAYOUT
  5
877
102
{ACAD_REACTORS
330
875
102
}
102
{ACAD_XDICTIONARY
360
133E
102
}
330
875
100
AcDbPlotSettings
  1

  2
HP LaserJet 2100 Series PS
  4
Letter
  6

 40
5.365749835968018
 41
5.408073902130127
 42
5.132904052734375
 43
5.090576171875
 44
215.8999938964844
 45
279.3999938964844
 46
0.0
 47
0.0
 48
0.0
 49
0.0
140
0.0
141
0.0
142
1.0
143
6.492167967110039
 70
 28336
 72
     0
 73
     0
 74
     2
  7

 75
     0
147
0.1540317510369569
148
0.0
149
0.0
100
AcDbLayout
  1
Model
 70
     1
 71
     0
 10
0.0
 20
0.0
 11
12.0
 21
9.0
 12
0.0
 22
0.0
 32
0.0
 14
0.0
 24
0.0
 34
0.0
 15
0.0
 25
0.0
 35
0.0
146
0.0
 13
0.0
 23
0.0
 33
0.0
 16
1.0
 26
0.0
 36
0.0
 17
0.0
 27
1.0
 37
0.0
 76
     0
330
17
  0
MLINESTYLE
  5
1B
102
{ACAD_REACTORS
330
1A
102
}
330
1A
100
AcDbMlineStyle
  2
STANDARD
 70
     0
  3

 62
   256
 51
90.0
 52
90.0
 71
     2
 49
0.5
 62
   256
  6
BYLAYER
 49
-0.5
 62
   256
  6
BYLAYER
  0
ACDBPLACEHOLDER
  5
874
102
{ACAD_REACTORS
330
873
102
}
330
873
  0
ACAD_PROXY_OBJECT
  5
1322
102
{ACAD_REACTORS
330
1321
102
}
330
1321
100
AcDbProxyObject
 90
      499
 91
      509
 95
   983063
 70
     0
 93
     1841
310
4214DD185B99185C9928B81E85EB51B8AE3F2E07A17AD46E2B8FC02B5E8DC0F42B1CFD028000000C1008070000C3001FDFF8000000C1003FBFF000000182007F7FE00000030400FEFFC00000060801FDFF8000000C1003FBFF00000018200000000000000681FA0B0000001820100E000186003FBFF000000182007F7FE000
310
00030400FEFFC00000060801FDFF8000000C1003FBFF000000182007F7FE000000304000AD7A3703D0AC73F4160000003040201C00030C007F7FE00000030400FEFFC00000060801FDFF8000000C1003FBFF000000182007F7FE00000030400FEFFC000000608000
340
F
340
F
340
F
 94
        0
  0
XRECORD
  5
133A
102
{ACAD_REACTORS
330
1339
102
}
330
1339
100
AcDbXrecord
340
1320
  0
XRECORD
  5
133B
102
{ACAD_REACTORS
330
1339
102
}
330
1339
100
AcDbXrecord
340
131F
  0
DICTIONARYVAR
  5
1335
102
{ACAD_REACTORS
330
4A
102
}
330
4A
100
DictionaryVariables
280
     0
  1
STANDARD
  0
DICTIONARYVAR
  5
4B
102
{ACAD_REACTORS
330
4A
102
}
330
4A
100
DictionaryVariables
280
     0
  1
0
  0
DICTIONARY
  5
133C
330
878
100
AcDbDictionary
280
     1
281
     1
  3
ACAD_XREC_ROUNDTRIP
360
133D
  0
DICTIONARY
  5
133E
330
877
100
AcDbDictionary
280
     1
281
     1
  3
ACAD_XREC_ROUNDTRIP
360
133F
  0
XRECORD
  5
133D
102
{ACAD_REACTORS
330
133C
102
}
330
133C
100
AcDbXrecord
102
SHADEPLOT
 70
     0
102
SHADEPLOTRESLEVEL
 70
     2
102
SHADEPLOTCUSTOMDPI
 70
   300
  0
XRECORD
  5
133F
102
{ACAD_REACTORS
330
133E
102
}
330
133E
100
AcDbXrecord
102
SHADEPLOT
 70
     0
102
SHADEPLOTRESLEVEL
 70
     2
102
SHADEPLOTCUSTOMDPI
 70
   300
  0
ENDSEC
  0
EOF
