  0
SECTION
  2
HEADER
  9
$ACADVER
  1
AC1015
  9
$ACADMAINTVER
 70
     6
  9
$DWGCODEPAGE
  3
ANSI_1252
  9
$INSBASE
 10
0.0
 20
0.0
 30
0.0
  9
$EXTMIN
 10
-3.907379057150536
 20
-0.0278319567765948
 30
-0.0015258207003583
  9
$EXTMAX
 10
3.908020072975219
 20
9.066406297807589
 30
0.0000000349246037
  9
$LIMMIN
 10
0.0
 20
0.0
  9
$LIMMAX
 10
42.0
 20
32.0
  9
$ORTHOMODE
 70
     1
  9
$REGENMODE
 70
     1
  9
$FILLMODE
 70
     1
  9
$QTEXTMODE
 70
     0
  9
$MIRRTEXT
 70
     1
  9
$LTSCALE
 40
0.5
  9
$ATTMODE
 70
     1
  9
$TEXTSIZE
 40
0.36
  9
$TRACEWID
 40
0.05
  9
$TEXTSTYLE
  7
STANDARD
  9
$CLAYER
  8
0
  9
$CELTYPE
  6
BYLAYER
  9
$CECOLOR
 62
   256
  9
$CELTSCALE
 40
1.0
  9
$DISPSILH
 70
     0
  9
$DIMSCALE
 40
4.0
  9
$DIMASZ
 40
0.125
  9
$DIMEXO
 40
0.062
  9
$DIMDLI
 40
0.375
  9
$DIMRND
 40
0.0
  9
$DIMDLE
 40
0.0
  9
$DIMEXE
 40
0.08
  9
$DIMTP
 40
0.0
  9
$DIMTM
 40
0.0
  9
$DIMTXT
 40
0.09
  9
$DIMCEN
 40
-0.06
  9
$DIMTSZ
 40
0.0
  9
$DIMTOL
 70
     0
  9
$DIMLIM
 70
     0
  9
$DIMTIH
 70
     1
  9
$DIMTOH
 70
     1
  9
$DIMSE1
 70
     0
  9
$DIMSE2
 70
     0
  9
$DIMTAD
 70
     0
  9
$DIMZIN
 70
     0
  9
$DIMBLK
  1

  9
$DIMASO
 70
     0
  9
$DIMSHO
 70
     0
  9
$DIMPOST
  1

  9
$DIMAPOST
  1

  9
$DIMALT
 70
     0
  9
$DIMALTD
 70
     2
  9
$DIMALTF
 40
25.4
  9
$DIMLFAC
 40
1.0
  9
$DIMTOFL
 70
     0
  9
$DIMTVP
 40
0.0
  9
$DIMTIX
 70
     0
  9
$DIMSOXD
 70
     0
  9
$DIMSAH
 70
     0
  9
$DIMBLK1
  1

  9
$DIMBLK2
  1

  9
$DIMSTYLE
  2
STANDARD
  9
$DIMCLRD
 70
     0
  9
$DIMCLRE
 70
     0
  9
$DIMCLRT
 70
     0
  9
$DIMTFAC
 40
1.0
  9
$DIMGAP
 40
0.09
  9
$DIMJUST
 70
     0
  9
$DIMSD1
 70
     0
  9
$DIMSD2
 70
     0
  9
$DIMTOLJ
 70
     1
  9
$DIMTZIN
 70
     0
  9
$DIMALTZ
 70
     0
  9
$DIMALTTZ
 70
     0
  9
$DIMUPT
 70
     0
  9
$DIMDEC
 70
     5
  9
$DIMTDEC
 70
     4
  9
$DIMALTU
 70
     2
  9
$DIMALTTD
 70
     2
  9
$DIMTXSTY
  7
STANDARD
  9
$DIMAUNIT
 70
     0
  9
$DIMADEC
 70
     0
  9
$DIMALTRND
 40
0.0
  9
$DIMAZIN
 70
     0
  9
$DIMDSEP
 70
    46
  9
$DIMATFIT
 70
     3
  9
$DIMFRAC
 70
     2
  9
$DIMLDRBLK
  1

  9
$DIMLUNIT
 70
     5
  9
$DIMLWD
 70
    -2
  9
$DIMLWE
 70
    -2
  9
$DIMTMOVE
 70
     2
  9
$LUNITS
 70
     2
  9
$LUPREC
 70
     4
  9
$SKETCHINC
 40
0.1
  9
$FILLETRAD
 40
0.0625
  9
$AUNITS
 70
     0
  9
$AUPREC
 70
     0
  9
$MENU
  1
acad
  9
$ELEVATION
 40
0.0
  9
$PELEVATION
 40
0.0
  9
$THICKNESS
 40
0.0
  9
$LIMCHECK
 70
     0
  9
$CHAMFERA
 40
0.0
  9
$CHAMFERB
 40
0.0
  9
$CHAMFERC
 40
0.0
  9
$CHAMFERD
 40
0.0
  9
$SKPOLY
 70
     0
  9
$TDCREATE
 40
2450826.891344097
  9
$TDUCREATE
 40
2450827.224677431
  9
$TDUPDATE
 40
2453784.623500162
  9
$TDUUPDATE
 40
2453784.956833495
  9
$TDINDWG
 40
0.217096875
  9
$TDUSRTIMER
 40
0.217096875
  9
$USRTIMER
 70
     1
  9
$ANGBASE
 50
0.0
  9
$ANGDIR
 70
     0
  9
$PDMODE
 70
     0
  9
$PDSIZE
 40
0.0
  9
$PLINEWID
 40
0.0
  9
$SPLFRAME
 70
     0
  9
$SPLINETYPE
 70
     6
  9
$SPLINESEGS
 70
     8
  9
$HANDSEED
  5
12F
  9
$SURFTAB1
 70
     6
  9
$SURFTAB2
 70
     6
  9
$SURFTYPE
 70
     6
  9
$SURFU
 70
     6
  9
$SURFV
 70
     6
  9
$UCSBASE
  2

  9
$UCSNAME
  2

  9
$UCSORG
 10
0.0
 20
0.0
 30
0.0
  9
$UCSXDIR
 10
1.0
 20
0.0
 30
0.0
  9
$UCSYDIR
 10
0.0
 20
1.0
 30
0.0
  9
$UCSORTHOREF
  2

  9
$UCSORTHOVIEW
 70
     0
  9
$UCSORGTOP
 10
0.0
 20
0.0
 30
0.0
  9
$UCSORGBOTTOM
 10
0.0
 20
0.0
 30
0.0
  9
$UCSORGLEFT
 10
0.0
 20
0.0
 30
0.0
  9
$UCSORGRIGHT
 10
0.0
 20
0.0
 30
0.0
  9
$UCSORGFRONT
 10
0.0
 20
0.0
 30
0.0
  9
$UCSORGBACK
 10
0.0
 20
0.0
 30
0.0
  9
$PUCSBASE
  2

  9
$PUCSNAME
  2

  9
$PUCSORG
 10
0.0
 20
0.0
 30
0.0
  9
$PUCSXDIR
 10
1.0
 20
0.0
 30
0.0
  9
$PUCSYDIR
 10
0.0
 20
1.0
 30
0.0
  9
$PUCSORTHOREF
  2

  9
$PUCSORTHOVIEW
 70
     0
  9
$PUCSORGTOP
 10
0.0
 20
0.0
 30
0.0
  9
$PUCSORGBOTTOM
 10
0.0
 20
0.0
 30
0.0
  9
$PUCSORGLEFT
 10
0.0
 20
0.0
 30
0.0
  9
$PUCSORGRIGHT
 10
0.0
 20
0.0
 30
0.0
  9
$PUCSORGFRONT
 10
0.0
 20
0.0
 30
0.0
  9
$PUCSORGBACK
 10
0.0
 20
0.0
 30
0.0
  9
$USERI1
 70
     0
  9
$USERI2
 70
     0
  9
$USERI3
 70
     0
  9
$USERI4
 70
     0
  9
$USERI5
 70
     0
  9
$USERR1
 40
0.0
  9
$USERR2
 40
0.0
  9
$USERR3
 40
0.0
  9
$USERR4
 40
0.0
  9
$USERR5
 40
0.0
  9
$WORLDVIEW
 70
     1
  9
$SHADEDGE
 70
     3
  9
$SHADEDIF
 70
    70
  9
$TILEMODE
 70
     1
  9
$MAXACTVP
 70
    16
  9
$PINSBASE
 10
0.0
 20
0.0
 30
0.0
  9
$PLIMCHECK
 70
     0
  9
$PEXTMIN
 10
1.000000000000000E+20
 20
1.000000000000000E+20
 30
1.000000000000000E+20
  9
$PEXTMAX
 10
-1.000000000000000E+20
 20
-1.000000000000000E+20
 30
-1.000000000000000E+20
  9
$PLIMMIN
 10
0.0
 20
0.0
  9
$PLIMMAX
 10
12.0
 20
9.0
  9
$UNITMODE
 70
     0
  9
$VISRETAIN
 70
     0
  9
$PLINEGEN
 70
     0
  9
$PSLTSCALE
 70
     0
  9
$TREEDEPTH
 70
  3020
  9
$CMLSTYLE
  2
STANDARD
  9
$CMLJUST
 70
     0
  9
$CMLSCALE
 40
1.0
  9
$PROXYGRAPHICS
 70
     1
  9
$MEASUREMENT
 70
     0
  9
$CELWEIGHT
370
    -1
  9
$ENDCAPS
280
     0
  9
$JOINSTYLE
280
     0
  9
$LWDISPLAY
290
     0
  9
$INSUNITS
 70
     0
  9
$HYPERLINKBASE
  1

  9
$STYLESHEET
  1

  9
$XEDIT
290
     1
  9
$CEPSNTYPE
380
     0
  9
$PSTYLEMODE
290
     1
  9
$FINGERPRINTGUID
  2
{E569A389-AA53-4355-A5D2-FB716D157D68}
  9
$VERSIONGUID
  2
{571B49CF-76B0-4EB5-9331-A6DEA29DB95E}
  9
$EXTNAMES
290
     1
  9
$PSVPSCALE
 40
0.0
  9
$OLESTARTUP
290
     0
  0
ENDSEC
  0
SECTION
  2
CLASSES
  0
CLASS
  1
DICTIONARYVAR
  2
AcDbDictionaryVar
  3
AutoCAD 2000
 90
        0
280
     0
281
     0
  0
CLASS
  1
LWPOLYLINE
  2
AcDbPolyline
  3
AutoCAD 2000
 90
        0
280
     0
281
     1
  0
CLASS
  1
ACDBDICTIONARYWDFLT
  2
AcDbDictionaryWithDefault
  3
AutoCAD 2000
 90
        0
280
     0
281
     0
  0
CLASS
  1
ACDBPLACEHOLDER
  2
AcDbPlaceHolder
  3
ObjectDBX Classes
 90
        0
280
     0
281
     0
  0
CLASS
  1
LAYOUT
  2
AcDbLayout
  3
ObjectDBX Classes
 90
        0
280
     0
281
     0
  0
CLASS
  1
LONG_TRANSACTION
  2
AcDbLongTransaction
  3
AutoCAD 2000
 90
   -65536
280
     1
281
     0
  0
CLASS
  1
LWPOLYLINE
  2
AcDbPolyline
  3
AutoCAD 2000
 90
        0
280
     0
281
     1
  0
CLASS
  1
HATCH
  2
AcDbHatch
  3
AutoCAD 2000
 90
        0
280
     0
281
     1
  0
CLASS
  1
XRECORD
  2
AcDbXrecord
  3
AutoCAD 2000
 90
        0
280
     0
281
     0
  0
CLASS
  1
LONG_TRANSACTION
  2
AcDbLongTransaction
  3
AutoCAD 2000
 90
   -65536
280
     1
281
     0
  0
CLASS
  1
LWPOLYLINE
  2
AcDbPolyline
  3
AutoCAD 2000
 90
        0
280
     0
281
     1
  0
CLASS
  1
HATCH
  2
AcDbHatch
  3
AutoCAD 2000
 90
        0
280
     0
281
     1
  0
CLASS
  1
XRECORD
  2
AcDbXrecord
  3
AutoCAD 2000
 90
        0
280
     0
281
     0
  0
CLASS
  1
LONG_TRANSACTION
  2
AcDbLongTransaction
  3
AutoCAD 2000
 90
   -65536
280
     1
281
     0
  0
CLASS
  1
LWPOLYLINE
  2
AcDbPolyline
  3
AutoCAD 2000
 90
        0
280
     0
281
     1
  0
CLASS
  1
HATCH
  2
AcDbHatch
  3
AutoCAD 2000
 90
        0
280
     0
281
     1
  0
CLASS
  1
XRECORD
  2
AcDbXrecord
  3
AutoCAD 2000
 90
        0
280
     0
281
     0
  0
CLASS
  1
LONG_TRANSACTION
  2
AcDbLongTransaction
  3
AutoCAD 2000
 90
   -65536
280
     1
281
     0
  0
CLASS
  1
LWPOLYLINE
  2
AcDbPolyline
  3
AutoCAD 2000
 90
        0
280
     0
281
     1
  0
CLASS
  1
HATCH
  2
AcDbHatch
  3
AutoCAD 2000
 90
        0
280
     0
281
     1
  0
CLASS
  1
XRECORD
  2
AcDbXrecord
  3
AutoCAD 2000
 90
        0
280
     0
281
     0
  0
CLASS
  1
LONG_TRANSACTION
  2
AcDbLongTransaction
  3
AutoCAD 2000
 90
   -65536
280
     1
281
     0
  0
CLASS
  1
LWPOLYLINE
  2
AcDbPolyline
  3
AutoCAD 2000
 90
        0
280
     0
281
     1
  0
CLASS
  1
HATCH
  2
AcDbHatch
  3
AutoCAD 2000
 90
        0
280
     0
281
     1
  0
CLASS
  1
XRECORD
  2
AcDbXrecord
  3
AutoCAD 2000
 90
        0
280
     0
281
     0
  0
CLASS
  1
LONG_TRANSACTION
  2
AcDbLongTransaction
  3
AutoCAD 2000
 90
   -65536
280
     1
281
     0
  0
CLASS
  1
LWPOLYLINE
  2
AcDbPolyline
  3
AutoCAD 2000
 90
        0
280
     0
281
     1
  0
CLASS
  1
HATCH
  2
AcDbHatch
  3
AutoCAD 2000
 90
        0
280
     0
281
     1
  0
CLASS
  1
XRECORD
  2
AcDbXrecord
  3
AutoCAD 2000
 90
        0
280
     0
281
     0
  0
CLASS
  1
LONG_TRANSACTION
  2
AcDbLongTransaction
  3
AutoCAD 2000
 90
   -65536
280
     1
281
     0
  0
CLASS
  1
LWPOLYLINE
  2
AcDbPolyline
  3
AutoCAD 2000
 90
        0
280
     0
281
     1
  0
CLASS
  1
HATCH
  2
AcDbHatch
  3
AutoCAD 2000
 90
        0
280
     0
281
     1
  0
CLASS
  1
XRECORD
  2
AcDbXrecord
  3
AutoCAD 2000
 90
        0
280
     0
281
     0
  0
ENDSEC
  0
SECTION
  2
TABLES
  0
TABLE
  2
VPORT
  5
1D
330
0
100
AcDbSymbolTable
 70
     2
  0
VPORT
  5
124
330
1D
100
AcDbSymbolTableRecord
100
AcDbViewportTableRecord
  2
*Active
 70
     0
 10
0.0
 20
0.0
 11
1.0
 21
1.0
 12
19.04631047142473
 22
15.9860840216117
 13
0.0
 23
0.0
 14
0.063
 24
0.063
 15
0.25
 25
0.25
 16
0.0
 26
0.0
 36
1.0
 17
0.0
 27
0.0
 37
0.0
 40
32.53486887429813
 41
1.925925925925926
 42
50.0
 43
0.0
 44
0.0
 50
0.0
 51
0.0
 71
     0
 72
   100
 73
     1
 74
     0
 75
     1
 76
     0
 77
     0
 78
     0
281
     0
 65
     1
110
0.0
120
0.0
130
0.0
111
1.0
121
0.0
131
0.0
112
0.0
122
1.0
132
0.0
 79
     0
146
0.0
  0
ENDTAB
  0
TABLE
  2
LTYPE
  5
18
330
0
100
AcDbSymbolTable
 70
     1
  0
LTYPE
  5
19
330
18
100
AcDbSymbolTableRecord
100
AcDbLinetypeTableRecord
  2
BYBLOCK
 70
     0
  3

 72
    65
 73
     0
 40
0.0
  0
LTYPE
  5
1A
330
18
100
AcDbSymbolTableRecord
100
AcDbLinetypeTableRecord
  2
BYLAYER
 70
     0
  3

 72
    65
 73
     0
 40
0.0
  0
LTYPE
  5
A
330
18
100
AcDbSymbolTableRecord
100
AcDbLinetypeTableRecord
  2
CONTINUOUS
 70
     0
  3
Solid line
 72
    65
 73
     0
 40
0.0
  0
ENDTAB
  0
TABLE
  2
LAYER
  5
14
330
0
100
AcDbSymbolTable
 70
     3
  0
LAYER
  5
6
330
14
100
AcDbSymbolTableRecord
100
AcDbLayerTableRecord
  2
0
 70
     0
 62
     7
  6
CONTINUOUS
370
    -3
390
7
  0
ENDTAB
  0
TABLE
  2
STYLE
  5
15
330
0
100
AcDbSymbolTable
 70
     1
  0
STYLE
  5
16
330
15
100
AcDbSymbolTableRecord
100
AcDbTextStyleTableRecord
  2
STANDARD
 70
     0
 40
0.0
 41
1.0
 50
0.0
 71
     0
 42
0.36
  3
TXT
  4

  0
ENDTAB
  0
TABLE
  2
VIEW
  5
1B
330
0
100
AcDbSymbolTable
 70
     0
  0
ENDTAB
  0
TABLE
  2
UCS
  5
1C
330
0
100
AcDbSymbolTable
 70
     0
  0
ENDTAB
  0
TABLE
  2
APPID
  5
1F
330
0
100
AcDbSymbolTable
 70
     1
  0
APPID
  5
20
330
1F
100
AcDbSymbolTableRecord
100
AcDbRegAppTableRecord
  2
ACAD
 70
     0
  0
ENDTAB
  0
TABLE
  2
DIMSTYLE
  5
21
330
0
100
AcDbSymbolTable
 70
     1
100
AcDbDimStyleTable
  0
DIMSTYLE
105
28
330
21
100
AcDbSymbolTableRecord
100
AcDbDimStyleTableRecord
  2
STANDARD
 70
     0
  3

  4

340
16
  0
ENDTAB
  0
TABLE
  2
BLOCK_RECORD
  5
1
330
0
100
AcDbSymbolTable
 70
     1
  0
BLOCK_RECORD
  5
2
330
1
100
AcDbSymbolTableRecord
100
AcDbBlockTableRecord
  2
*MODEL_SPACE
340
C
  0
BLOCK_RECORD
  5
E
330
1
100
AcDbSymbolTableRecord
100
AcDbBlockTableRecord
  2
*PAPER_SPACE
340
13
  0
ENDTAB
  0
ENDSEC
  0
SECTION
  2
BLOCKS
  0
BLOCK
  5
5
330
2
100
AcDbEntity
  8
0
100
AcDbBlockBegin
  2
*MODEL_SPACE
 70
     0
 10
0.0
 20
0.0
 30
0.0
  3
*MODEL_SPACE
  1

  4

  0
ENDBLK
  5
B
330
2
100
AcDbEntity
  8
0
100
AcDbBlockEnd
  0
BLOCK
  5
11
330
E
100
AcDbEntity
 67
     1
  8
0
100
AcDbBlockBegin
  2
*PAPER_SPACE
 70
     0
 10
0.0
 20
0.0
 30
0.0
  3
*PAPER_SPACE
  1

  4

  0
ENDBLK
  5
12
330
E
100
AcDbEntity
 67
     1
  8
0
100
AcDbBlockEnd
  0
ENDSEC
  0
SECTION
  2
ENTITIES
  0
LINE
  5
AC
330
2
100
AcDbEntity
  8
0
100
AcDbLine
 10
3.875000000000002
 20
9.066023959581717
 30
0.0
 11
1.812500000000002
 21
9.066023959581717
 31
0.0
  0
LINE
  5
AD
330
2
100
AcDbEntity
  8
0
100
AcDbLine
 10
3.257094513699565
 20
1.52119969694682
 30
0.0
 11
1.875000000000002
 21
0.1867636147541347
 31
0.0
  0
LINE
  5
AE
330
2
100
AcDbEntity
  8
0
100
AcDbLine
 10
1.812500000000002
 20
9.066023959581713
 30
0.0
 11
1.812500000000002
 21
0.125
 31
0.0
  0
LINE
  5
AF
330
2
100
AcDbEntity
  8
0
100
AcDbLine
 10
-1.812499999999998
 20
0.1250000000000036
 30
0.0
 11
-1.812499999999998
 21
9.06602395958172
 31
0.0
  0
LINE
  5
B0
330
2
100
AcDbEntity
  8
0
100
AcDbLine
 10
1.875000000000002
 20
9.066023959581713
 30
0.0
 11
1.874999999999998
 21
0.125
 31
0.0
  0
LINE
  5
B1
330
2
100
AcDbEntity
  8
0
100
AcDbLine
 10
-1.874999999999998
 20
0.1249999999999965
 30
0.0
 11
-1.874999999999998
 21
9.066023959581717
 31
0.0
  0
LINE
  5
B2
330
2
100
AcDbEntity
  8
0
100
AcDbLine
 10
-3.874999999999998
 20
8.37852395958172
 30
0.0
 11
-3.874999999999998
 21
9.066023959581717
 31
0.0
  0
LWPOLYLINE
  5
B3
330
2
100
AcDbEntity
  8
0
100
AcDbPolyline
 90
        9
 70
     0
 43
0.0
 10
1.875000000000076
 20
3.421119223638911
 42
0.147269582437036
 10
1.892696423162617
 20
3.426447065326705
 42
0.1071386913803464
 10
1.910248316826118
 20
3.44445915201311
 42
0.0765137470862007
 10
1.920790230872887
 20
3.46896389004727
 42
0.063469041210727
 10
1.924848647706289
 20
3.500806723638917
 42
0.0634690412107267
 10
1.920790230872887
 20
3.532649557230556
 42
0.0765137470862059
 10
1.910248316826118
 20
3.557154295264716
 42
0.1071386913803463
 10
1.892696423162617
 20
3.575166381951121
 42
0.1472695824370325
 10
1.875000000000076
 20
3.580494223638915
 42
0.1472695824370333
  0
LWPOLYLINE
  5
B4
330
2
100
AcDbEntity
  8
0
100
AcDbPolyline
 90
        9
 70
     0
 43
0.0
 10
1.875000000000076
 20
3.391794223638911
 42
0.1432467981947568
 10
1.900224650855533
 20
3.399172320510161
 42
0.1071754848060475
 10
1.924910816826118
 20
3.423723245654813
 42
0.0783035184710328
 10
1.93985748444848
 20
3.457344500005611
 42
0.0656020556757086
 10
1.945584554064586
 20
3.500806723638917
 42
0.0656020556757101
 10
1.93985748444848
 20
3.544268947272215
 42
0.0783035184710357
 10
1.924910816826118
 20
3.577890201623013
 42
0.1071754848060445
 10
1.900224650855533
 20
3.602441126767666
 42
0.1432467981947535
 10
1.875000000000076
 20
3.609819223638915
 42
0.1432467981947515
  0
LINE
  5
B5
330
2
100
AcDbEntity
  8
0
100
AcDbLine
 10
1.875000000000076
 20
3.362469223638911
 30
0.0
 11
1.875000000000076
 21
3.639144223638915
 31
0.0
  0
LINE
  5
B6
330
2
100
AcDbEntity
  8
0
100
AcDbLine
 10
-3.562499999999998
 20
2.240601157564235
 30
0.0
 11
-3.562499999999998
 21
4.19102395958172
 31
0.0
  0
CIRCLE
  5
B7
330
2
100
AcDbEntity
  8
0
100
AcDbCircle
 10
-2.374999999999998
 20
1.247234566302218
 30
0.0
 40
0.085937500000002
  0
CIRCLE
  5
B8
330
2
100
AcDbEntity
  8
0
100
AcDbCircle
 10
-2.374999999999998
 20
2.746989561292686
 30
0.0
 40
0.085937500000002
  0
LINE
  5
B9
330
2
100
AcDbEntity
  8
0
100
AcDbLine
 10
-3.257094513699565
 20
1.521199696946823
 30
0.0
 11
-1.874999999999998
 21
0.1867636147541347
 31
0.0
  0
ARC
  5
BA
330
2
100
AcDbEntity
  8
0
100
AcDbCircle
 10
-2.562499999999998
 20
2.240601157564235
 30
0.0
 40
1.0
100
AcDbArc
 50
180.0
 51
226.0050860052541
  0
CIRCLE
  5
BB
330
2
100
AcDbEntity
  8
0
100
AcDbCircle
 10
-3.187499999999998
 20
2.378573959581722
 30
0.0
 40
0.085937500000002
  0
LWPOLYLINE
  5
BC
330
2
100
AcDbEntity
  8
0
100
AcDbPolyline
 90
        9
 70
     0
 43
0.0
 10
-1.874999999999998
 20
0.7607487593828246
 42
-0.1432467981947568
 10
-1.900224650855455
 20
0.7681268562540744
 42
-0.1071754848060475
 10
-1.92491081682604
 20
0.7926777813987265
 42
-0.0783035184710328
 10
-1.939857484448401
 20
0.8262990357495248
 42
-0.0656020556757086
 10
-1.945584554064508
 20
0.8697612593828303
 42
-0.0656020556757101
 10
-1.939857484448401
 20
0.9132234830161288
 42
-0.0783035184710357
 10
-1.92491081682604
 20
0.9468447373669271
 42
-0.1071754848060445
 10
-1.900224650855455
 20
0.9713956625115792
 42
-0.1432467981947535
 10
-1.874999999999998
 20
0.978773759382829
 42
-0.1432467981947515
  0
LINE
  5
BD
330
2
100
AcDbEntity
  8
0
100
AcDbLine
 10
-1.874999999999998
 20
0.7314237593828246
 30
0.0
 11
-1.874999999999998
 21
1.008098759382829
 31
0.0
  0
LINE
  5
BE
330
2
100
AcDbEntity
  8
0
100
AcDbLine
 10
1.749999999999998
 20
0.0
 30
0.0
 11
-1.749999999999998
 21
-0.0000000000000036
 31
0.0
  0
LINE
  5
BF
330
2
100
AcDbEntity
  8
0
100
AcDbLine
 10
1.750000000000002
 20
0.0625
 30
0.0
 11
-1.749999999999998
 21
0.0625000000000036
 31
0.0
  0
ARC
  5
C0
330
2
100
AcDbEntity
  8
0
100
AcDbCircle
 10
-1.749999999999998
 20
0.1249999999999965
 30
0.0
 40
0.125
100
AcDbArc
 50
180.0
 51
269.9999999999999
  0
ARC
  5
C1
330
2
100
AcDbEntity
  8
0
100
AcDbCircle
 10
-1.749999999999998
 20
0.1250000000000036
 30
0.0
 40
0.0625
100
AcDbArc
 50
180.0
 51
269.9999999999998
  0
LWPOLYLINE
  5
C2
330
2
100
AcDbEntity
  8
0
100
AcDbPolyline
 90
        9
 70
     0
 43
0.0
 10
-1.874999999999998
 20
0.7900737593828247
 42
-0.147269582437036
 10
-1.892696423162539
 20
0.7954016010706191
 42
-0.1071386913803464
 10
-1.91024831682604
 20
0.8134136877570235
 42
-0.0765137470862007
 10
-1.920790230872809
 20
0.8379184257911838
 42
-0.063469041210727
 10
-1.924848647706211
 20
0.8697612593828303
 42
-0.0634690412107267
 10
-1.920790230872809
 20
0.9016040929744698
 42
-0.0765137470862059
 10
-1.91024831682604
 20
0.9261088310086301
 42
-0.1071386913803463
 10
-1.892696423162539
 20
0.9441209176950345
 42
-0.1472695824370325
 10
-1.874999999999998
 20
0.9494487593828289
 42
-0.1472695824370333
  0
ARC
  5
C3
330
2
100
AcDbEntity
  8
0
100
AcDbCircle
 10
1.749999999999998
 20
0.125
 30
0.0
 40
0.125
100
AcDbArc
 50
270.0000000000001
 51
0.0
  0
ARC
  5
C4
330
2
100
AcDbEntity
  8
0
100
AcDbCircle
 10
1.750000000000002
 20
0.125
 30
0.0
 40
0.0625
100
AcDbArc
 50
269.9999999999998
 51
0.0
  0
LWPOLYLINE
  5
C5
330
2
100
AcDbEntity
  8
0
100
AcDbPolyline
 90
        9
 70
     0
 43
0.0
 10
1.875000000000076
 20
0.4771668353892125
 42
0.147269582437036
 10
1.892696423162617
 20
0.4824946770770069
 42
0.1071386913803464
 10
1.910248316826118
 20
0.5005067637634113
 42
0.0765137470862007
 10
1.920790230872887
 20
0.5250115017975716
 42
0.063469041210727
 10
1.924848647706289
 20
0.5568543353892181
 42
0.0634690412107267
 10
1.920790230872887
 20
0.5886971689808576
 42
0.0765137470862059
 10
1.910248316826118
 20
0.6132019070150179
 42
0.1071386913803463
 10
1.892696423162617
 20
0.6312139937014223
 42
0.1472695824370325
 10
1.875000000000076
 20
0.6365418353892167
 42
0.1472695824370333
  0
LWPOLYLINE
  5
C6
330
2
100
AcDbEntity
  8
0
100
AcDbPolyline
 90
        9
 70
     0
 43
0.0
 10
1.875000000000076
 20
0.4478418353892124
 42
0.1432467981947568
 10
1.900224650855533
 20
0.4552199322604622
 42
0.1071754848060475
 10
1.924910816826118
 20
0.4797708574051143
 42
0.0783035184710328
 10
1.93985748444848
 20
0.5133921117559126
 42
0.0656020556757086
 10
1.945584554064586
 20
0.5568543353892181
 42
0.0656020556757101
 10
1.93985748444848
 20
0.6003165590225166
 42
0.0783035184710357
 10
1.924910816826118
 20
0.6339378133733149
 42
0.1071754848060445
 10
1.900224650855533
 20
0.658488738517967
 42
0.1432467981947535
 10
1.875000000000076
 20
0.6658668353892168
 42
0.1432467981947515
  0
LINE
  5
C7
330
2
100
AcDbEntity
  8
0
100
AcDbLine
 10
1.875000000000076
 20
0.4185168353892124
 30
0.0
 11
1.875000000000076
 21
0.6951918353892168
 31
0.0
  0
ARC
  5
C8
330
2
100
AcDbEntity
  8
0
100
AcDbCircle
 10
-1.874999999999998
 20
1.870533367718203
 30
0.0
 40
0.1875000000000025
100
AcDbArc
 50
90.0
 51
270.0
  0
LWPOLYLINE
  5
C9
330
2
100
AcDbEntity
  8
0
100
AcDbPolyline
 90
        9
 70
     0
 43
0.0
 10
-1.874999999999998
 20
2.79007375938285
 42
-0.147269582437036
 10
-1.892696423162539
 20
2.795401601070644
 42
-0.1071386913803464
 10
-1.91024831682604
 20
2.813413687757048
 42
-0.0765137470862007
 10
-1.920790230872809
 20
2.837918425791209
 42
-0.063469041210727
 10
-1.924848647706211
 20
2.869761259382855
 42
-0.0634690412107267
 10
-1.920790230872809
 20
2.901604092974495
 42
-0.0765137470862059
 10
-1.91024831682604
 20
2.926108831008655
 42
-0.1071386913803463
 10
-1.892696423162539
 20
2.944120917695059
 42
-0.1472695824370325
 10
-1.874999999999998
 20
2.949448759382854
 42
-0.1472695824370333
  0
LWPOLYLINE
  5
CA
330
2
100
AcDbEntity
  8
0
100
AcDbPolyline
 90
        9
 70
     0
 43
0.0
 10
-1.874999999999998
 20
2.76074875938285
 42
-0.1432467981947568
 10
-1.900224650855455
 20
2.768126856254099
 42
-0.1071754848060475
 10
-1.92491081682604
 20
2.792677781398751
 42
-0.0783035184710328
 10
-1.939857484448401
 20
2.82629903574955
 42
-0.0656020556757086
 10
-1.945584554064508
 20
2.869761259382855
 42
-0.0656020556757101
 10
-1.939857484448401
 20
2.913223483016154
 42
-0.0783035184710357
 10
-1.92491081682604
 20
2.946844737366952
 42
-0.1071754848060445
 10
-1.900224650855455
 20
2.971395662511604
 42
-0.1432467981947535
 10
-1.874999999999998
 20
2.978773759382854
 42
-0.1432467981947515
  0
LINE
  5
CB
330
2
100
AcDbEntity
  8
0
100
AcDbLine
 10
-1.874999999999998
 20
2.731423759382849
 30
0.0
 11
-1.874999999999998
 21
3.008098759382854
 31
0.0
  0
ARC
  5
CC
330
2
100
AcDbEntity
  8
0
100
AcDbCircle
 10
1.875000000000002
 20
1.870533367718199
 30
0.0
 40
0.1875000000000025
100
AcDbArc
 50
270.0
 51
90.0
  0
LWPOLYLINE
  5
CD
330
2
100
AcDbEntity
  8
0
100
AcDbPolyline
 90
        9
 70
     0
 43
0.0
 10
1.875000000000076
 20
2.283272637581362
 42
0.147269582437036
 10
1.892696423162617
 20
2.288600479269157
 42
0.1071386913803464
 10
1.910248316826118
 20
2.306612565955561
 42
0.0765137470862007
 10
1.920790230872887
 20
2.331117303989721
 42
0.063469041210727
 10
1.924848647706289
 20
2.362960137581368
 42
0.0634690412107267
 10
1.920790230872887
 20
2.394802971173007
 42
0.0765137470862059
 10
1.910248316826118
 20
2.419307709207168
 42
0.1071386913803463
 10
1.892696423162617
 20
2.437319795893572
 42
0.1472695824370325
 10
1.875000000000076
 20
2.442647637581366
 42
0.1472695824370333
  0
LWPOLYLINE
  5
CE
330
2
100
AcDbEntity
  8
0
100
AcDbPolyline
 90
        9
 70
     0
 43
0.0
 10
1.875000000000076
 20
2.253947637581362
 42
0.1432467981947568
 10
1.900224650855533
 20
2.261325734452612
 42
0.1071754848060475
 10
1.924910816826118
 20
2.285876659597264
 42
0.0783035184710328
 10
1.93985748444848
 20
2.319497913948062
 42
0.0656020556757086
 10
1.945584554064586
 20
2.362960137581368
 42
0.0656020556757101
 10
1.93985748444848
 20
2.406422361214666
 42
0.0783035184710357
 10
1.924910816826118
 20
2.440043615565465
 42
0.1071754848060445
 10
1.900224650855533
 20
2.464594540710117
 42
0.1432467981947535
 10
1.875000000000076
 20
2.471972637581366
 42
0.1432467981947515
  0
LINE
  5
CF
330
2
100
AcDbEntity
  8
0
100
AcDbLine
 10
1.875000000000076
 20
2.224622637581362
 30
0.0
 11
1.875000000000076
 21
2.501297637581367
 31
0.0
  0
CIRCLE
  5
D0
330
2
100
AcDbEntity
  8
0
100
AcDbCircle
 10
-2.374999999999998
 20
3.745179898632181
 30
0.0
 40
0.085937500000002
  0
CIRCLE
  5
D1
330
2
100
AcDbEntity
  8
0
100
AcDbCircle
 10
-2.374999999999998
 20
4.743370235971675
 30
0.0
 40
0.085937500000002
  0
CIRCLE
  5
D2
330
2
100
AcDbEntity
  8
0
100
AcDbCircle
 10
-2.374999999999998
 20
5.746855786612848
 30
0.0
 40
0.085937500000002
  0
CIRCLE
  5
D3
330
2
100
AcDbEntity
  8
0
100
AcDbCircle
 10
-2.374999999999998
 20
6.743370152929153
 30
0.0
 40
0.085937500000002
  0
CIRCLE
  5
D4
330
2
100
AcDbEntity
  8
0
100
AcDbCircle
 10
-2.374999999999998
 20
7.621989561292686
 30
0.0
 40
0.085937500000002
  0
CIRCLE
  5
D5
330
2
100
AcDbEntity
  8
0
100
AcDbCircle
 10
-3.187499999999998
 20
5.878573959581718
 30
0.0
 40
0.085937500000002
  0
LINE
  5
D6
330
2
100
AcDbEntity
  8
0
100
AcDbLine
 10
-3.562499999999998
 20
5.56602395958172
 30
0.0
 11
-3.562499999999998
 21
6.06602395958172
 31
0.0
  0
LINE
  5
D7
330
2
100
AcDbEntity
  8
0
100
AcDbLine
 10
-3.874999999999998
 20
4.50352395958172
 30
0.0
 11
-3.874999999999998
 21
5.25352395958172
 31
0.0
  0
ARC
  5
D8
330
2
100
AcDbEntity
  8
0
100
AcDbCircle
 10
-3.718749999999998
 20
4.19102395958172
 30
0.0
 40
0.15625
100
AcDbArc
 50
0.0
 51
90.0
  0
ARC
  5
D9
330
2
100
AcDbEntity
  8
0
100
AcDbCircle
 10
-3.718749999999998
 20
4.50352395958172
 30
0.0
 40
0.15625
100
AcDbArc
 50
180.0
 51
269.9999999999999
  0
LINE
  5
DA
330
2
100
AcDbEntity
  8
0
100
AcDbLine
 10
-3.718749999999998
 20
4.34727395958172
 30
0.0
 11
-3.718749999999998
 21
4.34727395958172
 31
0.0
  0
CIRCLE
  5
DB
330
2
100
AcDbEntity
  8
0
100
AcDbCircle
 10
-3.187499999999998
 20
3.878573959581722
 30
0.0
 40
0.085937500000002
  0
CIRCLE
  5
DC
330
2
100
AcDbEntity
  8
0
100
AcDbCircle
 10
-3.562499999999998
 20
5.034823959581718
 30
0.0
 40
0.085937500000002
  0
ARC
  5
DD
330
2
100
AcDbEntity
  8
0
100
AcDbCircle
 10
-3.718749999999998
 20
5.56602395958172
 30
0.0
 40
0.15625
100
AcDbArc
 50
270.0
 51
359.9999999999999
  0
ARC
  5
DE
330
2
100
AcDbEntity
  8
0
100
AcDbCircle
 10
-3.718749999999998
 20
5.25352395958172
 30
0.0
 40
0.15625
100
AcDbArc
 50
90.0
 51
180.0
  0
LINE
  5
DF
330
2
100
AcDbEntity
  8
0
100
AcDbLine
 10
-3.718749999999998
 20
5.40977395958172
 30
0.0
 11
-3.718749999999998
 21
5.40977395958172
 31
0.0
  0
LINE
  5
E0
330
2
100
AcDbEntity
  8
0
100
AcDbLine
 10
-3.718749999999998
 20
5.918586659780619
 30
0.0
 11
-3.718749999999998
 21
5.918586659780619
 31
0.0
  0
ARC
  5
E1
330
2
100
AcDbEntity
  8
0
100
AcDbCircle
 10
-3.718749999999998
 20
7.12852395958172
 30
0.0
 40
0.15625
100
AcDbArc
 50
90.0
 51
180.0
  0
CIRCLE
  5
E2
330
2
100
AcDbEntity
  8
0
100
AcDbCircle
 10
-3.562499999999998
 20
6.878573959581718
 30
0.0
 40
0.085937500000002
  0
ARC
  5
E3
330
2
100
AcDbEntity
  8
0
100
AcDbCircle
 10
-3.718749999999998
 20
6.06602395958172
 30
0.0
 40
0.15625
100
AcDbArc
 50
0.0
 51
90.0
  0
LINE
  5
E4
330
2
100
AcDbEntity
  8
0
100
AcDbLine
 10
-3.874999999999998
 20
6.37852395958172
 30
0.0
 11
-3.874999999999998
 21
7.12852395958172
 31
0.0
  0
ARC
  5
E5
330
2
100
AcDbEntity
  8
0
100
AcDbCircle
 10
-3.718749999999998
 20
6.37852395958172
 30
0.0
 40
0.15625
100
AcDbArc
 50
180.0
 51
269.9999999999999
  0
ARC
  5
E6
330
2
100
AcDbEntity
  8
0
100
AcDbCircle
 10
-3.718749999999998
 20
7.44102395958172
 30
0.0
 40
0.15625
100
AcDbArc
 50
270.0
 51
359.9999999999999
  0
ARC
  5
E7
330
2
100
AcDbEntity
  8
0
100
AcDbCircle
 10
-3.718749999999998
 20
8.06602395958172
 30
0.0
 40
0.15625
100
AcDbArc
 50
0.0
 51
90.0
  0
LINE
  5
E8
330
2
100
AcDbEntity
  8
0
100
AcDbLine
 10
-3.562499999999998
 20
7.44102395958172
 30
0.0
 11
-3.562499999999998
 21
8.06602395958172
 31
0.0
  0
LINE
  5
E9
330
2
100
AcDbEntity
  8
0
100
AcDbLine
 10
-3.718749999999998
 20
7.28477395958172
 30
0.0
 11
-3.718749999999998
 21
7.28477395958172
 31
0.0
  0
ARC
  5
EA
330
2
100
AcDbEntity
  8
0
100
AcDbCircle
 10
-3.718749999999998
 20
8.37852395958172
 30
0.0
 40
0.15625
100
AcDbArc
 50
180.0
 51
269.9999999999999
  0
LINE
  5
EB
330
2
100
AcDbEntity
  8
0
100
AcDbLine
 10
-3.718749999999998
 20
8.22227395958172
 30
0.0
 11
-3.718749999999998
 21
8.22227395958172
 31
0.0
  0
CIRCLE
  5
EC
330
2
100
AcDbEntity
  8
0
100
AcDbCircle
 10
-3.187499999999998
 20
7.878573959581718
 30
0.0
 40
0.085937500000002
  0
LWPOLYLINE
  5
ED
330
2
100
AcDbEntity
  8
0
100
AcDbPolyline
 90
        9
 70
     0
 43
0.0
 10
-1.875000000000014
 20
5.948248759382825
 42
-0.1432467981947568
 10
-1.900224650855471
 20
5.955626856254074
 42
-0.1071754848060475
 10
-1.924910816826056
 20
5.980177781398727
 42
-0.0783035184710328
 10
-1.939857484448417
 20
6.013799035749525
 42
-0.0656020556757086
 10
-1.945584554064524
 20
6.05726125938283
 42
-0.0656020556757101
 10
-1.939857484448417
 20
6.100723483016129
 42
-0.0783035184710357
 10
-1.924910816826056
 20
6.134344737366927
 42
-0.1071754848060445
 10
-1.900224650855471
 20
6.158895662511579
 42
-0.1432467981947535
 10
-1.875000000000014
 20
6.166273759382829
 42
-0.1432467981947515
  0
LINE
  5
EE
330
2
100
AcDbEntity
  8
0
100
AcDbLine
 10
-1.875000000000014
 20
5.918923759382825
 30
0.0
 11
-1.875000000000014
 21
6.195598759382829
 31
0.0
  0
LWPOLYLINE
  5
EF
330
2
100
AcDbEntity
  8
0
100
AcDbPolyline
 90
        9
 70
     0
 43
0.0
 10
-1.874999999999998
 20
3.79007375938285
 42
-0.147269582437036
 10
-1.892696423162539
 20
3.795401601070644
 42
-0.1071386913803464
 10
-1.91024831682604
 20
3.813413687757048
 42
-0.0765137470862007
 10
-1.920790230872809
 20
3.837918425791209
 42
-0.063469041210727
 10
-1.924848647706211
 20
3.869761259382855
 42
-0.0634690412107267
 10
-1.920790230872809
 20
3.901604092974495
 42
-0.0765137470862059
 10
-1.91024831682604
 20
3.926108831008655
 42
-0.1071386913803463
 10
-1.892696423162539
 20
3.944120917695059
 42
-0.1472695824370325
 10
-1.874999999999998
 20
3.949448759382854
 42
-0.1472695824370333
  0
LWPOLYLINE
  5
F0
330
2
100
AcDbEntity
  8
0
100
AcDbPolyline
 90
        9
 70
     0
 43
0.0
 10
-1.874999999999998
 20
3.76074875938285
 42
-0.1432467981947568
 10
-1.900224650855455
 20
3.768126856254099
 42
-0.1071754848060475
 10
-1.92491081682604
 20
3.792677781398751
 42
-0.0783035184710328
 10
-1.939857484448401
 20
3.82629903574955
 42
-0.0656020556757086
 10
-1.945584554064508
 20
3.869761259382855
 42
-0.0656020556757101
 10
-1.939857484448401
 20
3.913223483016154
 42
-0.0783035184710357
 10
-1.92491081682604
 20
3.946844737366952
 42
-0.1071754848060445
 10
-1.900224650855455
 20
3.971395662511604
 42
-0.1432467981947535
 10
-1.874999999999998
 20
3.978773759382854
 42
-0.1432467981947515
  0
LINE
  5
F1
330
2
100
AcDbEntity
  8
0
100
AcDbLine
 10
-1.874999999999998
 20
3.731423759382849
 30
0.0
 11
-1.874999999999998
 21
4.008098759382854
 31
0.0
  0
LWPOLYLINE
  5
F2
330
2
100
AcDbEntity
  8
0
100
AcDbPolyline
 90
        9
 70
     0
 43
0.0
 10
1.875000000000076
 20
5.732633084951445
 42
0.147269582437036
 10
1.892696423162617
 20
5.737960926639239
 42
0.1071386913803464
 10
1.910248316826118
 20
5.755973013325644
 42
0.0765137470862007
 10
1.920790230872887
 20
5.780477751359804
 42
0.063469041210727
 10
1.924848647706289
 20
5.812320584951451
 42
0.0634690412107267
 10
1.920790230872887
 20
5.84416341854309
 42
0.0765137470862059
 10
1.910248316826118
 20
5.86866815657725
 42
0.1071386913803463
 10
1.892696423162617
 20
5.886680243263655
 42
0.1472695824370325
 10
1.875000000000076
 20
5.892008084951449
 42
0.1472695824370333
  0
LWPOLYLINE
  5
F3
330
2
100
AcDbEntity
  8
0
100
AcDbPolyline
 90
        9
 70
     0
 43
0.0
 10
1.875000000000076
 20
5.703308084951445
 42
0.1432467981947568
 10
1.900224650855533
 20
5.710686181822695
 42
0.1071754848060475
 10
1.924910816826118
 20
5.735237106967347
 42
0.0783035184710328
 10
1.93985748444848
 20
5.768858361318145
 42
0.0656020556757086
 10
1.945584554064586
 20
5.812320584951451
 42
0.0656020556757101
 10
1.93985748444848
 20
5.855782808584749
 42
0.0783035184710357
 10
1.924910816826118
 20
5.889404062935547
 42
0.1071754848060445
 10
1.900224650855533
 20
5.913954988080199
 42
0.1432467981947535
 10
1.875000000000076
 20
5.921333084951449
 42
0.1432467981947515
  0
LINE
  5
F4
330
2
100
AcDbEntity
  8
0
100
AcDbLine
 10
1.875000000000076
 20
5.673983084951445
 30
0.0
 11
1.875000000000076
 21
5.950658084951449
 31
0.0
  0
LWPOLYLINE
  5
F5
330
2
100
AcDbEntity
  8
0
100
AcDbPolyline
 90
        9
 70
     0
 43
0.0
 10
-1.875000000000014
 20
5.977573759382825
 42
-0.147269582437036
 10
-1.892696423162555
 20
5.982901601070619
 42
-0.1071386913803464
 10
-1.910248316826056
 20
6.000913687757024
 42
-0.0765137470862007
 10
-1.920790230872825
 20
6.025418425791184
 42
-0.063469041210727
 10
-1.924848647706227
 20
6.05726125938283
 42
-0.0634690412107267
 10
-1.920790230872825
 20
6.08910409297447
 42
-0.0765137470862059
 10
-1.910248316826056
 20
6.11360883100863
 42
-0.1071386913803463
 10
-1.892696423162555
 20
6.131620917695035
 42
-0.1472695824370325
 10
-1.875000000000014
 20
6.136948759382829
 42
-0.1472695824370333
  0
LWPOLYLINE
  5
F6
330
2
100
AcDbEntity
  8
0
100
AcDbPolyline
 90
        9
 70
     0
 43
0.0
 10
-1.875000000000014
 20
7.823074904400841
 42
-0.1432467981947568
 10
-1.900224650855471
 20
7.83045300127209
 42
-0.1071754848060475
 10
-1.924910816826056
 20
7.855003926416742
 42
-0.0783035184710328
 10
-1.939857484448417
 20
7.888625180767541
 42
-0.0656020556757086
 10
-1.945584554064524
 20
7.932087404400846
 42
-0.0656020556757101
 10
-1.939857484448417
 20
7.975549628034145
 42
-0.0783035184710357
 10
-1.924910816826056
 20
8.009170882384943
 42
-0.1071754848060445
 10
-1.900224650855471
 20
8.033721807529595
 42
-0.1432467981947535
 10
-1.875000000000014
 20
8.041099904400845
 42
-0.1432467981947515
  0
LINE
  5
F7
330
2
100
AcDbEntity
  8
0
100
AcDbLine
 10
-1.875000000000014
 20
7.793749904400841
 30
0.0
 11
-1.875000000000014
 21
8.070424904400845
 31
0.0
  0
LWPOLYLINE
  5
F8
330
2
100
AcDbEntity
  8
0
100
AcDbPolyline
 90
        9
 70
     0
 43
0.0
 10
-1.875000000000014
 20
7.852399904400841
 42
-0.147269582437036
 10
-1.892696423162555
 20
7.857727746088635
 42
-0.1071386913803464
 10
-1.910248316826056
 20
7.875739832775039
 42
-0.0765137470862007
 10
-1.920790230872825
 20
7.9002445708092
 42
-0.063469041210727
 10
-1.924848647706227
 20
7.932087404400846
 42
-0.0634690412107267
 10
-1.920790230872825
 20
7.963930237992486
 42
-0.0765137470862059
 10
-1.910248316826056
 20
7.988434976026646
 42
-0.1071386913803463
 10
-1.892696423162555
 20
8.00644706271305
 42
-0.1472695824370325
 10
-1.875000000000014
 20
8.011774904400845
 42
-0.1472695824370333
  0
LWPOLYLINE
  5
F9
330
2
100
AcDbEntity
  8
0
100
AcDbPolyline
 90
        9
 70
     0
 43
0.0
 10
1.875000000000076
 20
7.727573759382821
 42
0.147269582437036
 10
1.892696423162617
 20
7.732901601070616
 42
0.1071386913803464
 10
1.910248316826118
 20
7.75091368775702
 42
0.0765137470862007
 10
1.920790230872887
 20
7.77541842579118
 42
0.063469041210727
 10
1.924848647706289
 20
7.807261259382827
 42
0.0634690412107267
 10
1.920790230872887
 20
7.839104092974466
 42
0.0765137470862059
 10
1.910248316826118
 20
7.863608831008627
 42
0.1071386913803463
 10
1.892696423162617
 20
7.881620917695031
 42
0.1472695824370325
 10
1.875000000000076
 20
7.886948759382825
 42
0.1472695824370333
  0
LWPOLYLINE
  5
FA
330
2
100
AcDbEntity
  8
0
100
AcDbPolyline
 90
        9
 70
     0
 43
0.0
 10
1.875000000000076
 20
7.698248759382821
 42
0.1432467981947568
 10
1.900224650855533
 20
7.705626856254071
 42
0.1071754848060475
 10
1.924910816826118
 20
7.730177781398723
 42
0.0783035184710328
 10
1.93985748444848
 20
7.763799035749521
 42
0.0656020556757086
 10
1.945584554064586
 20
7.807261259382827
 42
0.0656020556757101
 10
1.93985748444848
 20
7.850723483016125
 42
0.0783035184710357
 10
1.924910816826118
 20
7.884344737366924
 42
0.1071754848060445
 10
1.900224650855533
 20
7.908895662511576
 42
0.1432467981947535
 10
1.875000000000076
 20
7.916273759382825
 42
0.1432467981947515
  0
LINE
  5
FB
330
2
100
AcDbEntity
  8
0
100
AcDbLine
 10
1.875000000000076
 20
7.668923759382821
 30
0.0
 11
1.875000000000076
 21
7.945598759382825
 31
0.0
  0
LINE
  5
FC
330
2
100
AcDbEntity
  8
0
100
AcDbLine
 10
-3.874999999999998
 20
9.066023959581717
 30
0.0
 11
-1.812499999999998
 21
9.06602395958172
 31
0.0
  0
CIRCLE
  5
FD
330
2
100
AcDbEntity
  8
0
100
AcDbCircle
 10
-2.374999999999998
 20
8.61976125938282
 30
0.0
 40
0.085937500000002
  0
CIRCLE
  5
FE
330
2
100
AcDbEntity
  8
0
100
AcDbCircle
 10
-3.562499999999998
 20
8.753573959581718
 30
0.0
 40
0.085937500000002
  0
LINE
  5
FF
330
2
100
AcDbEntity
  8
0
100
AcDbLine
 10
3.875000000000002
 20
8.378523959581717
 30
0.0
 11
3.875000000000002
 21
9.066023959581717
 31
0.0
  0
LINE
  5
100
330
2
100
AcDbEntity
  8
0
100
AcDbLine
 10
3.562500000000002
 20
2.240601157564228
 30
0.0
 11
3.562500000000002
 21
4.191023959581717
 31
0.0
  0
ARC
  5
101
330
2
100
AcDbEntity
  8
0
100
AcDbCircle
 10
2.562500000000002
 20
2.240601157564228
 30
0.0
 40
1.0
100
AcDbArc
 50
313.9949139947457
 51
0.0
  0
CIRCLE
  5
102
330
2
100
AcDbEntity
  8
0
100
AcDbCircle
 10
2.375000000000002
 20
1.244761259382823
 30
0.0
 40
0.085937500000002
  0
CIRCLE
  5
103
330
2
100
AcDbEntity
  8
0
100
AcDbCircle
 10
3.187500000000002
 20
2.378573959581722
 30
0.0
 40
0.085937500000002
  0
CIRCLE
  5
104
330
2
100
AcDbEntity
  8
0
100
AcDbCircle
 10
2.375000000000002
 20
2.744761259382823
 30
0.0
 40
0.085937500000002
  0
CIRCLE
  5
105
330
2
100
AcDbEntity
  8
0
100
AcDbCircle
 10
3.187500000000002
 20
5.878573959581718
 30
0.0
 40
0.085937500000002
  0
LINE
  5
106
330
2
100
AcDbEntity
  8
0
100
AcDbLine
 10
3.562500000000002
 20
5.566023959581717
 30
0.0
 11
3.562500000000002
 21
6.066023959581717
 31
0.0
  0
CIRCLE
  5
107
330
2
100
AcDbEntity
  8
0
100
AcDbCircle
 10
2.375000000000002
 20
4.74476125938282
 30
0.0
 40
0.085937500000002
  0
LINE
  5
108
330
2
100
AcDbEntity
  8
0
100
AcDbLine
 10
3.875000000000002
 20
4.503523959581717
 30
0.0
 11
3.875000000000002
 21
5.253523959581717
 31
0.0
  0
CIRCLE
  5
109
330
2
100
AcDbEntity
  8
0
100
AcDbCircle
 10
3.187500000000002
 20
3.878573959581722
 30
0.0
 40
0.085937500000002
  0
CIRCLE
  5
10A
330
2
100
AcDbEntity
  8
0
100
AcDbCircle
 10
2.375000000000002
 20
3.744761259382823
 30
0.0
 40
0.085937500000002
  0
ARC
  5
10B
330
2
100
AcDbEntity
  8
0
100
AcDbCircle
 10
3.718750000000002
 20
4.503523959581717
 30
0.0
 40
0.15625
100
AcDbArc
 50
270.0000000000001
 51
0.0
  0
LINE
  5
10C
330
2
100
AcDbEntity
  8
0
100
AcDbLine
 10
3.718750000000002
 20
4.347273959581717
 30
0.0
 11
3.718750000000002
 21
4.347273959581717
 31
0.0
  0
ARC
  5
10D
330
2
100
AcDbEntity
  8
0
100
AcDbCircle
 10
3.718750000000002
 20
4.191023959581717
 30
0.0
 40
0.15625
100
AcDbArc
 50
89.99999999999999
 51
180.0
  0
CIRCLE
  5
10E
330
2
100
AcDbEntity
  8
0
100
AcDbCircle
 10
2.375000000000002
 20
5.744761259382823
 30
0.0
 40
0.085937500000002
  0
ARC
  5
10F
330
2
100
AcDbEntity
  8
0
100
AcDbCircle
 10
3.718750000000002
 20
5.253523959581717
 30
0.0
 40
0.15625
100
AcDbArc
 50
0.0
 51
89.99999999999999
  0
CIRCLE
  5
110
330
2
100
AcDbEntity
  8
0
100
AcDbCircle
 10
3.562500000000002
 20
5.034823959581718
 30
0.0
 40
0.085937500000002
  0
LINE
  5
111
330
2
100
AcDbEntity
  8
0
100
AcDbLine
 10
3.718750000000002
 20
5.409773959581717
 30
0.0
 11
3.718750000000002
 21
5.409773959581717
 31
0.0
  0
ARC
  5
112
330
2
100
AcDbEntity
  8
0
100
AcDbCircle
 10
3.718750000000002
 20
5.566023959581717
 30
0.0
 40
0.15625
100
AcDbArc
 50
180.0000000000001
 51
270.0
  0
ARC
  5
113
330
2
100
AcDbEntity
  8
0
100
AcDbCircle
 10
3.718750000000002
 20
7.128523959581717
 30
0.0
 40
0.15625
100
AcDbArc
 50
0.0
 51
89.99999999999999
  0
CIRCLE
  5
114
330
2
100
AcDbEntity
  8
0
100
AcDbCircle
 10
2.375000000000002
 20
6.74476125938282
 30
0.0
 40
0.085937500000002
  0
LINE
  5
115
330
2
100
AcDbEntity
  8
0
100
AcDbLine
 10
3.875000000000002
 20
6.378523959581717
 30
0.0
 11
3.875000000000002
 21
7.128523959581717
 31
0.0
  0
ARC
  5
116
330
2
100
AcDbEntity
  8
0
100
AcDbCircle
 10
3.718750000000002
 20
6.378523959581717
 30
0.0
 40
0.15625
100
AcDbArc
 50
270.0000000000001
 51
0.0
  0
LINE
  5
117
330
2
100
AcDbEntity
  8
0
100
AcDbLine
 10
3.718750000000002
 20
6.347273959581717
 30
0.0
 11
3.718750000000002
 21
6.347273959581717
 31
0.0
  0
ARC
  5
118
330
2
100
AcDbEntity
  8
0
100
AcDbCircle
 10
3.718750000000002
 20
6.066023959581717
 30
0.0
 40
0.15625
100
AcDbArc
 50
89.99999999999999
 51
180.0
  0
CIRCLE
  5
119
330
2
100
AcDbEntity
  8
0
100
AcDbCircle
 10
3.562500000000002
 20
6.878573959581718
 30
0.0
 40
0.085937500000002
  0
CIRCLE
  5
11A
330
2
100
AcDbEntity
  8
0
100
AcDbCircle
 10
3.187500000000002
 20
7.878573959581718
 30
0.0
 40
0.085937500000002
  0
CIRCLE
  5
11B
330
2
100
AcDbEntity
  8
0
100
AcDbCircle
 10
2.375000000000002
 20
7.61976125938282
 30
0.0
 40
0.085937500000002
  0
LINE
  5
11C
330
2
100
AcDbEntity
  8
0
100
AcDbLine
 10
3.562500000000002
 20
7.441023959581717
 30
0.0
 11
3.562500000000002
 21
8.066023959581717
 31
0.0
  0
LINE
  5
11D
330
2
100
AcDbEntity
  8
0
100
AcDbLine
 10
3.718750000000002
 20
7.284773959581717
 30
0.0
 11
3.718750000000002
 21
7.284773959581717
 31
0.0
  0
ARC
  5
11E
330
2
100
AcDbEntity
  8
0
100
AcDbCircle
 10
3.718750000000002
 20
7.441023959581717
 30
0.0
 40
0.15625
100
AcDbArc
 50
180.0000000000001
 51
270.0
  0
ARC
  5
11F
330
2
100
AcDbEntity
  8
0
100
AcDbCircle
 10
3.718750000000002
 20
8.378523959581717
 30
0.0
 40
0.15625
100
AcDbArc
 50
270.0000000000001
 51
0.0
  0
LINE
  5
120
330
2
100
AcDbEntity
  8
0
100
AcDbLine
 10
3.718750000000002
 20
8.222273959581717
 30
0.0
 11
3.718750000000002
 21
8.222273959581717
 31
0.0
  0
ARC
  5
121
330
2
100
AcDbEntity
  8
0
100
AcDbCircle
 10
3.718750000000002
 20
8.066023959581717
 30
0.0
 40
0.15625
100
AcDbArc
 50
89.99999999999999
 51
180.0
  0
CIRCLE
  5
122
330
2
100
AcDbEntity
  8
0
100
AcDbCircle
 10
2.375000000000002
 20
8.61976125938282
 30
0.0
 40
0.085937500000002
  0
CIRCLE
  5
123
330
2
100
AcDbEntity
  8
0
100
AcDbCircle
 10
3.562500000000002
 20
8.753573959581718
 30
0.0
 40
0.085937500000002
  0
ENDSEC
  0
SECTION
  2
OBJECTS
  0
DICTIONARY
  5
9
330
0
100
AcDbDictionary
281
     1
  3
ACAD_COLOR
350
127
  3
ACAD_GROUP
350
23
  3
ACAD_LAYOUT
350
D
  3
ACAD_MATERIAL
350
129
  3
ACAD_MLINESTYLE
350
24
  3
ACAD_PLOTSETTINGS
350
25
  3
ACAD_PLOTSTYLENAME
350
8
  3
ACDBHEADERROUNDTRIPXREC
350
126
  3
AcDbVariableDictionary
350
A6
  0
DICTIONARY
  5
127
102
{ACAD_REACTORS
330
9
102
}
330
9
100
AcDbDictionary
281
     1
  0
DICTIONARY
  5
23
102
{ACAD_REACTORS
330
9
102
}
330
9
100
AcDbDictionary
281
     1
  0
DICTIONARY
  5
D
102
{ACAD_REACTORS
330
9
102
}
330
9
100
AcDbDictionary
281
     1
  3
Layout1
350
13
  3
Model
350
C
  0
DICTIONARY
  5
129
102
{ACAD_REACTORS
330
9
102
}
330
9
100
AcDbDictionary
281
     1
  0
DICTIONARY
  5
24
102
{ACAD_REACTORS
330
9
102
}
330
9
100
AcDbDictionary
281
     1
  3
STANDARD
350
27
  0
DICTIONARY
  5
25
102
{ACAD_REACTORS
330
9
102
}
330
9
100
AcDbDictionary
281
     1
  0
ACDBDICTIONARYWDFLT
  5
8
102
{ACAD_REACTORS
330
9
102
}
330
9
100
AcDbDictionary
281
     1
  3
Normal
350
7
100
AcDbDictionaryWithDefault
340
7
  0
DICTIONARY
  5
126
102
{ACAD_REACTORS
330
9
102
}
330
9
100
AcDbDictionary
281
     1
  3
COLORDICT
350
128
  3
MATERIALDICT
350
12A
  0
DICTIONARY
  5
A6
102
{ACAD_REACTORS
330
9
102
}
330
9
100
AcDbDictionary
281
     1
  3
HIDETEXT
350
125
  0
LAYOUT
  5
13
102
{ACAD_REACTORS
330
D
102
}
102
{ACAD_XDICTIONARY
360
12B
102
}
330
D
100
AcDbPlotSettings
  1

  2
C:\ACAD2000\plotters\HP LaserJet 2100 Series PS.pc3
  4

  6

 40
0.0
 41
0.0
 42
0.0
 43
0.0
 44
0.0
 45
0.0
 46
0.0
 47
0.0
 48
0.0
 49
0.0
140
0.0
141
0.0
142
1.0
143
1.0
 70
   688
 72
     0
 73
     0
 74
     5
  7

 75
    16
147
1.0
148
0.0
149
0.0
100
AcDbLayout
  1
Layout1
 70
     0
 71
     1
 10
0.0
 20
0.0
 11
12.0
 21
9.0
 12
0.0
 22
0.0
 32
0.0
 14
1.000000000000000E+20
 24
1.000000000000000E+20
 34
1.000000000000000E+20
 15
-1.000000000000000E+20
 25
-1.000000000000000E+20
 35
-1.000000000000000E+20
146
0.0
 13
0.0
 23
0.0
 33
0.0
 16
1.0
 26
0.0
 36
0.0
 17
0.0
 27
1.0
 37
0.0
 76
     0
330
E
  0
LAYOUT
  5
C
102
{ACAD_REACTORS
330
D
102
}
102
{ACAD_XDICTIONARY
360
12D
102
}
330
D
100
AcDbPlotSettings
  1

  2
HP LaserJet 2100 Series PS
  4
Letter
  6

 40
5.365749835968018
 41
5.408073902130127
 42
5.132904052734375
 43
5.090576171875
 44
215.8999938964844
 45
279.3999938964844
 46
0.0
 47
0.0
 48
0.0
 49
0.0
140
0.0
141
0.0
142
1.0
143
5.193734373688032
 70
 28336
 72
     0
 73
     1
 74
     2
  7

 75
     0
147
0.1925396887961961
148
0.0
149
0.0
100
AcDbLayout
  1
Model
 70
     1
 71
     0
 10
0.0
 20
0.0
 11
12.0
 21
9.0
 12
0.0
 22
0.0
 32
0.0
 14
0.0
 24
0.0
 34
0.0
 15
0.0
 25
0.0
 35
0.0
146
0.0
 13
0.0
 23
0.0
 33
0.0
 16
1.0
 26
0.0
 36
0.0
 17
0.0
 27
1.0
 37
0.0
 76
     0
330
2
  0
MLINESTYLE
  5
27
102
{ACAD_REACTORS
330
24
102
}
330
24
100
AcDbMlineStyle
  2
STANDARD
 70
     0
  3

 62
   256
 51
90.0
 52
90.0
 71
     2
 49
0.5
 62
   256
  6
BYLAYER
 49
-0.5
 62
   256
  6
BYLAYER
  0
ACDBPLACEHOLDER
  5
7
102
{ACAD_REACTORS
330
8
102
}
330
8
  0
XRECORD
  5
128
102
{ACAD_REACTORS
330
126
102
}
330
126
100
AcDbXrecord
340
127
  0
XRECORD
  5
12A
102
{ACAD_REACTORS
330
126
102
}
330
126
100
AcDbXrecord
340
129
  0
DICTIONARYVAR
  5
125
102
{ACAD_REACTORS
330
A6
102
}
330
A6
100
DictionaryVariables
280
     0
  1
0
  0
DICTIONARY
  5
12B
330
13
100
AcDbDictionary
280
     1
281
     1
  3
ACAD_XREC_ROUNDTRIP
360
12C
  0
DICTIONARY
  5
12D
330
C
100
AcDbDictionary
280
     1
281
     1
  3
ACAD_XREC_ROUNDTRIP
360
12E
  0
XRECORD
  5
12C
102
{ACAD_REACTORS
330
12B
102
}
330
12B
100
AcDbXrecord
102
SHADEPLOT
 70
     0
102
SHADEPLOTRESLEVEL
 70
     2
102
SHADEPLOTCUSTOMDPI
 70
   300
  0
XRECORD
  5
12E
102
{ACAD_REACTORS
330
12D
102
}
330
12D
100
AcDbXrecord
102
SHADEPLOT
 70
     0
102
SHADEPLOTRESLEVEL
 70
     2
102
SHADEPLOTCUSTOMDPI
 70
   300
  0
ENDSEC
  0
EOF
