  0
SECTION
  2
HEADER
  9
$ACADVER
  1
AC1015
  9
$ACADMAINTVER
 70
     6
  9
$DWGCODEPAGE
  3
ANSI_1252
  9
$INSBASE
 10
0.0
 20
0.0
 30
0.0
  9
$EXTMIN
 10
-12.07280018739817
 20
-0.0894076884005983
 30
-0.0000000000000058
  9
$EXTMAX
 10
12.07258873025604
 20
16.48948311808761
 30
0.0000000000000104
  9
$LIMMIN
 10
0.0
 20
0.0
  9
$LIMMAX
 10
42.0
 20
32.0
  9
$ORTHOMODE
 70
     1
  9
$REGENMODE
 70
     1
  9
$FILLMODE
 70
     1
  9
$QTEXTMODE
 70
     0
  9
$MIRRTEXT
 70
     1
  9
$LTSCALE
 40
0.5
  9
$ATTMODE
 70
     1
  9
$TEXTSIZE
 40
0.36
  9
$TRACEWID
 40
0.05
  9
$TEXTSTYLE
  7
STANDARD
  9
$CLAYER
  8
0
  9
$CELTYPE
  6
BYLAYER
  9
$CECOLOR
 62
   256
  9
$CELTSCALE
 40
1.0
  9
$DISPSILH
 70
     0
  9
$DIMSCALE
 40
4.0
  9
$DIMASZ
 40
0.125
  9
$DIMEXO
 40
0.062
  9
$DIMDLI
 40
0.375
  9
$DIMRND
 40
0.0
  9
$DIMDLE
 40
0.0
  9
$DIMEXE
 40
0.08
  9
$DIMTP
 40
0.0
  9
$DIMTM
 40
0.0
  9
$DIMTXT
 40
0.09
  9
$DIMCEN
 40
-0.06
  9
$DIMTSZ
 40
0.0
  9
$DIMTOL
 70
     0
  9
$DIMLIM
 70
     0
  9
$DIMTIH
 70
     1
  9
$DIMTOH
 70
     1
  9
$DIMSE1
 70
     0
  9
$DIMSE2
 70
     0
  9
$DIMTAD
 70
     0
  9
$DIMZIN
 70
     0
  9
$DIMBLK
  1

  9
$DIMASO
 70
     0
  9
$DIMSHO
 70
     0
  9
$DIMPOST
  1

  9
$DIMAPOST
  1

  9
$DIMALT
 70
     0
  9
$DIMALTD
 70
     2
  9
$DIMALTF
 40
25.4
  9
$DIMLFAC
 40
1.0
  9
$DIMTOFL
 70
     0
  9
$DIMTVP
 40
0.0
  9
$DIMTIX
 70
     0
  9
$DIMSOXD
 70
     0
  9
$DIMSAH
 70
     0
  9
$DIMBLK1
  1

  9
$DIMBLK2
  1

  9
$DIMSTYLE
  2
STANDARD
  9
$DIMCLRD
 70
     0
  9
$DIMCLRE
 70
     0
  9
$DIMCLRT
 70
     0
  9
$DIMTFAC
 40
1.0
  9
$DIMGAP
 40
0.09
  9
$DIMJUST
 70
     0
  9
$DIMSD1
 70
     0
  9
$DIMSD2
 70
     0
  9
$DIMTOLJ
 70
     1
  9
$DIMTZIN
 70
     0
  9
$DIMALTZ
 70
     0
  9
$DIMALTTZ
 70
     0
  9
$DIMUPT
 70
     0
  9
$DIMDEC
 70
     5
  9
$DIMTDEC
 70
     4
  9
$DIMALTU
 70
     2
  9
$DIMALTTD
 70
     2
  9
$DIMTXSTY
  7
STANDARD
  9
$DIMAUNIT
 70
     0
  9
$DIMADEC
 70
     0
  9
$DIMALTRND
 40
0.0
  9
$DIMAZIN
 70
     0
  9
$DIMDSEP
 70
    46
  9
$DIMATFIT
 70
     3
  9
$DIMFRAC
 70
     2
  9
$DIMLDRBLK
  1

  9
$DIMLUNIT
 70
     5
  9
$DIMLWD
 70
    -2
  9
$DIMLWE
 70
    -2
  9
$DIMTMOVE
 70
     2
  9
$LUNITS
 70
     2
  9
$LUPREC
 70
     4
  9
$SKETCHINC
 40
0.1
  9
$FILLETRAD
 40
0.0625
  9
$AUNITS
 70
     0
  9
$AUPREC
 70
     0
  9
$MENU
  1
acad
  9
$ELEVATION
 40
0.0
  9
$PELEVATION
 40
0.0
  9
$THICKNESS
 40
0.0
  9
$LIMCHECK
 70
     0
  9
$CHAMFERA
 40
0.0
  9
$CHAMFERB
 40
0.0
  9
$CHAMFERC
 40
0.0
  9
$CHAMFERD
 40
0.0
  9
$SKPOLY
 70
     0
  9
$TDCREATE
 40
2450826.891344097
  9
$TDUCREATE
 40
2450827.224677431
  9
$TDUPDATE
 40
2454165.98446066
  9
$TDUUPDATE
 40
2454166.317793993
  9
$TDINDWG
 40
0.2214331597
  9
$TDUSRTIMER
 40
0.2214331597
  9
$USRTIMER
 70
     1
  9
$ANGBASE
 50
0.0
  9
$ANGDIR
 70
     0
  9
$PDMODE
 70
     0
  9
$PDSIZE
 40
0.0
  9
$PLINEWID
 40
0.0
  9
$SPLFRAME
 70
     0
  9
$SPLINETYPE
 70
     6
  9
$SPLINESEGS
 70
     8
  9
$HANDSEED
  5
3EB
  9
$SURFTAB1
 70
     6
  9
$SURFTAB2
 70
     6
  9
$SURFTYPE
 70
     6
  9
$SURFU
 70
     6
  9
$SURFV
 70
     6
  9
$UCSBASE
  2

  9
$UCSNAME
  2

  9
$UCSORG
 10
0.0
 20
0.0
 30
0.0
  9
$UCSXDIR
 10
1.0
 20
0.0
 30
0.0
  9
$UCSYDIR
 10
0.0
 20
1.0
 30
0.0
  9
$UCSORTHOREF
  2

  9
$UCSORTHOVIEW
 70
     0
  9
$UCSORGTOP
 10
0.0
 20
0.0
 30
0.0
  9
$UCSORGBOTTOM
 10
0.0
 20
0.0
 30
0.0
  9
$UCSORGLEFT
 10
0.0
 20
0.0
 30
0.0
  9
$UCSORGRIGHT
 10
0.0
 20
0.0
 30
0.0
  9
$UCSORGFRONT
 10
0.0
 20
0.0
 30
0.0
  9
$UCSORGBACK
 10
0.0
 20
0.0
 30
0.0
  9
$PUCSBASE
  2

  9
$PUCSNAME
  2

  9
$PUCSORG
 10
0.0
 20
0.0
 30
0.0
  9
$PUCSXDIR
 10
1.0
 20
0.0
 30
0.0
  9
$PUCSYDIR
 10
0.0
 20
1.0
 30
0.0
  9
$PUCSORTHOREF
  2

  9
$PUCSORTHOVIEW
 70
     0
  9
$PUCSORGTOP
 10
0.0
 20
0.0
 30
0.0
  9
$PUCSORGBOTTOM
 10
0.0
 20
0.0
 30
0.0
  9
$PUCSORGLEFT
 10
0.0
 20
0.0
 30
0.0
  9
$PUCSORGRIGHT
 10
0.0
 20
0.0
 30
0.0
  9
$PUCSORGFRONT
 10
0.0
 20
0.0
 30
0.0
  9
$PUCSORGBACK
 10
0.0
 20
0.0
 30
0.0
  9
$USERI1
 70
     0
  9
$USERI2
 70
     0
  9
$USERI3
 70
     0
  9
$USERI4
 70
     0
  9
$USERI5
 70
     0
  9
$USERR1
 40
0.0
  9
$USERR2
 40
0.0
  9
$USERR3
 40
0.0
  9
$USERR4
 40
0.0
  9
$USERR5
 40
0.0
  9
$WORLDVIEW
 70
     1
  9
$SHADEDGE
 70
     3
  9
$SHADEDIF
 70
    70
  9
$TILEMODE
 70
     1
  9
$MAXACTVP
 70
    16
  9
$PINSBASE
 10
0.0
 20
0.0
 30
0.0
  9
$PLIMCHECK
 70
     0
  9
$PEXTMIN
 10
1.000000000000000E+20
 20
1.000000000000000E+20
 30
1.000000000000000E+20
  9
$PEXTMAX
 10
-1.000000000000000E+20
 20
-1.000000000000000E+20
 30
-1.000000000000000E+20
  9
$PLIMMIN
 10
0.0
 20
0.0
  9
$PLIMMAX
 10
12.0
 20
9.0
  9
$UNITMODE
 70
     0
  9
$VISRETAIN
 70
     0
  9
$PLINEGEN
 70
     0
  9
$PSLTSCALE
 70
     0
  9
$TREEDEPTH
 70
  3020
  9
$CMLSTYLE
  2
STANDARD
  9
$CMLJUST
 70
     0
  9
$CMLSCALE
 40
1.0
  9
$PROXYGRAPHICS
 70
     1
  9
$MEASUREMENT
 70
     0
  9
$CELWEIGHT
370
    -1
  9
$ENDCAPS
280
     0
  9
$JOINSTYLE
280
     0
  9
$LWDISPLAY
290
     0
  9
$INSUNITS
 70
     0
  9
$HYPERLINKBASE
  1

  9
$STYLESHEET
  1

  9
$XEDIT
290
     1
  9
$CEPSNTYPE
380
     0
  9
$PSTYLEMODE
290
     1
  9
$FINGERPRINTGUID
  2
{E569A389-AA53-4355-A5D2-FB716D157D68}
  9
$VERSIONGUID
  2
{65EAB0E1-41F5-4832-8DDF-0651F2DFF0B8}
  9
$EXTNAMES
290
     1
  9
$PSVPSCALE
 40
0.0
  9
$OLESTARTUP
290
     0
  0
ENDSEC
  0
SECTION
  2
CLASSES
  0
CLASS
  1
DICTIONARYVAR
  2
AcDbDictionaryVar
  3
AutoCAD 2000
 90
        0
280
     0
281
     0
  0
CLASS
  1
LWPOLYLINE
  2
AcDbPolyline
  3
AutoCAD 2000
 90
        0
280
     0
281
     1
  0
CLASS
  1
ACDBDICTIONARYWDFLT
  2
AcDbDictionaryWithDefault
  3
AutoCAD 2000
 90
        0
280
     0
281
     0
  0
CLASS
  1
ACDBPLACEHOLDER
  2
AcDbPlaceHolder
  3
ObjectDBX Classes
 90
        0
280
     0
281
     0
  0
CLASS
  1
LAYOUT
  2
AcDbLayout
  3
ObjectDBX Classes
 90
        0
280
     0
281
     0
  0
CLASS
  1
LONG_TRANSACTION
  2
AcDbLongTransaction
  3
ObjectDBX Classes
 90
   -65536
280
     1
281
     0
  0
CLASS
  1
LWPOLYLINE
  2
AcDbPolyline
  3
AutoCAD 2000
 90
        0
280
     0
281
     1
  0
CLASS
  1
HATCH
  2
AcDbHatch
  3
AutoCAD 2000
 90
        0
280
     0
281
     1
  0
CLASS
  1
XRECORD
  2
AcDbXrecord
  3
AutoCAD 2000
 90
        0
280
     0
281
     0
  0
CLASS
  1
LONG_TRANSACTION
  2
AcDbLongTransaction
  3
ObjectDBX Classes
 90
   -65536
280
     1
281
     0
  0
CLASS
  1
LWPOLYLINE
  2
AcDbPolyline
  3
AutoCAD 2000
 90
        0
280
     0
281
     1
  0
CLASS
  1
HATCH
  2
AcDbHatch
  3
AutoCAD 2000
 90
        0
280
     0
281
     1
  0
CLASS
  1
XRECORD
  2
AcDbXrecord
  3
AutoCAD 2000
 90
        0
280
     0
281
     0
  0
CLASS
  1
LONG_TRANSACTION
  2
AcDbLongTransaction
  3
ObjectDBX Classes
 90
   -65536
280
     1
281
     0
  0
CLASS
  1
LWPOLYLINE
  2
AcDbPolyline
  3
AutoCAD 2000
 90
        0
280
     0
281
     1
  0
CLASS
  1
HATCH
  2
AcDbHatch
  3
AutoCAD 2000
 90
        0
280
     0
281
     1
  0
CLASS
  1
XRECORD
  2
AcDbXrecord
  3
AutoCAD 2000
 90
        0
280
     0
281
     0
  0
CLASS
  1
LONG_TRANSACTION
  2
AcDbLongTransaction
  3
ObjectDBX Classes
 90
   -65536
280
     1
281
     0
  0
CLASS
  1
LWPOLYLINE
  2
AcDbPolyline
  3
AutoCAD 2000
 90
        0
280
     0
281
     1
  0
CLASS
  1
HATCH
  2
AcDbHatch
  3
AutoCAD 2000
 90
        0
280
     0
281
     1
  0
CLASS
  1
XRECORD
  2
AcDbXrecord
  3
AutoCAD 2000
 90
        0
280
     0
281
     0
  0
CLASS
  1
LONG_TRANSACTION
  2
AcDbLongTransaction
  3
ObjectDBX Classes
 90
   -65536
280
     1
281
     0
  0
CLASS
  1
LWPOLYLINE
  2
AcDbPolyline
  3
AutoCAD 2000
 90
        0
280
     0
281
     1
  0
CLASS
  1
HATCH
  2
AcDbHatch
  3
AutoCAD 2000
 90
        0
280
     0
281
     1
  0
CLASS
  1
XRECORD
  2
AcDbXrecord
  3
AutoCAD 2000
 90
        0
280
     0
281
     0
  0
CLASS
  1
LONG_TRANSACTION
  2
AcDbLongTransaction
  3
ObjectDBX Classes
 90
   -65536
280
     1
281
     0
  0
CLASS
  1
LWPOLYLINE
  2
AcDbPolyline
  3
AutoCAD 2000
 90
        0
280
     0
281
     1
  0
CLASS
  1
HATCH
  2
AcDbHatch
  3
AutoCAD 2000
 90
        0
280
     0
281
     1
  0
CLASS
  1
XRECORD
  2
AcDbXrecord
  3
AutoCAD 2000
 90
        0
280
     0
281
     0
  0
CLASS
  1
LONG_TRANSACTION
  2
AcDbLongTransaction
  3
ObjectDBX Classes
 90
   -65536
280
     1
281
     0
  0
CLASS
  1
LWPOLYLINE
  2
AcDbPolyline
  3
AutoCAD 2000
 90
        0
280
     0
281
     1
  0
CLASS
  1
HATCH
  2
AcDbHatch
  3
AutoCAD 2000
 90
        0
280
     0
281
     1
  0
CLASS
  1
XRECORD
  2
AcDbXrecord
  3
AutoCAD 2000
 90
        0
280
     0
281
     0
  0
CLASS
  1
TABLESTYLE
  2
AcDbTableStyle
  3
ObjectDBX Classes
 90
     2047
280
     1
281
     0
  0
ENDSEC
  0
SECTION
  2
TABLES
  0
TABLE
  2
VPORT
  5
1D
330
0
100
AcDbSymbolTable
 70
     4
  0
VPORT
  5
3DB
330
1D
100
AcDbSymbolTableRecord
100
AcDbViewportTableRecord
  2
*Active
 70
     0
 10
0.0
 20
0.0
 11
1.0
 21
1.0
 12
13.88061017252293
 22
13.857003611287
 13
0.0
 23
0.0
 14
0.063
 24
0.063
 15
0.25
 25
0.25
 16
0.0
 26
0.0
 36
1.0
 17
0.0
 27
0.0
 37
0.0
 40
32.48969139202558
 41
1.814583333333333
 42
50.0
 43
0.0
 44
0.0
 50
0.0
 51
0.0
 71
     0
 72
   100
 73
     1
 74
     0
 75
     1
 76
     0
 77
     0
 78
     0
281
     0
 65
     1
110
0.0
120
0.0
130
0.0
111
1.0
121
0.0
131
0.0
112
0.0
122
1.0
132
0.0
 79
     0
146
0.0
  0
ENDTAB
  0
TABLE
  2
LTYPE
  5
18
330
0
100
AcDbSymbolTable
 70
     2
  0
LTYPE
  5
19
330
18
100
AcDbSymbolTableRecord
100
AcDbLinetypeTableRecord
  2
BYBLOCK
 70
     0
  3

 72
    65
 73
     0
 40
0.0
  0
LTYPE
  5
1A
330
18
100
AcDbSymbolTableRecord
100
AcDbLinetypeTableRecord
  2
BYLAYER
 70
     0
  3

 72
    65
 73
     0
 40
0.0
  0
LTYPE
  5
A
330
18
100
AcDbSymbolTableRecord
100
AcDbLinetypeTableRecord
  2
CONTINUOUS
 70
     0
  3
Solid line
 72
    65
 73
     0
 40
0.0
  0
LTYPE
  5
3C7
330
18
100
AcDbSymbolTableRecord
100
AcDbLinetypeTableRecord
  2
HIDDEN
 70
     0
  3
Hidden __ __ __ __ __ __ __ __ __ __ __ __ __ _
 72
    65
 73
     2
 40
0.375
 49
0.25
 74
     0
 49
-0.125
 74
     0
  0
ENDTAB
  0
TABLE
  2
LAYER
  5
14
330
0
100
AcDbSymbolTable
 70
     1
  0
LAYER
  5
6
330
14
100
AcDbSymbolTableRecord
100
AcDbLayerTableRecord
  2
0
 70
     0
 62
     7
  6
CONTINUOUS
370
    -3
390
7
  0
ENDTAB
  0
TABLE
  2
STYLE
  5
15
330
0
100
AcDbSymbolTable
 70
     2
  0
STYLE
  5
16
330
15
100
AcDbSymbolTableRecord
100
AcDbTextStyleTableRecord
  2
STANDARD
 70
     0
 40
0.0
 41
1.0
 50
0.0
 71
     0
 42
0.36
  3
TXT
  4

  0
STYLE
  5
3C6
330
15
100
AcDbSymbolTableRecord
100
AcDbTextStyleTableRecord
  2

 70
     1
 40
0.0
 41
1.0
 50
0.0
 71
     0
 42
0.36
  3
ltypeshp.shx
  4

  0
ENDTAB
  0
TABLE
  2
VIEW
  5
1B
330
0
100
AcDbSymbolTable
 70
     0
  0
ENDTAB
  0
TABLE
  2
UCS
  5
1C
330
0
100
AcDbSymbolTable
 70
     0
  0
ENDTAB
  0
TABLE
  2
APPID
  5
1F
330
0
100
AcDbSymbolTable
 70
     1
  0
APPID
  5
20
330
1F
100
AcDbSymbolTableRecord
100
AcDbRegAppTableRecord
  2
ACAD
 70
     0
  0
ENDTAB
  0
TABLE
  2
DIMSTYLE
  5
21
330
0
100
AcDbSymbolTable
 70
     1
100
AcDbDimStyleTable
  0
DIMSTYLE
105
28
330
21
100
AcDbSymbolTableRecord
100
AcDbDimStyleTableRecord
  2
STANDARD
 70
     0
  3

  4

340
16
  0
ENDTAB
  0
TABLE
  2
BLOCK_RECORD
  5
1
330
0
100
AcDbSymbolTable
 70
     0
  0
BLOCK_RECORD
  5
2
330
1
100
AcDbSymbolTableRecord
100
AcDbBlockTableRecord
  2
*MODEL_SPACE
340
C
  0
BLOCK_RECORD
  5
E
330
1
100
AcDbSymbolTableRecord
100
AcDbBlockTableRecord
  2
*PAPER_SPACE
340
13
  0
ENDTAB
  0
ENDSEC
  0
SECTION
  2
BLOCKS
  0
BLOCK
  5
5
330
2
100
AcDbEntity
  8
0
100
AcDbBlockBegin
  2
*MODEL_SPACE
 70
     0
 10
0.0
 20
0.0
 30
0.0
  3
*MODEL_SPACE
  1

  4

  0
ENDBLK
  5
B
330
2
100
AcDbEntity
  8
0
100
AcDbBlockEnd
  0
BLOCK
  5
11
330
E
100
AcDbEntity
 67
     1
  8
0
100
AcDbBlockBegin
  2
*PAPER_SPACE
 70
     0
 10
0.0
 20
0.0
 30
0.0
  3
*PAPER_SPACE
  1

  4

  0
ENDBLK
  5
12
330
E
100
AcDbEntity
 67
     1
  8
0
100
AcDbBlockEnd
  0
ENDSEC
  0
SECTION
  2
ENTITIES
  0
LINE
  5
31B
330
2
100
AcDbEntity
  8
0
100
AcDbLine
 10
-0.6677697025001983
 20
8.922214316435047
 30
0.0
 11
-0.6677697025002054
 21
0.1184803148918565
 31
0.0
  0
LINE
  5
31C
330
2
100
AcDbEntity
  8
0
100
AcDbLine
 10
-0.6052697025002054
 20
8.922214316435047
 30
0.0
 11
-0.605269702500248
 21
0.1184803148918565
 31
0.0
  0
LINE
  5
31D
330
2
100
AcDbEntity
  8
0
100
AcDbLine
 10
0.7072302974997946
 20
5.672214316435047
 30
0.0
 11
0.7072302974997946
 21
6.172214316435047
 31
0.0
  0
ARC
  5
31E
330
2
100
AcDbEntity
  8
0
100
AcDbCircle
 10
-0.6052697025001983
 20
1.874999999999995
 30
0.0
 40
0.1875000000000025
100
AcDbArc
 50
270.0
 51
90.0
  0
LINE
  5
31F
330
2
100
AcDbEntity
  8
0
100
AcDbLine
 10
2.472449611311578
 20
-0.0625000000000053
 30
0.0
 11
-0.5275503886883932
 21
-0.0625000000000053
 31
0.0
  0
LINE
  5
320
330
2
100
AcDbEntity
  8
0
100
AcDbLine
 10
1.012635783800231
 20
1.45515073736509
 30
0.0
 11
2.36702755434958
 21
0.1474621313174414
 31
0.0
  0
LINE
  5
321
330
2
100
AcDbEntity
  8
0
100
AcDbLine
 10
0.4450029849966661
 20
0.4067510973648414
 30
0.0
 11
0.4450029849966661
 21
0.6834260973648458
 31
0.0
  0
ARC
  5
322
330
2
100
AcDbEntity
  8
0
100
AcDbCircle
 10
0.4450029849966803
 20
0.396927797127681
 30
0.0
 40
0.2864983002371645
100
AcDbArc
 50
90.00000000000284
 51
106.0310365777448
  0
ARC
  5
323
330
2
100
AcDbEntity
  8
0
100
AcDbCircle
 10
2.019730297499802
 20
-0.2122385989912612
 30
0.0
 40
0.5
100
AcDbArc
 50
25.11757623782306
 51
46.00508600525413
  0
LINE
  5
324
330
2
100
AcDbEntity
  8
0
100
AcDbLine
 10
2.472449611311578
 20
-0.0000000000000053
 30
0.0
 11
2.472449611311578
 21
-0.0625000000000053
 31
0.0
  0
ARC
  5
325
330
2
100
AcDbEntity
  8
0
100
AcDbCircle
 10
0.4450029849966732
 20
0.4828848704315778
 30
0.0
 40
0.0468087730667364
100
AcDbArc
 50
237.3920789847983
 51
269.9999999999913
  0
ARC
  5
326
330
2
100
AcDbEntity
  8
0
100
AcDbCircle
 10
0.4450029849966732
 20
0.6072923242981094
 30
0.0
 40
0.0468087730667376
100
AcDbArc
 50
90.00000000000868
 51
122.6079210152017
  0
ARC
  5
327
330
2
100
AcDbEntity
  8
0
100
AcDbCircle
 10
0.4450029849966732
 20
0.4974543479879277
 30
0.0
 40
0.0320532506230862
100
AcDbArc
 50
236.4891770443156
 51
269.9999999999873
  0
ARC
  5
328
330
2
100
AcDbEntity
  8
0
100
AcDbCircle
 10
0.4600780035604508
 20
0.5202208716025591
 30
0.0
 40
0.0593583926698498
100
AcDbArc
 50
212.0281066666102
 51
236.4891770443331
  0
ARC
  5
329
330
2
100
AcDbEntity
  8
0
100
AcDbCircle
 10
0.4600780035604508
 20
0.5699563231271281
 30
0.0
 40
0.0593583926698482
100
AcDbArc
 50
123.5108229556669
 51
147.9718933333899
  0
ARC
  5
32A
330
2
100
AcDbEntity
  8
0
100
AcDbCircle
 10
0.4450029849966732
 20
0.592722846741756
 30
0.0
 40
0.0320532506230915
100
AcDbArc
 50
90.00000000001269
 51
123.5108229556809
  0
ARC
  5
32B
330
2
100
AcDbEntity
  8
0
100
AcDbCircle
 10
0.4450029849966803
 20
0.693249397602008
 30
0.0
 40
0.2864983002371661
100
AcDbArc
 50
253.9689634222553
 51
269.9999999999972
  0
ARC
  5
32C
330
2
100
AcDbEntity
  8
0
100
AcDbCircle
 10
0.4640454892884485
 20
0.5126517371756609
 30
0.0
 40
0.0821454866301448
100
AcDbArc
 50
212.9226719024499
 51
237.392078984805
  0
ARC
  5
32D
330
2
100
AcDbEntity
  8
0
100
AcDbCircle
 10
0.494303400601499
 20
0.5322434461719308
 30
0.0
 40
0.1181923486076171
100
AcDbArc
 50
195.0133710020009
 51
212.9226719024528
  0
ARC
  5
32E
330
2
100
AcDbEntity
  8
0
100
AcDbCircle
 10
0.5421974469348321
 20
0.5450885973648401
 30
0.0
 40
0.1677790160026763
100
AcDbArc
 50
179.9999999999976
 51
195.0133710019946
  0
ARC
  5
32F
330
2
100
AcDbEntity
  8
0
100
AcDbCircle
 10
0.5421974469348037
 20
0.5450885973648543
 30
0.0
 40
0.1677790160026476
100
AcDbArc
 50
164.9866289980052
 51
180.0000000000025
  0
ARC
  5
330
330
2
100
AcDbEntity
  8
0
100
AcDbCircle
 10
0.4943034006014919
 20
0.55793374855776
 30
0.0
 40
0.11819234860761
100
AcDbArc
 50
147.0773280975469
 51
164.9866289979999
  0
ARC
  5
331
330
2
100
AcDbEntity
  8
0
100
AcDbCircle
 10
0.4640454892884556
 20
0.5775254575540263
 30
0.0
 40
0.0821454866301505
100
AcDbArc
 50
122.6079210151991
 51
147.0773280975528
  0
ARC
  5
332
330
2
100
AcDbEntity
  8
0
100
AcDbCircle
 10
0.4840814290841387
 20
0.5352362542243601
 30
0.0
 40
0.0876713959042334
100
AcDbArc
 50
194.5265478168138
 51
212.0281066666247
  0
ARC
  5
333
330
2
100
AcDbEntity
  8
0
100
AcDbCircle
 10
0.5221049242602724
 20
0.5450885973648187
 30
0.0
 40
0.126950586969819
100
AcDbArc
 50
179.9999999999872
 51
194.5265478167845
  0
ARC
  5
334
330
2
100
AcDbEntity
  8
0
100
AcDbCircle
 10
0.522104924260244
 20
0.5450885973648685
 30
0.0
 40
0.1269505869697909
100
AcDbArc
 50
165.4734521832123
 51
180.0000000000096
  0
ARC
  5
335
330
2
100
AcDbEntity
  8
0
100
AcDbCircle
 10
0.4840814290841315
 20
0.5549409405053307
 30
0.0
 40
0.0876713959042252
100
AcDbArc
 50
147.9718933333749
 51
165.4734521831872
  0
ARC
  5
336
330
2
100
AcDbEntity
  8
0
100
AcDbCircle
 10
0.4240610009101182
 20
0.62036504966491
 30
0.0
 40
0.2106649640867781
100
AcDbArc
 50
235.2517244545713
 51
253.9689634222627
  0
ARC
  5
337
330
2
100
AcDbEntity
  8
0
100
AcDbCircle
 10
0.3920647441404448
 20
0.5742396719608589
 30
0.0
 40
0.1545284259354788
100
AcDbArc
 50
210.8424709887101
 51
235.2517244545642
  0
ARC
  5
338
330
2
100
AcDbEntity
  8
0
100
AcDbCircle
 10
0.3432456752506603
 20
0.5450885973648472
 30
0.0
 40
0.0976681881821229
100
AcDbArc
 50
180.0000000000039
 51
210.8424709887169
  0
ARC
  5
339
330
2
100
AcDbEntity
  8
0
100
AcDbCircle
 10
0.3432456752506745
 20
0.5450885973648365
 30
0.0
 40
0.0976681881821371
100
AcDbArc
 50
149.1575290112855
 51
179.9999999999982
  0
ARC
  5
33A
330
2
100
AcDbEntity
  8
0
100
AcDbCircle
 10
0.3920647441404306
 20
0.5159375227688248
 30
0.0
 40
0.1545284259354655
100
AcDbArc
 50
124.7482755454311
 51
149.1575290112853
  0
ARC
  5
33B
330
2
100
AcDbEntity
  8
0
100
AcDbCircle
 10
0.4240610009101467
 20
0.4698121450647719
 30
0.0
 40
0.2106649640867901
100
AcDbArc
 50
106.0310365777434
 51
124.7482755454347
  0
LINE
  5
33C
330
2
100
AcDbEntity
  8
0
100
AcDbLine
 10
0.7072302974998017
 20
2.174552197982502
 30
0.0
 11
0.7072302974997946
 21
4.047214316435047
 31
0.0
  0
ARC
  5
33D
330
2
100
AcDbEntity
  8
0
100
AcDbCircle
 10
1.707230297499802
 20
2.174552197982502
 30
0.0
 40
1.0
100
AcDbArc
 50
180.0
 51
226.0050860052541
  0
ARC
  5
33E
330
2
100
AcDbEntity
  8
0
100
AcDbCircle
 10
0.4450029849966732
 20
2.163990672623728
 30
0.0
 40
0.0468087730667364
100
AcDbArc
 50
237.3920789847983
 51
269.9999999999913
  0
ARC
  5
33F
330
2
100
AcDbEntity
  8
0
100
AcDbCircle
 10
0.4450029849966732
 20
2.288398126490259
 30
0.0
 40
0.0468087730667376
100
AcDbArc
 50
90.00000000000868
 51
122.6079210152017
  0
ARC
  5
340
330
2
100
AcDbEntity
  8
0
100
AcDbCircle
 10
0.4450029849966732
 20
2.178560150180077
 30
0.0
 40
0.0320532506230862
100
AcDbArc
 50
236.4891770443156
 51
269.9999999999873
  0
ARC
  5
341
330
2
100
AcDbEntity
  8
0
100
AcDbCircle
 10
0.4600780035604508
 20
2.201326673794709
 30
0.0
 40
0.0593583926698498
100
AcDbArc
 50
212.0281066666102
 51
236.4891770443331
  0
ARC
  5
342
330
2
100
AcDbEntity
  8
0
100
AcDbCircle
 10
0.4600780035604508
 20
2.251062125319278
 30
0.0
 40
0.0593583926698482
100
AcDbArc
 50
123.5108229556669
 51
147.9718933333899
  0
ARC
  5
343
330
2
100
AcDbEntity
  8
0
100
AcDbCircle
 10
0.4450029849966732
 20
2.273828648933906
 30
0.0
 40
0.0320532506230915
100
AcDbArc
 50
90.00000000001269
 51
123.5108229556809
  0
ARC
  5
344
330
2
100
AcDbEntity
  8
0
100
AcDbCircle
 10
0.4450029849966803
 20
2.374355199794158
 30
0.0
 40
0.2864983002371662
100
AcDbArc
 50
253.9689634222553
 51
269.9999999999972
  0
ARC
  5
345
330
2
100
AcDbEntity
  8
0
100
AcDbCircle
 10
0.4450029849966803
 20
2.078033599319831
 30
0.0
 40
0.2864983002371644
100
AcDbArc
 50
90.00000000000284
 51
106.0310365777448
  0
LINE
  5
346
330
2
100
AcDbEntity
  8
0
100
AcDbLine
 10
0.4450029849966661
 20
2.087856899556991
 30
0.0
 11
0.4450029849966661
 21
2.364531899556996
 31
0.0
  0
ARC
  5
347
330
2
100
AcDbEntity
  8
0
100
AcDbCircle
 10
0.4640454892884485
 20
2.193757539367811
 30
0.0
 40
0.0821454866301448
100
AcDbArc
 50
212.9226719024499
 51
237.392078984805
  0
ARC
  5
348
330
2
100
AcDbEntity
  8
0
100
AcDbCircle
 10
0.494303400601499
 20
2.21334924836408
 30
0.0
 40
0.1181923486076171
100
AcDbArc
 50
195.0133710020009
 51
212.9226719024528
  0
ARC
  5
349
330
2
100
AcDbEntity
  8
0
100
AcDbCircle
 10
0.5421974469348321
 20
2.22619439955699
 30
0.0
 40
0.1677790160026763
100
AcDbArc
 50
179.9999999999976
 51
195.0133710019946
  0
ARC
  5
34A
330
2
100
AcDbEntity
  8
0
100
AcDbCircle
 10
0.5421974469348037
 20
2.226194399557004
 30
0.0
 40
0.1677790160026476
100
AcDbArc
 50
164.9866289980052
 51
180.0000000000025
  0
ARC
  5
34B
330
2
100
AcDbEntity
  8
0
100
AcDbCircle
 10
0.4943034006014919
 20
2.23903955074991
 30
0.0
 40
0.11819234860761
100
AcDbArc
 50
147.0773280975469
 51
164.9866289979999
  0
ARC
  5
34C
330
2
100
AcDbEntity
  8
0
100
AcDbCircle
 10
0.4640454892884556
 20
2.258631259746176
 30
0.0
 40
0.0821454866301505
100
AcDbArc
 50
122.6079210151991
 51
147.0773280975528
  0
ARC
  5
34D
330
2
100
AcDbEntity
  8
0
100
AcDbCircle
 10
0.4840814290841387
 20
2.21634205641651
 30
0.0
 40
0.0876713959042334
100
AcDbArc
 50
194.5265478168138
 51
212.0281066666247
  0
ARC
  5
34E
330
2
100
AcDbEntity
  8
0
100
AcDbCircle
 10
0.5221049242602724
 20
2.226194399556968
 30
0.0
 40
0.126950586969819
100
AcDbArc
 50
179.9999999999872
 51
194.5265478167845
  0
ARC
  5
34F
330
2
100
AcDbEntity
  8
0
100
AcDbCircle
 10
0.522104924260244
 20
2.226194399557018
 30
0.0
 40
0.1269505869697909
100
AcDbArc
 50
165.4734521832123
 51
180.0000000000096
  0
ARC
  5
350
330
2
100
AcDbEntity
  8
0
100
AcDbCircle
 10
0.4840814290841315
 20
2.23604674269748
 30
0.0
 40
0.0876713959042252
100
AcDbArc
 50
147.9718933333749
 51
165.4734521831872
  0
ARC
  5
351
330
2
100
AcDbEntity
  8
0
100
AcDbCircle
 10
0.4240610009101182
 20
2.30147085185706
 30
0.0
 40
0.2106649640867779
100
AcDbArc
 50
235.2517244545713
 51
253.9689634222627
  0
ARC
  5
352
330
2
100
AcDbEntity
  8
0
100
AcDbCircle
 10
0.3920647441404448
 20
2.255345474153009
 30
0.0
 40
0.1545284259354786
100
AcDbArc
 50
210.84247098871
 51
235.2517244545641
  0
ARC
  5
353
330
2
100
AcDbEntity
  8
0
100
AcDbCircle
 10
0.3432456752506603
 20
2.226194399556997
 30
0.0
 40
0.097668188182123
100
AcDbArc
 50
180.000000000004
 51
210.842470988717
  0
ARC
  5
354
330
2
100
AcDbEntity
  8
0
100
AcDbCircle
 10
0.3432456752506745
 20
2.226194399556986
 30
0.0
 40
0.0976681881821371
100
AcDbArc
 50
149.1575290112855
 51
179.9999999999982
  0
ARC
  5
355
330
2
100
AcDbEntity
  8
0
100
AcDbCircle
 10
0.3920647441404306
 20
2.197043324960974
 30
0.0
 40
0.1545284259354655
100
AcDbArc
 50
124.7482755454311
 51
149.1575290112853
  0
ARC
  5
356
330
2
100
AcDbEntity
  8
0
100
AcDbCircle
 10
0.4240610009101467
 20
2.150917947256922
 30
0.0
 40
0.21066496408679
100
AcDbArc
 50
106.0310365777434
 51
124.7482755454347
  0
LINE
  5
357
330
2
100
AcDbEntity
  8
0
100
AcDbLine
 10
0.3947302974997946
 20
4.359714316435047
 30
0.0
 11
0.3947302974997946
 21
5.359714316435047
 31
0.0
  0
ARC
  5
358
330
2
100
AcDbEntity
  8
0
100
AcDbCircle
 10
0.4523715971871631
 20
3.413990672623728
 30
0.0
 40
0.0468087730667364
100
AcDbArc
 50
237.3920789847983
 51
269.9999999999913
  0
ARC
  5
359
330
2
100
AcDbEntity
  8
0
100
AcDbCircle
 10
0.4523715971871631
 20
3.538398126490259
 30
0.0
 40
0.0468087730667376
100
AcDbArc
 50
90.00000000000868
 51
122.6079210152017
  0
ARC
  5
35A
330
2
100
AcDbEntity
  8
0
100
AcDbCircle
 10
0.4674466157509407
 20
3.451326673794709
 30
0.0
 40
0.0593583926698498
100
AcDbArc
 50
212.0281066666102
 51
236.4891770443331
  0
ARC
  5
35B
330
2
100
AcDbEntity
  8
0
100
AcDbCircle
 10
0.4674466157509407
 20
3.501062125319278
 30
0.0
 40
0.0593583926698482
100
AcDbArc
 50
123.5108229556669
 51
147.9718933333899
  0
ARC
  5
35C
330
2
100
AcDbEntity
  8
0
100
AcDbCircle
 10
0.4523715971871702
 20
3.624355199794158
 30
0.0
 40
0.2864983002371662
100
AcDbArc
 50
253.9689634222553
 51
269.9999999999972
  0
ARC
  5
35D
330
2
100
AcDbEntity
  8
0
100
AcDbCircle
 10
0.4523715971871702
 20
3.328033599319831
 30
0.0
 40
0.2864983002371644
100
AcDbArc
 50
90.00000000000284
 51
106.0310365777448
  0
ARC
  5
35E
330
2
100
AcDbEntity
  8
0
100
AcDbCircle
 10
0.5509802974998017
 20
4.359714316435047
 30
0.0
 40
0.15625
100
AcDbArc
 50
180.0
 51
269.9999999999999
  0
LINE
  5
35F
330
2
100
AcDbEntity
  8
0
100
AcDbLine
 10
0.452371597187156
 20
3.337856899556991
 30
0.0
 11
0.452371597187156
 21
3.614531899556996
 31
0.0
  0
ARC
  5
360
330
2
100
AcDbEntity
  8
0
100
AcDbCircle
 10
0.4523715971871631
 20
3.428560150180077
 30
0.0
 40
0.0320532506230862
100
AcDbArc
 50
236.4891770443156
 51
269.9999999999873
  0
ARC
  5
361
330
2
100
AcDbEntity
  8
0
100
AcDbCircle
 10
0.4523715971871631
 20
3.523828648933906
 30
0.0
 40
0.0320532506230915
100
AcDbArc
 50
90.00000000001269
 51
123.5108229556809
  0
LINE
  5
362
330
2
100
AcDbEntity
  8
0
100
AcDbLine
 10
0.5509802974997946
 20
4.203464316435047
 30
0.0
 11
0.5509802974997946
 21
4.203464316435047
 31
0.0
  0
ARC
  5
363
330
2
100
AcDbEntity
  8
0
100
AcDbCircle
 10
0.5509802974998017
 20
4.047214316435047
 30
0.0
 40
0.15625
100
AcDbArc
 50
0.000000000000007
 51
90.0
  0
ARC
  5
364
330
2
100
AcDbEntity
  8
0
100
AcDbCircle
 10
0.4714141014789384
 20
3.443757539367811
 30
0.0
 40
0.0821454866301448
100
AcDbArc
 50
212.9226719024499
 51
237.392078984805
  0
ARC
  5
365
330
2
100
AcDbEntity
  8
0
100
AcDbCircle
 10
0.5016720127919889
 20
3.46334924836408
 30
0.0
 40
0.1181923486076171
100
AcDbArc
 50
195.0133710020009
 51
212.9226719024528
  0
ARC
  5
366
330
2
100
AcDbEntity
  8
0
100
AcDbCircle
 10
0.549566059125322
 20
3.47619439955699
 30
0.0
 40
0.1677790160026763
100
AcDbArc
 50
179.9999999999976
 51
195.0133710019946
  0
ARC
  5
367
330
2
100
AcDbEntity
  8
0
100
AcDbCircle
 10
0.5495660591252936
 20
3.476194399557004
 30
0.0
 40
0.1677790160026476
100
AcDbArc
 50
164.9866289980052
 51
180.0000000000025
  0
ARC
  5
368
330
2
100
AcDbEntity
  8
0
100
AcDbCircle
 10
0.5016720127919818
 20
3.48903955074991
 30
0.0
 40
0.11819234860761
100
AcDbArc
 50
147.0773280975469
 51
164.9866289979999
  0
ARC
  5
369
330
2
100
AcDbEntity
  8
0
100
AcDbCircle
 10
0.4714141014789455
 20
3.508631259746176
 30
0.0
 40
0.0821454866301505
100
AcDbArc
 50
122.6079210151991
 51
147.0773280975528
  0
ARC
  5
36A
330
2
100
AcDbEntity
  8
0
100
AcDbCircle
 10
0.4914500412746286
 20
3.46634205641651
 30
0.0
 40
0.0876713959042334
100
AcDbArc
 50
194.5265478168138
 51
212.0281066666247
  0
ARC
  5
36B
330
2
100
AcDbEntity
  8
0
100
AcDbCircle
 10
0.5294735364507623
 20
3.476194399556968
 30
0.0
 40
0.126950586969819
100
AcDbArc
 50
179.9999999999872
 51
194.5265478167845
  0
ARC
  5
36C
330
2
100
AcDbEntity
  8
0
100
AcDbCircle
 10
0.5294735364507339
 20
3.476194399557018
 30
0.0
 40
0.1269505869697909
100
AcDbArc
 50
165.4734521832123
 51
180.0000000000096
  0
ARC
  5
36D
330
2
100
AcDbEntity
  8
0
100
AcDbCircle
 10
0.4914500412746214
 20
3.48604674269748
 30
0.0
 40
0.0876713959042252
100
AcDbArc
 50
147.9718933333749
 51
165.4734521831872
  0
ARC
  5
36E
330
2
100
AcDbEntity
  8
0
100
AcDbCircle
 10
0.4314296131006081
 20
3.55147085185706
 30
0.0
 40
0.2106649640867783
100
AcDbArc
 50
235.2517244545713
 51
253.9689634222627
  0
ARC
  5
36F
330
2
100
AcDbEntity
  8
0
100
AcDbCircle
 10
0.3994333563309347
 20
3.505345474153009
 30
0.0
 40
0.1545284259354786
100
AcDbArc
 50
210.84247098871
 51
235.2517244545641
  0
ARC
  5
370
330
2
100
AcDbEntity
  8
0
100
AcDbCircle
 10
0.3506142874411502
 20
3.476194399556997
 30
0.0
 40
0.097668188182123
100
AcDbArc
 50
180.000000000004
 51
210.842470988717
  0
ARC
  5
371
330
2
100
AcDbEntity
  8
0
100
AcDbCircle
 10
0.3506142874411644
 20
3.476194399556986
 30
0.0
 40
0.0976681881821371
100
AcDbArc
 50
149.1575290112855
 51
179.9999999999982
  0
ARC
  5
372
330
2
100
AcDbEntity
  8
0
100
AcDbCircle
 10
0.3994333563309205
 20
3.447043324960974
 30
0.0
 40
0.1545284259354655
100
AcDbArc
 50
124.7482755454311
 51
149.1575290112853
  0
ARC
  5
373
330
2
100
AcDbEntity
  8
0
100
AcDbCircle
 10
0.4314296131006365
 20
3.400917947256922
 30
0.0
 40
0.21066496408679
100
AcDbArc
 50
106.0310365777434
 51
124.7482755454347
  0
ARC
  5
374
330
2
100
AcDbEntity
  8
0
100
AcDbCircle
 10
0.5509802974998017
 20
5.359714316435047
 30
0.0
 40
0.15625
100
AcDbArc
 50
90.0
 51
180.0
  0
ARC
  5
375
330
2
100
AcDbEntity
  8
0
100
AcDbCircle
 10
0.5509802974998017
 20
5.672214316435047
 30
0.0
 40
0.15625
100
AcDbArc
 50
270.0
 51
359.9999999999999
  0
LINE
  5
376
330
2
100
AcDbEntity
  8
0
100
AcDbLine
 10
0.5509802974997946
 20
5.515964316435047
 30
0.0
 11
0.5509802974997946
 21
5.515964316435047
 31
0.0
  0
ARC
  5
377
330
2
100
AcDbEntity
  8
0
100
AcDbCircle
 10
-0.9802697025001983
 20
-0.2122385989912612
 30
0.0
 40
0.5
100
AcDbArc
 50
25.11757623782321
 51
41.40962210927817
  0
LINE
  5
378
330
2
100
AcDbEntity
  8
0
100
AcDbLine
 10
-0.5275503886883932
 20
-0.0000000000000053
 30
0.0
 11
-0.5275503886883932
 21
-0.0625000000000053
 31
0.0
  0
LINE
  5
379
330
2
100
AcDbEntity
  8
0
100
AcDbLine
 10
-0.6677697025002054
 20
0.1184803148918565
 30
0.0
 11
-0.6052697025002054
 21
0.1184803148918565
 31
0.0
  0
LINE
  5
37A
330
2
100
AcDbEntity
  8
0
100
AcDbLine
 10
-0.6677697025002054
 20
8.922214316435047
 30
0.0
 11
0.3947302974997946
 21
8.922214316435047
 31
0.0
  0
ARC
  5
37B
330
2
100
AcDbEntity
  8
0
100
AcDbCircle
 10
0.5509802974998017
 20
8.047214316435047
 30
0.0
 40
0.15625
100
AcDbArc
 50
0.000000000000007
 51
90.0
  0
ARC
  5
37C
330
2
100
AcDbEntity
  8
0
100
AcDbCircle
 10
0.5509802974998017
 20
8.359714316435047
 30
0.0
 40
0.15625
100
AcDbArc
 50
180.0
 51
269.9999999999999
  0
LINE
  5
37D
330
2
100
AcDbEntity
  8
0
100
AcDbLine
 10
0.3947302974997946
 20
6.484714316435047
 30
0.0
 11
0.3947302974997946
 21
7.109714316435047
 31
0.0
  0
ARC
  5
37E
330
2
100
AcDbEntity
  8
0
100
AcDbCircle
 10
0.4450029849966732
 20
5.86335111999381
 30
0.0
 40
0.0468087730667364
100
AcDbArc
 50
237.3920789847983
 51
269.9999999999913
  0
ARC
  5
37F
330
2
100
AcDbEntity
  8
0
100
AcDbCircle
 10
0.4450029849966732
 20
5.987758573860342
 30
0.0
 40
0.0468087730667376
100
AcDbArc
 50
90.00000000000868
 51
122.6079210152017
  0
ARC
  5
380
330
2
100
AcDbEntity
  8
0
100
AcDbCircle
 10
0.4450029849966732
 20
5.87792059755016
 30
0.0
 40
0.0320532506230862
100
AcDbArc
 50
236.4891770443156
 51
269.9999999999873
  0
ARC
  5
381
330
2
100
AcDbEntity
  8
0
100
AcDbCircle
 10
0.4600780035604508
 20
5.900687121164792
 30
0.0
 40
0.0593583926698498
100
AcDbArc
 50
212.0281066666102
 51
236.4891770443331
  0
ARC
  5
382
330
2
100
AcDbEntity
  8
0
100
AcDbCircle
 10
0.4600780035604508
 20
5.950422572689361
 30
0.0
 40
0.0593583926698482
100
AcDbArc
 50
123.5108229556669
 51
147.9718933333899
  0
ARC
  5
383
330
2
100
AcDbEntity
  8
0
100
AcDbCircle
 10
0.4450029849966732
 20
5.973189096303988
 30
0.0
 40
0.0320532506230915
100
AcDbArc
 50
90.00000000001269
 51
123.5108229556809
  0
ARC
  5
384
330
2
100
AcDbEntity
  8
0
100
AcDbCircle
 10
0.4450029849966803
 20
6.07371564716424
 30
0.0
 40
0.2864983002371666
100
AcDbArc
 50
253.9689634222553
 51
269.9999999999972
  0
ARC
  5
385
330
2
100
AcDbEntity
  8
0
100
AcDbCircle
 10
0.4450029849966803
 20
5.777394046689913
 30
0.0
 40
0.2864983002371644
100
AcDbArc
 50
90.00000000000284
 51
106.0310365777448
  0
ARC
  5
386
330
2
100
AcDbEntity
  8
0
100
AcDbCircle
 10
0.5509802974998017
 20
6.484714316435047
 30
0.0
 40
0.15625
100
AcDbArc
 50
180.0
 51
269.9999999999999
  0
ARC
  5
387
330
2
100
AcDbEntity
  8
0
100
AcDbCircle
 10
0.5509802974998017
 20
6.172214316435047
 30
0.0
 40
0.15625
100
AcDbArc
 50
0.000000000000007
 51
90.0
  0
LINE
  5
388
330
2
100
AcDbEntity
  8
0
100
AcDbLine
 10
0.4450029849966661
 20
5.787217346927074
 30
0.0
 11
0.4450029849966661
 21
6.063892346927078
 31
0.0
  0
LINE
  5
389
330
2
100
AcDbEntity
  8
0
100
AcDbLine
 10
0.5509802974997946
 20
6.328464316435047
 30
0.0
 11
0.5509802974997946
 21
6.328464316435047
 31
0.0
  0
ARC
  5
38A
330
2
100
AcDbEntity
  8
0
100
AcDbCircle
 10
0.4640454892884485
 20
5.893117986737893
 30
0.0
 40
0.0821454866301448
100
AcDbArc
 50
212.9226719024499
 51
237.392078984805
  0
ARC
  5
38B
330
2
100
AcDbEntity
  8
0
100
AcDbCircle
 10
0.494303400601499
 20
5.912709695734163
 30
0.0
 40
0.1181923486076171
100
AcDbArc
 50
195.0133710020009
 51
212.9226719024528
  0
ARC
  5
38C
330
2
100
AcDbEntity
  8
0
100
AcDbCircle
 10
0.5421974469348321
 20
5.925554846927073
 30
0.0
 40
0.1677790160026763
100
AcDbArc
 50
179.9999999999976
 51
195.0133710019946
  0
ARC
  5
38D
330
2
100
AcDbEntity
  8
0
100
AcDbCircle
 10
0.5421974469348037
 20
5.925554846927087
 30
0.0
 40
0.1677790160026476
100
AcDbArc
 50
164.9866289980052
 51
180.0000000000025
  0
ARC
  5
38E
330
2
100
AcDbEntity
  8
0
100
AcDbCircle
 10
0.4943034006014919
 20
5.938399998119992
 30
0.0
 40
0.11819234860761
100
AcDbArc
 50
147.0773280975469
 51
164.9866289979999
  0
ARC
  5
38F
330
2
100
AcDbEntity
  8
0
100
AcDbCircle
 10
0.4640454892884556
 20
5.957991707116259
 30
0.0
 40
0.0821454866301505
100
AcDbArc
 50
122.6079210151991
 51
147.0773280975528
  0
ARC
  5
390
330
2
100
AcDbEntity
  8
0
100
AcDbCircle
 10
0.4840814290841387
 20
5.915702503786593
 30
0.0
 40
0.0876713959042334
100
AcDbArc
 50
194.5265478168138
 51
212.0281066666247
  0
ARC
  5
391
330
2
100
AcDbEntity
  8
0
100
AcDbCircle
 10
0.5221049242602724
 20
5.925554846927051
 30
0.0
 40
0.126950586969819
100
AcDbArc
 50
179.9999999999872
 51
194.5265478167845
  0
ARC
  5
392
330
2
100
AcDbEntity
  8
0
100
AcDbCircle
 10
0.522104924260244
 20
5.925554846927101
 30
0.0
 40
0.1269505869697909
100
AcDbArc
 50
165.4734521832123
 51
180.0000000000096
  0
ARC
  5
393
330
2
100
AcDbEntity
  8
0
100
AcDbCircle
 10
0.4840814290841315
 20
5.935407190067563
 30
0.0
 40
0.0876713959042252
100
AcDbArc
 50
147.9718933333749
 51
165.4734521831872
  0
ARC
  5
394
330
2
100
AcDbEntity
  8
0
100
AcDbCircle
 10
0.4240610009101182
 20
6.000831299227142
 30
0.0
 40
0.2106649640867779
100
AcDbArc
 50
235.2517244545713
 51
253.9689634222627
  0
ARC
  5
395
330
2
100
AcDbEntity
  8
0
100
AcDbCircle
 10
0.3920647441404448
 20
5.954705921523091
 30
0.0
 40
0.1545284259354786
100
AcDbArc
 50
210.84247098871
 51
235.2517244545641
  0
ARC
  5
396
330
2
100
AcDbEntity
  8
0
100
AcDbCircle
 10
0.3432456752506603
 20
5.92555484692708
 30
0.0
 40
0.0976681881821232
100
AcDbArc
 50
180.0000000000042
 51
210.8424709887172
  0
ARC
  5
397
330
2
100
AcDbEntity
  8
0
100
AcDbCircle
 10
0.3432456752506745
 20
5.925554846927069
 30
0.0
 40
0.0976681881821371
100
AcDbArc
 50
149.1575290112853
 51
179.9999999999979
  0
ARC
  5
398
330
2
100
AcDbEntity
  8
0
100
AcDbCircle
 10
0.3920647441404306
 20
5.896403772331057
 30
0.0
 40
0.1545284259354653
100
AcDbArc
 50
124.7482755454312
 51
149.1575290112855
  0
ARC
  5
399
330
2
100
AcDbEntity
  8
0
100
AcDbCircle
 10
0.4240610009101467
 20
5.850278394627004
 30
0.0
 40
0.2106649640867903
100
AcDbArc
 50
106.0310365777434
 51
124.7482755454346
  0
ARC
  5
39A
330
2
100
AcDbEntity
  8
0
100
AcDbCircle
 10
0.4450029849966732
 20
7.733291794425186
 30
0.0
 40
0.0468087730667364
100
AcDbArc
 50
237.3920789847983
 51
269.9999999999913
  0
ARC
  5
39B
330
2
100
AcDbEntity
  8
0
100
AcDbCircle
 10
0.4450029849966732
 20
7.857699248291718
 30
0.0
 40
0.0468087730667376
100
AcDbArc
 50
90.00000000000868
 51
122.6079210152017
  0
ARC
  5
39C
330
2
100
AcDbEntity
  8
0
100
AcDbCircle
 10
0.4450029849966732
 20
7.747861271981536
 30
0.0
 40
0.0320532506230862
100
AcDbArc
 50
236.4891770443156
 51
269.9999999999873
  0
ARC
  5
39D
330
2
100
AcDbEntity
  8
0
100
AcDbCircle
 10
0.4600780035604508
 20
7.770627795596168
 30
0.0
 40
0.0593583926698498
100
AcDbArc
 50
212.0281066666102
 51
236.4891770443331
  0
ARC
  5
39E
330
2
100
AcDbEntity
  8
0
100
AcDbCircle
 10
0.4600780035604508
 20
7.820363247120737
 30
0.0
 40
0.0593583926698482
100
AcDbArc
 50
123.5108229556669
 51
147.9718933333899
  0
ARC
  5
39F
330
2
100
AcDbEntity
  8
0
100
AcDbCircle
 10
0.4450029849966732
 20
7.843129770735365
 30
0.0
 40
0.0320532506230915
100
AcDbArc
 50
90.00000000001269
 51
123.5108229556809
  0
ARC
  5
3A0
330
2
100
AcDbEntity
  8
0
100
AcDbCircle
 10
0.4450029849966803
 20
7.943656321595617
 30
0.0
 40
0.2864983002371666
100
AcDbArc
 50
253.9689634222553
 51
269.9999999999972
  0
ARC
  5
3A1
330
2
100
AcDbEntity
  8
0
100
AcDbCircle
 10
0.4450029849966803
 20
7.64733472112129
 30
0.0
 40
0.2864983002371644
100
AcDbArc
 50
90.00000000000284
 51
106.0310365777448
  0
ARC
  5
3A2
330
2
100
AcDbEntity
  8
0
100
AcDbCircle
 10
0.5509802974998017
 20
7.109714316435047
 30
0.0
 40
0.15625
100
AcDbArc
 50
90.0
 51
180.0
  0
LINE
  5
3A3
330
2
100
AcDbEntity
  8
0
100
AcDbLine
 10
0.7072302974997946
 20
7.422214316435047
 30
0.0
 11
0.7072302974997946
 21
8.047214316435047
 31
0.0
  0
LINE
  5
3A4
330
2
100
AcDbEntity
  8
0
100
AcDbLine
 10
0.5509802974997946
 20
7.265964316435047
 30
0.0
 11
0.5509802974997946
 21
7.265964316435047
 31
0.0
  0
ARC
  5
3A5
330
2
100
AcDbEntity
  8
0
100
AcDbCircle
 10
0.5509802974998017
 20
7.422214316435047
 30
0.0
 40
0.15625
100
AcDbArc
 50
270.0
 51
359.9999999999999
  0
LINE
  5
3A6
330
2
100
AcDbEntity
  8
0
100
AcDbLine
 10
0.4450029849966661
 20
7.65715802135845
 30
0.0
 11
0.4450029849966661
 21
7.933833021358455
 31
0.0
  0
ARC
  5
3A7
330
2
100
AcDbEntity
  8
0
100
AcDbCircle
 10
0.4640454892884485
 20
7.76305866116927
 30
0.0
 40
0.0821454866301448
100
AcDbArc
 50
212.9226719024499
 51
237.392078984805
  0
ARC
  5
3A8
330
2
100
AcDbEntity
  8
0
100
AcDbCircle
 10
0.494303400601499
 20
7.782650370165539
 30
0.0
 40
0.1181923486076171
100
AcDbArc
 50
195.0133710020009
 51
212.9226719024528
  0
ARC
  5
3A9
330
2
100
AcDbEntity
  8
0
100
AcDbCircle
 10
0.5421974469348321
 20
7.795495521358449
 30
0.0
 40
0.1677790160026763
100
AcDbArc
 50
179.9999999999976
 51
195.0133710019946
  0
ARC
  5
3AA
330
2
100
AcDbEntity
  8
0
100
AcDbCircle
 10
0.5421974469348037
 20
7.795495521358463
 30
0.0
 40
0.1677790160026476
100
AcDbArc
 50
164.9866289980052
 51
180.0000000000025
  0
ARC
  5
3AB
330
2
100
AcDbEntity
  8
0
100
AcDbCircle
 10
0.4943034006014919
 20
7.808340672551369
 30
0.0
 40
0.11819234860761
100
AcDbArc
 50
147.0773280975469
 51
164.9866289979999
  0
ARC
  5
3AC
330
2
100
AcDbEntity
  8
0
100
AcDbCircle
 10
0.4640454892884556
 20
7.827932381547635
 30
0.0
 40
0.0821454866301505
100
AcDbArc
 50
122.6079210151991
 51
147.0773280975528
  0
ARC
  5
3AD
330
2
100
AcDbEntity
  8
0
100
AcDbCircle
 10
0.4840814290841387
 20
7.785643178217969
 30
0.0
 40
0.0876713959042334
100
AcDbArc
 50
194.5265478168138
 51
212.0281066666247
  0
ARC
  5
3AE
330
2
100
AcDbEntity
  8
0
100
AcDbCircle
 10
0.5221049242602724
 20
7.795495521358427
 30
0.0
 40
0.126950586969819
100
AcDbArc
 50
179.9999999999872
 51
194.5265478167845
  0
ARC
  5
3AF
330
2
100
AcDbEntity
  8
0
100
AcDbCircle
 10
0.522104924260244
 20
7.795495521358477
 30
0.0
 40
0.1269505869697909
100
AcDbArc
 50
165.4734521832123
 51
180.0000000000096
  0
ARC
  5
3B0
330
2
100
AcDbEntity
  8
0
100
AcDbCircle
 10
0.4840814290841315
 20
7.805347864498939
 30
0.0
 40
0.0876713959042252
100
AcDbArc
 50
147.9718933333749
 51
165.4734521831872
  0
ARC
  5
3B1
330
2
100
AcDbEntity
  8
0
100
AcDbCircle
 10
0.4240610009101182
 20
7.870771973658519
 30
0.0
 40
0.2106649640867779
100
AcDbArc
 50
235.2517244545713
 51
253.9689634222627
  0
ARC
  5
3B2
330
2
100
AcDbEntity
  8
0
100
AcDbCircle
 10
0.3920647441404448
 20
7.824646595954468
 30
0.0
 40
0.1545284259354786
100
AcDbArc
 50
210.84247098871
 51
235.2517244545641
  0
ARC
  5
3B3
330
2
100
AcDbEntity
  8
0
100
AcDbCircle
 10
0.3432456752506603
 20
7.795495521358456
 30
0.0
 40
0.0976681881821232
100
AcDbArc
 50
180.0000000000042
 51
210.8424709887172
  0
ARC
  5
3B4
330
2
100
AcDbEntity
  8
0
100
AcDbCircle
 10
0.3432456752506745
 20
7.795495521358445
 30
0.0
 40
0.0976681881821371
100
AcDbArc
 50
149.1575290112853
 51
179.9999999999979
  0
ARC
  5
3B5
330
2
100
AcDbEntity
  8
0
100
AcDbCircle
 10
0.3920647441404306
 20
7.766344446762433
 30
0.0
 40
0.1545284259354653
100
AcDbArc
 50
124.7482755454312
 51
149.1575290112855
  0
ARC
  5
3B6
330
2
100
AcDbEntity
  8
0
100
AcDbCircle
 10
0.4240610009101467
 20
7.720219069058381
 30
0.0
 40
0.2106649640867903
100
AcDbArc
 50
106.0310365777434
 51
124.7482755454346
  0
LINE
  5
3B7
330
2
100
AcDbEntity
  8
0
100
AcDbLine
 10
0.5509802974997946
 20
8.203464316435047
 30
0.0
 11
0.5509802974997946
 21
8.203464316435047
 31
0.0
  0
LINE
  5
3B8
330
2
100
AcDbEntity
  8
0
100
AcDbLine
 10
0.3947302974997946
 20
8.359714316435047
 30
0.0
 11
0.3947302974997946
 21
8.922214316435047
 31
0.0
  0
LINE
  5
3C8
330
2
100
AcDbEntity
  8
0
  6
HIDDEN
100
AcDbLine
 10
2.472449611311602
 20
-0.0000000000000018
 30
0.0
 11
-0.5275503886883985
 21
-0.0000000000000018
 31
0.0
  0
ENDSEC
  0
SECTION
  2
OBJECTS
  0
DICTIONARY
  5
9
330
0
100
AcDbDictionary
281
     1
  3
ACAD_COLOR
350
3C0
  3
ACAD_GROUP
350
23
  3
ACAD_LAYOUT
350
D
  3
ACAD_MATERIAL
350
3BF
  3
ACAD_MLINESTYLE
350
24
  3
ACAD_PLOTSETTINGS
350
25
  3
ACAD_PLOTSTYLENAME
350
8
  3
ACAD_TABLESTYLE
350
3C1
  3
ACDBHEADERROUNDTRIPXREC
350
3E4
  3
AcDbVariableDictionary
350
114
  0
DICTIONARY
  5
3C0
102
{ACAD_REACTORS
330
9
102
}
330
9
100
AcDbDictionary
281
     1
  0
DICTIONARY
  5
23
102
{ACAD_REACTORS
330
9
102
}
330
9
100
AcDbDictionary
281
     1
  0
DICTIONARY
  5
D
102
{ACAD_REACTORS
330
9
102
}
330
9
100
AcDbDictionary
281
     1
  3
Layout1
350
13
  3
Model
350
C
  0
DICTIONARY
  5
3BF
102
{ACAD_REACTORS
330
9
102
}
330
9
100
AcDbDictionary
281
     1
  0
DICTIONARY
  5
24
102
{ACAD_REACTORS
330
9
102
}
330
9
100
AcDbDictionary
281
     1
  3
STANDARD
350
27
  0
DICTIONARY
  5
25
102
{ACAD_REACTORS
330
9
102
}
330
9
100
AcDbDictionary
281
     1
  0
ACDBDICTIONARYWDFLT
  5
8
102
{ACAD_REACTORS
330
9
102
}
330
9
100
AcDbDictionary
281
     1
  3
Normal
350
7
100
AcDbDictionaryWithDefault
340
7
  0
DICTIONARY
  5
3C1
102
{ACAD_REACTORS
330
9
102
}
330
9
100
AcDbDictionary
281
     1
  3
Standard
350
3C2
  0
DICTIONARY
  5
3E4
102
{ACAD_REACTORS
330
9
102
}
330
9
100
AcDbDictionary
281
     1
  3
COLORDICT
350
3E5
  3
MATERIALDICT
350
3E6
  0
DICTIONARY
  5
114
102
{ACAD_REACTORS
330
9
102
}
330
9
100
AcDbDictionary
281
     1
  3
CTABLESTYLE
350
3E1
  3
HIDETEXT
350
3E3
  0
LAYOUT
  5
13
102
{ACAD_REACTORS
330
D
102
}
102
{ACAD_XDICTIONARY
360
3E7
102
}
330
D
100
AcDbPlotSettings
  1

  2
C:\ACAD2000\plotters\HP LaserJet 2100 Series PS.pc3
  4

  6

 40
0.0
 41
0.0
 42
0.0
 43
0.0
 44
0.0
 45
0.0
 46
0.0
 47
0.0
 48
0.0
 49
0.0
140
0.0
141
0.0
142
1.0
143
1.0
 70
   688
 72
     0
 73
     0
 74
     5
  7

 75
    16
147
1.0
148
0.0
149
0.0
100
AcDbLayout
  1
Layout1
 70
     0
 71
     1
 10
0.0
 20
0.0
 11
12.0
 21
9.0
 12
0.0
 22
0.0
 32
0.0
 14
1.000000000000000E+20
 24
1.000000000000000E+20
 34
1.000000000000000E+20
 15
-1.000000000000000E+20
 25
-1.000000000000000E+20
 35
-1.000000000000000E+20
146
0.0
 13
0.0
 23
0.0
 33
0.0
 16
1.0
 26
0.0
 36
0.0
 17
0.0
 27
1.0
 37
0.0
 76
     0
330
E
  0
LAYOUT
  5
C
102
{ACAD_REACTORS
330
D
102
}
102
{ACAD_XDICTIONARY
360
3E9
102
}
330
D
100
AcDbPlotSettings
  1

  2
HP LaserJet 2100 Series PS
  4
Letter
  6

 40
5.365749835968018
 41
5.408073902130127
 42
5.132904052734375
 43
5.090576171875
 44
215.8999938964844
 45
279.3999938964844
 46
0.0
 47
0.0
 48
0.0
 49
0.0
140
0.0
141
0.0
142
1.0
143
5.193734373688032
 70
 28336
 72
     0
 73
     1
 74
     2
  7

 75
     0
147
0.1925396887961961
148
0.0
149
0.0
100
AcDbLayout
  1
Model
 70
     1
 71
     0
 10
0.0
 20
0.0
 11
12.0
 21
9.0
 12
0.0
 22
0.0
 32
0.0
 14
0.0
 24
0.0
 34
0.0
 15
0.0
 25
0.0
 35
0.0
146
0.0
 13
0.0
 23
0.0
 33
0.0
 16
1.0
 26
0.0
 36
0.0
 17
0.0
 27
1.0
 37
0.0
 76
     0
330
2
  0
MLINESTYLE
  5
27
102
{ACAD_REACTORS
330
24
102
}
330
24
100
AcDbMlineStyle
  2
STANDARD
 70
     0
  3

 62
   256
 51
90.0
 52
90.0
 71
     2
 49
0.5
 62
   256
  6
BYLAYER
 49
-0.5
 62
   256
  6
BYLAYER
  0
ACDBPLACEHOLDER
  5
7
102
{ACAD_REACTORS
330
8
102
}
330
8
  0
ACAD_PROXY_OBJECT
  5
3C2
102
{ACAD_REACTORS
330
3C1
102
}
330
3C1
100
AcDbProxyObject
 90
      499
 91
      533
 95
   983063
 70
     0
 93
     1841
310
4214DD185B99185C9928B81E85EB51B8AE3F2E07A17AD46E2B8FC02B5E8DC0F42B1CFD028000000C1008070000C3001FDFF8000000C1003FBFF000000182007F7FE00000030400FEFFC00000060801FDFF8000000C1003FBFF00000018200000000000000681FA0B0000001820100E000186003FBFF000000182007F7FE000
310
00030400FEFFC00000060801FDFF8000000C1003FBFF000000182007F7FE000000304000AD7A3703D0AC73F4160000003040201C00030C007F7FE00000030400FEFFC00000060801FDFF8000000C1003FBFF000000182007F7FE00000030400FEFFC000000608000
340
16
340
16
340
16
 94
        0
  0
XRECORD
  5
3E5
102
{ACAD_REACTORS
330
3E4
102
}
330
3E4
100
AcDbXrecord
340
3C0
  0
XRECORD
  5
3E6
102
{ACAD_REACTORS
330
3E4
102
}
330
3E4
100
AcDbXrecord
340
3BF
  0
DICTIONARYVAR
  5
3E1
102
{ACAD_REACTORS
330
114
102
}
330
114
100
DictionaryVariables
280
     0
  1
STANDARD
  0
DICTIONARYVAR
  5
3E3
102
{ACAD_REACTORS
330
114
102
}
330
114
100
DictionaryVariables
280
     0
  1
0
  0
DICTIONARY
  5
3E7
330
13
100
AcDbDictionary
280
     1
281
     1
  3
ACAD_XREC_ROUNDTRIP
360
3E8
  0
DICTIONARY
  5
3E9
330
C
100
AcDbDictionary
280
     1
281
     1
  3
ACAD_XREC_ROUNDTRIP
360
3EA
  0
XRECORD
  5
3E8
102
{ACAD_REACTORS
330
3E7
102
}
330
3E7
100
AcDbXrecord
102
SHADEPLOT
 70
     0
102
SHADEPLOTRESLEVEL
 70
     2
102
SHADEPLOTCUSTOMDPI
 70
   300
  0
XRECORD
  5
3EA
102
{ACAD_REACTORS
330
3E9
102
}
330
3E9
100
AcDbXrecord
102
SHADEPLOT
 70
     0
102
SHADEPLOTRESLEVEL
 70
     2
102
SHADEPLOTCUSTOMDPI
 70
   300
  0
ENDSEC
  0
EOF
