  0
SECTION
  2
HEADER
  9
$ACADVER
  1
AC1015
  9
$ACADMAINTVER
 70
     6
  9
$DWGCODEPAGE
  3
ANSI_1252
  9
$INSBASE
 10
0.0
 20
0.0
 30
0.0
  9
$EXTMIN
 10
-12.0707697025002
 20
-0.0883883476483255
 30
0.0
  9
$EXTMAX
 10
12.0707697025002
 20
16.48866677511155
 30
0.0
  9
$LIMMIN
 10
0.0
 20
0.0
  9
$LIMMAX
 10
42.0
 20
32.0
  9
$ORTHOMODE
 70
     1
  9
$REGENMODE
 70
     1
  9
$FILLMODE
 70
     1
  9
$QTEXTMODE
 70
     0
  9
$MIRRTEXT
 70
     1
  9
$LTSCALE
 40
0.5
  9
$ATTMODE
 70
     1
  9
$TEXTSIZE
 40
0.36
  9
$TRACEWID
 40
0.05
  9
$TEXTSTYLE
  7
STANDARD
  9
$CLAYER
  8
0
  9
$CELTYPE
  6
BYLAYER
  9
$CECOLOR
 62
   256
  9
$CELTSCALE
 40
1.0
  9
$DISPSILH
 70
     0
  9
$DIMSCALE
 40
4.0
  9
$DIMASZ
 40
0.125
  9
$DIMEXO
 40
0.062
  9
$DIMDLI
 40
0.375
  9
$DIMRND
 40
0.0
  9
$DIMDLE
 40
0.0
  9
$DIMEXE
 40
0.08
  9
$DIMTP
 40
0.0
  9
$DIMTM
 40
0.0
  9
$DIMTXT
 40
0.09
  9
$DIMCEN
 40
-0.06
  9
$DIMTSZ
 40
0.0
  9
$DIMTOL
 70
     0
  9
$DIMLIM
 70
     0
  9
$DIMTIH
 70
     1
  9
$DIMTOH
 70
     1
  9
$DIMSE1
 70
     0
  9
$DIMSE2
 70
     0
  9
$DIMTAD
 70
     0
  9
$DIMZIN
 70
     0
  9
$DIMBLK
  1

  9
$DIMASO
 70
     0
  9
$DIMSHO
 70
     0
  9
$DIMPOST
  1

  9
$DIMAPOST
  1

  9
$DIMALT
 70
     0
  9
$DIMALTD
 70
     2
  9
$DIMALTF
 40
25.4
  9
$DIMLFAC
 40
1.0
  9
$DIMTOFL
 70
     0
  9
$DIMTVP
 40
0.0
  9
$DIMTIX
 70
     0
  9
$DIMSOXD
 70
     0
  9
$DIMSAH
 70
     0
  9
$DIMBLK1
  1

  9
$DIMBLK2
  1

  9
$DIMSTYLE
  2
STANDARD
  9
$DIMCLRD
 70
     0
  9
$DIMCLRE
 70
     0
  9
$DIMCLRT
 70
     0
  9
$DIMTFAC
 40
1.0
  9
$DIMGAP
 40
0.09
  9
$DIMJUST
 70
     0
  9
$DIMSD1
 70
     0
  9
$DIMSD2
 70
     0
  9
$DIMTOLJ
 70
     1
  9
$DIMTZIN
 70
     0
  9
$DIMALTZ
 70
     0
  9
$DIMALTTZ
 70
     0
  9
$DIMUPT
 70
     0
  9
$DIMDEC
 70
     5
  9
$DIMTDEC
 70
     4
  9
$DIMALTU
 70
     2
  9
$DIMALTTD
 70
     2
  9
$DIMTXSTY
  7
STANDARD
  9
$DIMAUNIT
 70
     0
  9
$DIMADEC
 70
     0
  9
$DIMALTRND
 40
0.0
  9
$DIMAZIN
 70
     0
  9
$DIMDSEP
 70
    46
  9
$DIMATFIT
 70
     3
  9
$DIMFRAC
 70
     2
  9
$DIMLDRBLK
  1

  9
$DIMLUNIT
 70
     5
  9
$DIMLWD
 70
    -2
  9
$DIMLWE
 70
    -2
  9
$DIMTMOVE
 70
     2
  9
$LUNITS
 70
     2
  9
$LUPREC
 70
     4
  9
$SKETCHINC
 40
0.1
  9
$FILLETRAD
 40
0.0625
  9
$AUNITS
 70
     0
  9
$AUPREC
 70
     0
  9
$MENU
  1
acad
  9
$ELEVATION
 40
0.0
  9
$PELEVATION
 40
0.0
  9
$THICKNESS
 40
0.0
  9
$LIMCHECK
 70
     0
  9
$CHAMFERA
 40
0.0
  9
$CHAMFERB
 40
0.0
  9
$CHAMFERC
 40
0.0
  9
$CHAMFERD
 40
0.0
  9
$SKPOLY
 70
     0
  9
$TDCREATE
 40
2450826.891344097
  9
$TDUCREATE
 40
2450827.224677431
  9
$TDUPDATE
 40
2454165.984696123
  9
$TDUUPDATE
 40
2454166.318029456
  9
$TDINDWG
 40
0.2214261111
  9
$TDUSRTIMER
 40
0.2214261111
  9
$USRTIMER
 70
     1
  9
$ANGBASE
 50
0.0
  9
$ANGDIR
 70
     0
  9
$PDMODE
 70
     0
  9
$PDSIZE
 40
0.0
  9
$PLINEWID
 40
0.0
  9
$SPLFRAME
 70
     0
  9
$SPLINETYPE
 70
     6
  9
$SPLINESEGS
 70
     8
  9
$HANDSEED
  5
3EB
  9
$SURFTAB1
 70
     6
  9
$SURFTAB2
 70
     6
  9
$SURFTYPE
 70
     6
  9
$SURFU
 70
     6
  9
$SURFV
 70
     6
  9
$UCSBASE
  2

  9
$UCSNAME
  2

  9
$UCSORG
 10
0.0
 20
0.0
 30
0.0
  9
$UCSXDIR
 10
1.0
 20
0.0
 30
0.0
  9
$UCSYDIR
 10
0.0
 20
1.0
 30
0.0
  9
$UCSORTHOREF
  2

  9
$UCSORTHOVIEW
 70
     0
  9
$UCSORGTOP
 10
0.0
 20
0.0
 30
0.0
  9
$UCSORGBOTTOM
 10
0.0
 20
0.0
 30
0.0
  9
$UCSORGLEFT
 10
0.0
 20
0.0
 30
0.0
  9
$UCSORGRIGHT
 10
0.0
 20
0.0
 30
0.0
  9
$UCSORGFRONT
 10
0.0
 20
0.0
 30
0.0
  9
$UCSORGBACK
 10
0.0
 20
0.0
 30
0.0
  9
$PUCSBASE
  2

  9
$PUCSNAME
  2

  9
$PUCSORG
 10
0.0
 20
0.0
 30
0.0
  9
$PUCSXDIR
 10
1.0
 20
0.0
 30
0.0
  9
$PUCSYDIR
 10
0.0
 20
1.0
 30
0.0
  9
$PUCSORTHOREF
  2

  9
$PUCSORTHOVIEW
 70
     0
  9
$PUCSORGTOP
 10
0.0
 20
0.0
 30
0.0
  9
$PUCSORGBOTTOM
 10
0.0
 20
0.0
 30
0.0
  9
$PUCSORGLEFT
 10
0.0
 20
0.0
 30
0.0
  9
$PUCSORGRIGHT
 10
0.0
 20
0.0
 30
0.0
  9
$PUCSORGFRONT
 10
0.0
 20
0.0
 30
0.0
  9
$PUCSORGBACK
 10
0.0
 20
0.0
 30
0.0
  9
$USERI1
 70
     0
  9
$USERI2
 70
     0
  9
$USERI3
 70
     0
  9
$USERI4
 70
     0
  9
$USERI5
 70
     0
  9
$USERR1
 40
0.0
  9
$USERR2
 40
0.0
  9
$USERR3
 40
0.0
  9
$USERR4
 40
0.0
  9
$USERR5
 40
0.0
  9
$WORLDVIEW
 70
     1
  9
$SHADEDGE
 70
     3
  9
$SHADEDIF
 70
    70
  9
$TILEMODE
 70
     1
  9
$MAXACTVP
 70
    16
  9
$PINSBASE
 10
0.0
 20
0.0
 30
0.0
  9
$PLIMCHECK
 70
     0
  9
$PEXTMIN
 10
1.000000000000000E+20
 20
1.000000000000000E+20
 30
1.000000000000000E+20
  9
$PEXTMAX
 10
-1.000000000000000E+20
 20
-1.000000000000000E+20
 30
-1.000000000000000E+20
  9
$PLIMMIN
 10
0.0
 20
0.0
  9
$PLIMMAX
 10
12.0
 20
9.0
  9
$UNITMODE
 70
     0
  9
$VISRETAIN
 70
     0
  9
$PLINEGEN
 70
     0
  9
$PSLTSCALE
 70
     0
  9
$TREEDEPTH
 70
  3020
  9
$CMLSTYLE
  2
STANDARD
  9
$CMLJUST
 70
     0
  9
$CMLSCALE
 40
1.0
  9
$PROXYGRAPHICS
 70
     1
  9
$MEASUREMENT
 70
     0
  9
$CELWEIGHT
370
    -1
  9
$ENDCAPS
280
     0
  9
$JOINSTYLE
280
     0
  9
$LWDISPLAY
290
     0
  9
$INSUNITS
 70
     0
  9
$HYPERLINKBASE
  1

  9
$STYLESHEET
  1

  9
$XEDIT
290
     1
  9
$CEPSNTYPE
380
     0
  9
$PSTYLEMODE
290
     1
  9
$FINGERPRINTGUID
  2
{E569A389-AA53-4355-A5D2-FB716D157D68}
  9
$VERSIONGUID
  2
{46F4699B-BABF-46C9-BAE5-8C855E26BCD6}
  9
$EXTNAMES
290
     1
  9
$PSVPSCALE
 40
0.0
  9
$OLESTARTUP
290
     0
  0
ENDSEC
  0
SECTION
  2
CLASSES
  0
CLASS
  1
DICTIONARYVAR
  2
AcDbDictionaryVar
  3
AutoCAD 2000
 90
        0
280
     0
281
     0
  0
CLASS
  1
LWPOLYLINE
  2
AcDbPolyline
  3
AutoCAD 2000
 90
        0
280
     0
281
     1
  0
CLASS
  1
ACDBDICTIONARYWDFLT
  2
AcDbDictionaryWithDefault
  3
AutoCAD 2000
 90
        0
280
     0
281
     0
  0
CLASS
  1
ACDBPLACEHOLDER
  2
AcDbPlaceHolder
  3
ObjectDBX Classes
 90
        0
280
     0
281
     0
  0
CLASS
  1
LAYOUT
  2
AcDbLayout
  3
ObjectDBX Classes
 90
        0
280
     0
281
     0
  0
CLASS
  1
LONG_TRANSACTION
  2
AcDbLongTransaction
  3
ObjectDBX Classes
 90
   -65536
280
     1
281
     0
  0
CLASS
  1
LWPOLYLINE
  2
AcDbPolyline
  3
AutoCAD 2000
 90
        0
280
     0
281
     1
  0
CLASS
  1
HATCH
  2
AcDbHatch
  3
AutoCAD 2000
 90
        0
280
     0
281
     1
  0
CLASS
  1
XRECORD
  2
AcDbXrecord
  3
AutoCAD 2000
 90
        0
280
     0
281
     0
  0
CLASS
  1
LONG_TRANSACTION
  2
AcDbLongTransaction
  3
ObjectDBX Classes
 90
   -65536
280
     1
281
     0
  0
CLASS
  1
LWPOLYLINE
  2
AcDbPolyline
  3
AutoCAD 2000
 90
        0
280
     0
281
     1
  0
CLASS
  1
HATCH
  2
AcDbHatch
  3
AutoCAD 2000
 90
        0
280
     0
281
     1
  0
CLASS
  1
XRECORD
  2
AcDbXrecord
  3
AutoCAD 2000
 90
        0
280
     0
281
     0
  0
CLASS
  1
LONG_TRANSACTION
  2
AcDbLongTransaction
  3
ObjectDBX Classes
 90
   -65536
280
     1
281
     0
  0
CLASS
  1
LWPOLYLINE
  2
AcDbPolyline
  3
AutoCAD 2000
 90
        0
280
     0
281
     1
  0
CLASS
  1
HATCH
  2
AcDbHatch
  3
AutoCAD 2000
 90
        0
280
     0
281
     1
  0
CLASS
  1
XRECORD
  2
AcDbXrecord
  3
AutoCAD 2000
 90
        0
280
     0
281
     0
  0
CLASS
  1
LONG_TRANSACTION
  2
AcDbLongTransaction
  3
ObjectDBX Classes
 90
   -65536
280
     1
281
     0
  0
CLASS
  1
LWPOLYLINE
  2
AcDbPolyline
  3
AutoCAD 2000
 90
        0
280
     0
281
     1
  0
CLASS
  1
HATCH
  2
AcDbHatch
  3
AutoCAD 2000
 90
        0
280
     0
281
     1
  0
CLASS
  1
XRECORD
  2
AcDbXrecord
  3
AutoCAD 2000
 90
        0
280
     0
281
     0
  0
CLASS
  1
LONG_TRANSACTION
  2
AcDbLongTransaction
  3
ObjectDBX Classes
 90
   -65536
280
     1
281
     0
  0
CLASS
  1
LWPOLYLINE
  2
AcDbPolyline
  3
AutoCAD 2000
 90
        0
280
     0
281
     1
  0
CLASS
  1
HATCH
  2
AcDbHatch
  3
AutoCAD 2000
 90
        0
280
     0
281
     1
  0
CLASS
  1
XRECORD
  2
AcDbXrecord
  3
AutoCAD 2000
 90
        0
280
     0
281
     0
  0
CLASS
  1
LONG_TRANSACTION
  2
AcDbLongTransaction
  3
ObjectDBX Classes
 90
   -65536
280
     1
281
     0
  0
CLASS
  1
LWPOLYLINE
  2
AcDbPolyline
  3
AutoCAD 2000
 90
        0
280
     0
281
     1
  0
CLASS
  1
HATCH
  2
AcDbHatch
  3
AutoCAD 2000
 90
        0
280
     0
281
     1
  0
CLASS
  1
XRECORD
  2
AcDbXrecord
  3
AutoCAD 2000
 90
        0
280
     0
281
     0
  0
CLASS
  1
LONG_TRANSACTION
  2
AcDbLongTransaction
  3
ObjectDBX Classes
 90
   -65536
280
     1
281
     0
  0
CLASS
  1
LWPOLYLINE
  2
AcDbPolyline
  3
AutoCAD 2000
 90
        0
280
     0
281
     1
  0
CLASS
  1
HATCH
  2
AcDbHatch
  3
AutoCAD 2000
 90
        0
280
     0
281
     1
  0
CLASS
  1
XRECORD
  2
AcDbXrecord
  3
AutoCAD 2000
 90
        0
280
     0
281
     0
  0
CLASS
  1
TABLESTYLE
  2
AcDbTableStyle
  3
ObjectDBX Classes
 90
     2047
280
     1
281
     0
  0
ENDSEC
  0
SECTION
  2
TABLES
  0
TABLE
  2
VPORT
  5
1D
330
0
100
AcDbSymbolTable
 70
     3
  0
VPORT
  5
3DD
330
1D
100
AcDbSymbolTableRecord
100
AcDbViewportTableRecord
  2
*Active
 70
     0
 10
0.0
 20
0.0
 11
1.0
 21
1.0
 12
11.57925699466124
 22
11.75871101080656
 13
0.0
 23
0.0
 14
0.063
 24
0.063
 15
0.25
 25
0.25
 16
0.0
 26
0.0
 36
1.0
 17
0.0
 27
0.0
 37
0.0
 40
32.48969134506031
 41
1.814583333333333
 42
50.0
 43
0.0
 44
0.0
 50
0.0
 51
0.0
 71
     0
 72
   100
 73
     1
 74
     0
 75
     1
 76
     0
 77
     0
 78
     0
281
     0
 65
     1
110
0.0
120
0.0
130
0.0
111
1.0
121
0.0
131
0.0
112
0.0
122
1.0
132
0.0
 79
     0
146
0.0
  0
ENDTAB
  0
TABLE
  2
LTYPE
  5
18
330
0
100
AcDbSymbolTable
 70
     2
  0
LTYPE
  5
19
330
18
100
AcDbSymbolTableRecord
100
AcDbLinetypeTableRecord
  2
BYBLOCK
 70
     0
  3

 72
    65
 73
     0
 40
0.0
  0
LTYPE
  5
1A
330
18
100
AcDbSymbolTableRecord
100
AcDbLinetypeTableRecord
  2
BYLAYER
 70
     0
  3

 72
    65
 73
     0
 40
0.0
  0
LTYPE
  5
A
330
18
100
AcDbSymbolTableRecord
100
AcDbLinetypeTableRecord
  2
CONTINUOUS
 70
     0
  3
Solid line
 72
    65
 73
     0
 40
0.0
  0
LTYPE
  5
3C7
330
18
100
AcDbSymbolTableRecord
100
AcDbLinetypeTableRecord
  2
HIDDEN
 70
     0
  3
Hidden __ __ __ __ __ __ __ __ __ __ __ __ __ _
 72
    65
 73
     2
 40
0.375
 49
0.25
 74
     0
 49
-0.125
 74
     0
  0
ENDTAB
  0
TABLE
  2
LAYER
  5
14
330
0
100
AcDbSymbolTable
 70
     1
  0
LAYER
  5
6
330
14
100
AcDbSymbolTableRecord
100
AcDbLayerTableRecord
  2
0
 70
     0
 62
     7
  6
CONTINUOUS
370
    -3
390
7
  0
ENDTAB
  0
TABLE
  2
STYLE
  5
15
330
0
100
AcDbSymbolTable
 70
     2
  0
STYLE
  5
16
330
15
100
AcDbSymbolTableRecord
100
AcDbTextStyleTableRecord
  2
STANDARD
 70
     0
 40
0.0
 41
1.0
 50
0.0
 71
     0
 42
0.36
  3
TXT
  4

  0
STYLE
  5
3C6
330
15
100
AcDbSymbolTableRecord
100
AcDbTextStyleTableRecord
  2

 70
     1
 40
0.0
 41
1.0
 50
0.0
 71
     0
 42
0.36
  3
ltypeshp.shx
  4

  0
ENDTAB
  0
TABLE
  2
VIEW
  5
1B
330
0
100
AcDbSymbolTable
 70
     0
  0
ENDTAB
  0
TABLE
  2
UCS
  5
1C
330
0
100
AcDbSymbolTable
 70
     0
  0
ENDTAB
  0
TABLE
  2
APPID
  5
1F
330
0
100
AcDbSymbolTable
 70
     1
  0
APPID
  5
20
330
1F
100
AcDbSymbolTableRecord
100
AcDbRegAppTableRecord
  2
ACAD
 70
     0
  0
ENDTAB
  0
TABLE
  2
DIMSTYLE
  5
21
330
0
100
AcDbSymbolTable
 70
     1
100
AcDbDimStyleTable
  0
DIMSTYLE
105
28
330
21
100
AcDbSymbolTableRecord
100
AcDbDimStyleTableRecord
  2
STANDARD
 70
     0
  3

  4

340
16
  0
ENDTAB
  0
TABLE
  2
BLOCK_RECORD
  5
1
330
0
100
AcDbSymbolTable
 70
     0
  0
BLOCK_RECORD
  5
2
330
1
100
AcDbSymbolTableRecord
100
AcDbBlockTableRecord
  2
*MODEL_SPACE
340
C
  0
BLOCK_RECORD
  5
E
330
1
100
AcDbSymbolTableRecord
100
AcDbBlockTableRecord
  2
*PAPER_SPACE
340
13
  0
ENDTAB
  0
ENDSEC
  0
SECTION
  2
BLOCKS
  0
BLOCK
  5
5
330
2
100
AcDbEntity
  8
0
100
AcDbBlockBegin
  2
*MODEL_SPACE
 70
     0
 10
0.0
 20
0.0
 30
0.0
  3
*MODEL_SPACE
  1

  4

  0
ENDBLK
  5
B
330
2
100
AcDbEntity
  8
0
100
AcDbBlockEnd
  0
BLOCK
  5
11
330
E
100
AcDbEntity
 67
     1
  8
0
100
AcDbBlockBegin
  2
*PAPER_SPACE
 70
     0
 10
0.0
 20
0.0
 30
0.0
  3
*PAPER_SPACE
  1

  4

  0
ENDBLK
  5
12
330
E
100
AcDbEntity
 67
     1
  8
0
100
AcDbBlockEnd
  0
ENDSEC
  0
SECTION
  2
ENTITIES
  0
ARC
  5
1BF
330
2
100
AcDbEntity
  8
0
100
AcDbCircle
 10
-3.700980297499804
 20
8.047214316435047
 30
0.0
 40
0.15625
100
AcDbArc
 50
90.0
 51
180.0
  0
LINE
  5
1C0
330
2
100
AcDbEntity
  8
0
100
AcDbLine
 10
-2.482230297499804
 20
8.922214316435047
 30
0.0
 11
-2.482230297499797
 21
0.1184803148918565
 31
0.0
  0
LINE
  5
1C1
330
2
100
AcDbEntity
  8
0
100
AcDbLine
 10
-2.544730297499797
 20
8.922214316435047
 30
0.0
 11
-2.544730297499754
 21
0.1184803148918565
 31
0.0
  0
LINE
  5
1C2
330
2
100
AcDbEntity
  8
0
100
AcDbLine
 10
-3.857230297499804
 20
2.174552197982502
 30
0.0
 11
-3.857230297499797
 21
4.047214316435047
 31
0.0
  0
LINE
  5
1C3
330
2
100
AcDbEntity
  8
0
100
AcDbLine
 10
-5.622449611311581
 20
-0.0625000000000053
 30
0.0
 11
-2.622449611311609
 21
-0.0625000000000053
 31
0.0
  0
LINE
  5
1C5
330
2
100
AcDbEntity
  8
0
100
AcDbLine
 10
-4.162635783800234
 20
1.45515073736509
 30
0.0
 11
-5.517027554349582
 21
0.1474621313174414
 31
0.0
  0
ARC
  5
1C6
330
2
100
AcDbEntity
  8
0
100
AcDbCircle
 10
-5.169730297499804
 20
-0.2122385989912612
 30
0.0
 40
0.5
100
AcDbArc
 50
133.9949139947459
 51
154.882423762177
  0
LINE
  5
1C7
330
2
100
AcDbEntity
  8
0
100
AcDbLine
 10
-5.622449611311581
 20
-0.0000000000000053
 30
0.0
 11
-5.622449611311581
 21
-0.0625000000000053
 31
0.0
  0
ARC
  5
1C8
330
2
100
AcDbEntity
  8
0
100
AcDbCircle
 10
-4.857230297499804
 20
2.174552197982502
 30
0.0
 40
1.0
100
AcDbArc
 50
313.9949139947459
 51
0.0
  0
ARC
  5
1CA
330
2
100
AcDbEntity
  8
0
100
AcDbCircle
 10
-2.169730297499804
 20
-0.2122385989912612
 30
0.0
 40
0.5
100
AcDbArc
 50
138.5903778907218
 51
154.8824237621768
  0
LINE
  5
1CB
330
2
100
AcDbEntity
  8
0
100
AcDbLine
 10
-2.622449611311609
 20
-0.0000000000000053
 30
0.0
 11
-2.622449611311609
 21
-0.0625000000000053
 31
0.0
  0
LINE
  5
1CC
330
2
100
AcDbEntity
  8
0
100
AcDbLine
 10
-2.482230297499797
 20
0.1184803148918565
 30
0.0
 11
-2.544730297499797
 21
0.1184803148918565
 31
0.0
  0
ARC
  5
1CD
330
2
100
AcDbEntity
  8
0
100
AcDbCircle
 10
-2.544730297499804
 20
1.874999999999995
 30
0.0
 40
0.1875000000000025
100
AcDbArc
 50
90.0
 51
270.0
  0
ARC
  5
1CE
330
2
100
AcDbEntity
  8
0
100
AcDbCircle
 10
-3.700980297499804
 20
5.672214316435047
 30
0.0
 40
0.15625
100
AcDbArc
 50
180.0000000000001
 51
270.0
  0
LINE
  5
1CF
330
2
100
AcDbEntity
  8
0
100
AcDbLine
 10
-3.544730297499797
 20
4.359714316435047
 30
0.0
 11
-3.544730297499797
 21
5.359714316435047
 31
0.0
  0
LINE
  5
1D1
330
2
100
AcDbEntity
  8
0
100
AcDbLine
 10
-3.700980297499797
 20
4.203464316435047
 30
0.0
 11
-3.700980297499797
 21
4.203464316435047
 31
0.0
  0
ARC
  5
1D2
330
2
100
AcDbEntity
  8
0
100
AcDbCircle
 10
-3.700980297499804
 20
4.359714316435047
 30
0.0
 40
0.15625
100
AcDbArc
 50
270.0000000000001
 51
0.0
  0
ARC
  5
1D3
330
2
100
AcDbEntity
  8
0
100
AcDbCircle
 10
-3.700980297499804
 20
4.047214316435047
 30
0.0
 40
0.15625
100
AcDbArc
 50
90.0
 51
180.0
  0
LINE
  5
1D4
330
2
100
AcDbEntity
  8
0
100
AcDbLine
 10
-3.700980297499797
 20
5.515964316435047
 30
0.0
 11
-3.700980297499797
 21
5.515964316435047
 31
0.0
  0
ARC
  5
1D5
330
2
100
AcDbEntity
  8
0
100
AcDbCircle
 10
-3.700980297499804
 20
5.359714316435047
 30
0.0
 40
0.15625
100
AcDbArc
 50
0.0
 51
90.0
  0
LINE
  5
1D6
330
2
100
AcDbEntity
  8
0
100
AcDbLine
 10
-3.544730297499797
 20
6.484714316435047
 30
0.0
 11
-3.544730297499797
 21
7.109714316435047
 31
0.0
  0
ARC
  5
1D7
330
2
100
AcDbEntity
  8
0
100
AcDbCircle
 10
-3.700980297499804
 20
6.172214316435047
 30
0.0
 40
0.15625
100
AcDbArc
 50
90.0
 51
180.0
  0
LINE
  5
1D9
330
2
100
AcDbEntity
  8
0
100
AcDbLine
 10
-3.857230297499797
 20
5.672214316435047
 30
0.0
 11
-3.857230297499797
 21
6.172214316435047
 31
0.0
  0
ARC
  5
1DA
330
2
100
AcDbEntity
  8
0
100
AcDbCircle
 10
-3.700980297499804
 20
6.484714316435047
 30
0.0
 40
0.15625
100
AcDbArc
 50
270.0000000000001
 51
0.0
  0
LINE
  5
1DB
330
2
100
AcDbEntity
  8
0
100
AcDbLine
 10
-3.700980297499797
 20
6.328464316435047
 30
0.0
 11
-3.700980297499797
 21
6.328464316435047
 31
0.0
  0
LINE
  5
1DC
330
2
100
AcDbEntity
  8
0
100
AcDbLine
 10
-3.857230297499797
 20
7.422214316435047
 30
0.0
 11
-3.857230297499797
 21
8.047214316435047
 31
0.0
  0
ARC
  5
1DD
330
2
100
AcDbEntity
  8
0
100
AcDbCircle
 10
-3.700980297499804
 20
7.109714316435047
 30
0.0
 40
0.15625
100
AcDbArc
 50
0.0
 51
90.0
  0
LINE
  5
1DE
330
2
100
AcDbEntity
  8
0
100
AcDbLine
 10
-3.700980297499797
 20
7.265964316435047
 30
0.0
 11
-3.700980297499797
 21
7.265964316435047
 31
0.0
  0
ARC
  5
1DF
330
2
100
AcDbEntity
  8
0
100
AcDbCircle
 10
-3.700980297499804
 20
7.422214316435047
 30
0.0
 40
0.15625
100
AcDbArc
 50
180.0000000000001
 51
270.0
  0
LINE
  5
1E1
330
2
100
AcDbEntity
  8
0
100
AcDbLine
 10
-2.482230297499797
 20
8.922214316435047
 30
0.0
 11
-3.544730297499797
 21
8.922214316435047
 31
0.0
  0
LINE
  5
1E2
330
2
100
AcDbEntity
  8
0
100
AcDbLine
 10
-3.544730297499797
 20
8.359714316435047
 30
0.0
 11
-3.544730297499797
 21
8.922214316435047
 31
0.0
  0
ARC
  5
1E3
330
2
100
AcDbEntity
  8
0
100
AcDbCircle
 10
-3.700980297499804
 20
8.359714316435047
 30
0.0
 40
0.15625
100
AcDbArc
 50
270.0000000000001
 51
0.0
  0
LINE
  5
1E4
330
2
100
AcDbEntity
  8
0
100
AcDbLine
 10
-3.700980297499797
 20
8.203464316435047
 30
0.0
 11
-3.700980297499797
 21
8.203464316435047
 31
0.0
  0
LINE
  5
285
330
2
100
AcDbEntity
  8
0
100
AcDbLine
 10
-3.595002984996668
 20
0.2177510973648413
 30
0.0
 11
-3.595002984996668
 21
0.4944260973648458
 31
0.0
  0
LINE
  5
289
330
2
100
AcDbEntity
  8
0
100
AcDbLine
 10
-3.595002984996668
 20
1.898856899556991
 30
0.0
 11
-3.595002984996668
 21
2.175531899556995
 31
0.0
  0
LINE
  5
28D
330
2
100
AcDbEntity
  8
0
100
AcDbLine
 10
-3.602371597187158
 20
3.148856899556991
 30
0.0
 11
-3.602371597187158
 21
3.425531899556995
 31
0.0
  0
LINE
  5
291
330
2
100
AcDbEntity
  8
0
100
AcDbLine
 10
-3.595002984996668
 20
5.598217346927074
 30
0.0
 11
-3.595002984996668
 21
5.874892346927078
 31
0.0
  0
LINE
  5
295
330
2
100
AcDbEntity
  8
0
100
AcDbLine
 10
-3.595002984996668
 20
7.46815802135845
 30
0.0
 11
-3.595002984996668
 21
7.744833021358454
 31
0.0
  0
ARC
  5
299
330
2
100
AcDbEntity
  8
0
100
AcDbCircle
 10
-3.595002984996675
 20
0.2938848704315777
 30
0.0
 40
0.0468087730667364
100
AcDbArc
 50
270.0000000000087
 51
302.6079210152017
  0
ARC
  5
29A
330
2
100
AcDbEntity
  8
0
100
AcDbCircle
 10
-3.614045489288451
 20
0.3236517371756609
 30
0.0
 40
0.0821454866301448
100
AcDbArc
 50
302.607921015195
 51
327.0773280975502
  0
ARC
  5
29B
330
2
100
AcDbEntity
  8
0
100
AcDbCircle
 10
-3.644303400601501
 20
0.3432434461719307
 30
0.0
 40
0.1181923486076171
100
AcDbArc
 50
327.0773280975473
 51
344.9866289979991
  0
ARC
  5
29C
330
2
100
AcDbEntity
  8
0
100
AcDbCircle
 10
-3.692197446934834
 20
0.35608859736484
 30
0.0
 40
0.1677790160026763
100
AcDbArc
 50
344.9866289980054
 51
0.0000000000024265
  0
ARC
  5
29D
330
2
100
AcDbEntity
  8
0
100
AcDbCircle
 10
-3.692197446934806
 20
0.3560885973648542
 30
0.0
 40
0.1677790160026476
100
AcDbArc
 50
359.9999999999976
 51
15.01337100199479
  0
ARC
  5
29E
330
2
100
AcDbEntity
  8
0
100
AcDbCircle
 10
-3.644303400601494
 20
0.36893374855776
 30
0.0
 40
0.11819234860761
100
AcDbArc
 50
15.0133710020001
 51
32.92267190245313
  0
ARC
  5
29F
330
2
100
AcDbEntity
  8
0
100
AcDbCircle
 10
-3.614045489288458
 20
0.3885254575540262
 30
0.0
 40
0.0821454866301505
100
AcDbArc
 50
32.92267190244719
 51
57.39207898480085
  0
ARC
  5
2A0
330
2
100
AcDbEntity
  8
0
100
AcDbCircle
 10
-3.595002984996675
 20
0.4182923242981094
 30
0.0
 40
0.0468087730667376
100
AcDbArc
 50
57.3920789847983
 51
89.99999999999132
  0
ARC
  5
2A1
330
2
100
AcDbEntity
  8
0
100
AcDbCircle
 10
-3.595002984996675
 20
0.3084543479879276
 30
0.0
 40
0.0320532506230862
100
AcDbArc
 50
270.0000000000127
 51
303.5108229556844
  0
ARC
  5
2A2
330
2
100
AcDbEntity
  8
0
100
AcDbCircle
 10
-3.610078003560453
 20
0.3312208716025591
 30
0.0
 40
0.0593583926698498
100
AcDbArc
 50
303.5108229556669
 51
327.9718933333899
  0
ARC
  5
2A3
330
2
100
AcDbEntity
  8
0
100
AcDbCircle
 10
-3.634081429084141
 20
0.34623625422436
 30
0.0
 40
0.0876713959042334
100
AcDbArc
 50
327.9718933333754
 51
345.4734521831862
  0
ARC
  5
2A4
330
2
100
AcDbEntity
  8
0
100
AcDbCircle
 10
-3.672104924260275
 20
0.3560885973648187
 30
0.0
 40
0.126950586969819
100
AcDbArc
 50
345.4734521832155
 51
0.0000000000128274
  0
ARC
  5
2A5
330
2
100
AcDbEntity
  8
0
100
AcDbCircle
 10
-3.672104924260246
 20
0.3560885973648684
 30
0.0
 40
0.1269505869697909
100
AcDbArc
 50
359.9999999999904
 51
14.52654781678768
  0
ARC
  5
2A6
330
2
100
AcDbEntity
  8
0
100
AcDbCircle
 10
-3.634081429084134
 20
0.3659409405053307
 30
0.0
 40
0.0876713959042252
100
AcDbArc
 50
14.52654781681278
 51
32.02810666662511
  0
ARC
  5
2A7
330
2
100
AcDbEntity
  8
0
100
AcDbCircle
 10
-3.610078003560453
 20
0.380956323127128
 30
0.0
 40
0.0593583926698482
100
AcDbArc
 50
32.02810666661014
 51
56.48917704433315
  0
ARC
  5
2A8
330
2
100
AcDbEntity
  8
0
100
AcDbCircle
 10
-3.595002984996675
 20
0.403722846741756
 30
0.0
 40
0.0320532506230915
100
AcDbArc
 50
56.48917704431916
 51
89.99999999998731
  0
ARC
  5
2A9
330
2
100
AcDbEntity
  8
0
100
AcDbCircle
 10
-3.595002984996675
 20
1.974990672623727
 30
0.0
 40
0.0468087730667364
100
AcDbArc
 50
270.0000000000087
 51
302.6079210152017
  0
ARC
  5
2AA
330
2
100
AcDbEntity
  8
0
100
AcDbCircle
 10
-3.614045489288451
 20
2.004757539367811
 30
0.0
 40
0.0821454866301448
100
AcDbArc
 50
302.607921015195
 51
327.0773280975502
  0
ARC
  5
2AB
330
2
100
AcDbEntity
  8
0
100
AcDbCircle
 10
-3.644303400601501
 20
2.02434924836408
 30
0.0
 40
0.1181923486076171
100
AcDbArc
 50
327.0773280975473
 51
344.9866289979991
  0
ARC
  5
2AC
330
2
100
AcDbEntity
  8
0
100
AcDbCircle
 10
-3.692197446934834
 20
2.03719439955699
 30
0.0
 40
0.1677790160026763
100
AcDbArc
 50
344.9866289980054
 51
0.0000000000024265
  0
ARC
  5
2AD
330
2
100
AcDbEntity
  8
0
100
AcDbCircle
 10
-3.692197446934806
 20
2.037194399557004
 30
0.0
 40
0.1677790160026476
100
AcDbArc
 50
359.9999999999976
 51
15.01337100199479
  0
ARC
  5
2AE
330
2
100
AcDbEntity
  8
0
100
AcDbCircle
 10
-3.644303400601494
 20
2.05003955074991
 30
0.0
 40
0.11819234860761
100
AcDbArc
 50
15.0133710020001
 51
32.92267190245313
  0
ARC
  5
2AF
330
2
100
AcDbEntity
  8
0
100
AcDbCircle
 10
-3.614045489288458
 20
2.069631259746176
 30
0.0
 40
0.0821454866301505
100
AcDbArc
 50
32.92267190244719
 51
57.39207898480085
  0
ARC
  5
2B0
330
2
100
AcDbEntity
  8
0
100
AcDbCircle
 10
-3.595002984996675
 20
2.099398126490259
 30
0.0
 40
0.0468087730667376
100
AcDbArc
 50
57.3920789847983
 51
89.99999999999132
  0
ARC
  5
2B1
330
2
100
AcDbEntity
  8
0
100
AcDbCircle
 10
-3.595002984996675
 20
1.989560150180077
 30
0.0
 40
0.0320532506230862
100
AcDbArc
 50
270.0000000000127
 51
303.5108229556844
  0
ARC
  5
2B2
330
2
100
AcDbEntity
  8
0
100
AcDbCircle
 10
-3.610078003560453
 20
2.012326673794709
 30
0.0
 40
0.0593583926698498
100
AcDbArc
 50
303.5108229556669
 51
327.9718933333899
  0
ARC
  5
2B3
330
2
100
AcDbEntity
  8
0
100
AcDbCircle
 10
-3.634081429084141
 20
2.02734205641651
 30
0.0
 40
0.0876713959042334
100
AcDbArc
 50
327.9718933333754
 51
345.4734521831862
  0
ARC
  5
2B4
330
2
100
AcDbEntity
  8
0
100
AcDbCircle
 10
-3.672104924260275
 20
2.037194399556968
 30
0.0
 40
0.126950586969819
100
AcDbArc
 50
345.4734521832155
 51
0.0000000000128274
  0
ARC
  5
2B5
330
2
100
AcDbEntity
  8
0
100
AcDbCircle
 10
-3.672104924260246
 20
2.037194399557018
 30
0.0
 40
0.1269505869697909
100
AcDbArc
 50
359.9999999999904
 51
14.52654781678768
  0
ARC
  5
2B6
330
2
100
AcDbEntity
  8
0
100
AcDbCircle
 10
-3.634081429084134
 20
2.04704674269748
 30
0.0
 40
0.0876713959042252
100
AcDbArc
 50
14.52654781681278
 51
32.02810666662511
  0
ARC
  5
2B7
330
2
100
AcDbEntity
  8
0
100
AcDbCircle
 10
-3.610078003560453
 20
2.062062125319278
 30
0.0
 40
0.0593583926698482
100
AcDbArc
 50
32.02810666661014
 51
56.48917704433315
  0
ARC
  5
2B8
330
2
100
AcDbEntity
  8
0
100
AcDbCircle
 10
-3.595002984996675
 20
2.084828648933906
 30
0.0
 40
0.0320532506230915
100
AcDbArc
 50
56.48917704431916
 51
89.99999999998731
  0
ARC
  5
2B9
330
2
100
AcDbEntity
  8
0
100
AcDbCircle
 10
-3.602371597187165
 20
3.224990672623727
 30
0.0
 40
0.0468087730667364
100
AcDbArc
 50
270.0000000000087
 51
302.6079210152017
  0
ARC
  5
2BA
330
2
100
AcDbEntity
  8
0
100
AcDbCircle
 10
-3.621414101478941
 20
3.254757539367811
 30
0.0
 40
0.0821454866301448
100
AcDbArc
 50
302.607921015195
 51
327.0773280975502
  0
ARC
  5
2BB
330
2
100
AcDbEntity
  8
0
100
AcDbCircle
 10
-3.651672012791991
 20
3.27434924836408
 30
0.0
 40
0.1181923486076171
100
AcDbArc
 50
327.0773280975473
 51
344.9866289979991
  0
ARC
  5
2BC
330
2
100
AcDbEntity
  8
0
100
AcDbCircle
 10
-3.699566059125324
 20
3.28719439955699
 30
0.0
 40
0.1677790160026763
100
AcDbArc
 50
344.9866289980054
 51
0.0000000000024265
  0
ARC
  5
2BD
330
2
100
AcDbEntity
  8
0
100
AcDbCircle
 10
-3.699566059125296
 20
3.287194399557004
 30
0.0
 40
0.1677790160026476
100
AcDbArc
 50
359.9999999999976
 51
15.01337100199479
  0
ARC
  5
2BE
330
2
100
AcDbEntity
  8
0
100
AcDbCircle
 10
-3.651672012791984
 20
3.30003955074991
 30
0.0
 40
0.11819234860761
100
AcDbArc
 50
15.0133710020001
 51
32.92267190245313
  0
ARC
  5
2BF
330
2
100
AcDbEntity
  8
0
100
AcDbCircle
 10
-3.621414101478948
 20
3.319631259746176
 30
0.0
 40
0.0821454866301505
100
AcDbArc
 50
32.92267190244719
 51
57.39207898480085
  0
ARC
  5
2C0
330
2
100
AcDbEntity
  8
0
100
AcDbCircle
 10
-3.602371597187165
 20
3.349398126490259
 30
0.0
 40
0.0468087730667376
100
AcDbArc
 50
57.3920789847983
 51
89.99999999999132
  0
ARC
  5
2C1
330
2
100
AcDbEntity
  8
0
100
AcDbCircle
 10
-3.602371597187165
 20
3.239560150180077
 30
0.0
 40
0.0320532506230862
100
AcDbArc
 50
270.0000000000127
 51
303.5108229556844
  0
ARC
  5
2C2
330
2
100
AcDbEntity
  8
0
100
AcDbCircle
 10
-3.617446615750943
 20
3.262326673794709
 30
0.0
 40
0.0593583926698498
100
AcDbArc
 50
303.5108229556669
 51
327.9718933333899
  0
ARC
  5
2C3
330
2
100
AcDbEntity
  8
0
100
AcDbCircle
 10
-3.641450041274631
 20
3.27734205641651
 30
0.0
 40
0.0876713959042334
100
AcDbArc
 50
327.9718933333754
 51
345.4734521831862
  0
ARC
  5
2C4
330
2
100
AcDbEntity
  8
0
100
AcDbCircle
 10
-3.679473536450765
 20
3.287194399556968
 30
0.0
 40
0.126950586969819
100
AcDbArc
 50
345.4734521832155
 51
0.0000000000128274
  0
ARC
  5
2C5
330
2
100
AcDbEntity
  8
0
100
AcDbCircle
 10
-3.679473536450736
 20
3.287194399557018
 30
0.0
 40
0.1269505869697909
100
AcDbArc
 50
359.9999999999904
 51
14.52654781678768
  0
ARC
  5
2C6
330
2
100
AcDbEntity
  8
0
100
AcDbCircle
 10
-3.641450041274624
 20
3.29704674269748
 30
0.0
 40
0.0876713959042252
100
AcDbArc
 50
14.52654781681278
 51
32.02810666662511
  0
ARC
  5
2C7
330
2
100
AcDbEntity
  8
0
100
AcDbCircle
 10
-3.617446615750943
 20
3.312062125319278
 30
0.0
 40
0.0593583926698482
100
AcDbArc
 50
32.02810666661014
 51
56.48917704433315
  0
ARC
  5
2C8
330
2
100
AcDbEntity
  8
0
100
AcDbCircle
 10
-3.602371597187165
 20
3.334828648933906
 30
0.0
 40
0.0320532506230915
100
AcDbArc
 50
56.48917704431916
 51
89.99999999998731
  0
ARC
  5
2C9
330
2
100
AcDbEntity
  8
0
100
AcDbCircle
 10
-3.595002984996675
 20
5.67435111999381
 30
0.0
 40
0.0468087730667364
100
AcDbArc
 50
270.0000000000087
 51
302.6079210152017
  0
ARC
  5
2CA
330
2
100
AcDbEntity
  8
0
100
AcDbCircle
 10
-3.614045489288451
 20
5.704117986737893
 30
0.0
 40
0.0821454866301448
100
AcDbArc
 50
302.607921015195
 51
327.0773280975502
  0
ARC
  5
2CB
330
2
100
AcDbEntity
  8
0
100
AcDbCircle
 10
-3.644303400601501
 20
5.723709695734163
 30
0.0
 40
0.1181923486076171
100
AcDbArc
 50
327.0773280975473
 51
344.9866289979991
  0
ARC
  5
2CC
330
2
100
AcDbEntity
  8
0
100
AcDbCircle
 10
-3.692197446934834
 20
5.736554846927072
 30
0.0
 40
0.1677790160026763
100
AcDbArc
 50
344.9866289980054
 51
0.0000000000024265
  0
ARC
  5
2CD
330
2
100
AcDbEntity
  8
0
100
AcDbCircle
 10
-3.692197446934806
 20
5.736554846927087
 30
0.0
 40
0.1677790160026476
100
AcDbArc
 50
359.9999999999976
 51
15.01337100199479
  0
ARC
  5
2CE
330
2
100
AcDbEntity
  8
0
100
AcDbCircle
 10
-3.644303400601494
 20
5.749399998119992
 30
0.0
 40
0.11819234860761
100
AcDbArc
 50
15.0133710020001
 51
32.92267190245313
  0
ARC
  5
2CF
330
2
100
AcDbEntity
  8
0
100
AcDbCircle
 10
-3.614045489288458
 20
5.768991707116259
 30
0.0
 40
0.0821454866301505
100
AcDbArc
 50
32.92267190244719
 51
57.39207898480085
  0
ARC
  5
2D0
330
2
100
AcDbEntity
  8
0
100
AcDbCircle
 10
-3.595002984996675
 20
5.798758573860342
 30
0.0
 40
0.0468087730667376
100
AcDbArc
 50
57.3920789847983
 51
89.99999999999132
  0
ARC
  5
2D1
330
2
100
AcDbEntity
  8
0
100
AcDbCircle
 10
-3.595002984996675
 20
5.68892059755016
 30
0.0
 40
0.0320532506230862
100
AcDbArc
 50
270.0000000000127
 51
303.5108229556844
  0
ARC
  5
2D2
330
2
100
AcDbEntity
  8
0
100
AcDbCircle
 10
-3.610078003560453
 20
5.711687121164792
 30
0.0
 40
0.0593583926698498
100
AcDbArc
 50
303.5108229556669
 51
327.9718933333899
  0
ARC
  5
2D3
330
2
100
AcDbEntity
  8
0
100
AcDbCircle
 10
-3.634081429084141
 20
5.726702503786592
 30
0.0
 40
0.0876713959042334
100
AcDbArc
 50
327.9718933333754
 51
345.4734521831862
  0
ARC
  5
2D4
330
2
100
AcDbEntity
  8
0
100
AcDbCircle
 10
-3.672104924260275
 20
5.736554846927051
 30
0.0
 40
0.126950586969819
100
AcDbArc
 50
345.4734521832155
 51
0.0000000000128274
  0
ARC
  5
2D5
330
2
100
AcDbEntity
  8
0
100
AcDbCircle
 10
-3.672104924260246
 20
5.736554846927101
 30
0.0
 40
0.1269505869697909
100
AcDbArc
 50
359.9999999999904
 51
14.52654781678768
  0
ARC
  5
2D6
330
2
100
AcDbEntity
  8
0
100
AcDbCircle
 10
-3.634081429084134
 20
5.746407190067563
 30
0.0
 40
0.0876713959042252
100
AcDbArc
 50
14.52654781681278
 51
32.02810666662511
  0
ARC
  5
2D7
330
2
100
AcDbEntity
  8
0
100
AcDbCircle
 10
-3.610078003560453
 20
5.76142257268936
 30
0.0
 40
0.0593583926698482
100
AcDbArc
 50
32.02810666661014
 51
56.48917704433315
  0
ARC
  5
2D8
330
2
100
AcDbEntity
  8
0
100
AcDbCircle
 10
-3.595002984996675
 20
5.784189096303988
 30
0.0
 40
0.0320532506230915
100
AcDbArc
 50
56.48917704431916
 51
89.99999999998731
  0
ARC
  5
2D9
330
2
100
AcDbEntity
  8
0
100
AcDbCircle
 10
-3.595002984996675
 20
7.544291794425186
 30
0.0
 40
0.0468087730667364
100
AcDbArc
 50
270.0000000000087
 51
302.6079210152017
  0
ARC
  5
2DA
330
2
100
AcDbEntity
  8
0
100
AcDbCircle
 10
-3.614045489288451
 20
7.57405866116927
 30
0.0
 40
0.0821454866301448
100
AcDbArc
 50
302.607921015195
 51
327.0773280975502
  0
ARC
  5
2DB
330
2
100
AcDbEntity
  8
0
100
AcDbCircle
 10
-3.644303400601501
 20
7.593650370165539
 30
0.0
 40
0.1181923486076171
100
AcDbArc
 50
327.0773280975473
 51
344.9866289979991
  0
ARC
  5
2DC
330
2
100
AcDbEntity
  8
0
100
AcDbCircle
 10
-3.692197446934834
 20
7.606495521358449
 30
0.0
 40
0.1677790160026763
100
AcDbArc
 50
344.9866289980054
 51
0.0000000000024265
  0
ARC
  5
2DD
330
2
100
AcDbEntity
  8
0
100
AcDbCircle
 10
-3.692197446934806
 20
7.606495521358463
 30
0.0
 40
0.1677790160026476
100
AcDbArc
 50
359.9999999999976
 51
15.01337100199479
  0
ARC
  5
2DE
330
2
100
AcDbEntity
  8
0
100
AcDbCircle
 10
-3.644303400601494
 20
7.619340672551369
 30
0.0
 40
0.11819234860761
100
AcDbArc
 50
15.0133710020001
 51
32.92267190245313
  0
ARC
  5
2DF
330
2
100
AcDbEntity
  8
0
100
AcDbCircle
 10
-3.614045489288458
 20
7.638932381547635
 30
0.0
 40
0.0821454866301505
100
AcDbArc
 50
32.92267190244719
 51
57.39207898480085
  0
ARC
  5
2E0
330
2
100
AcDbEntity
  8
0
100
AcDbCircle
 10
-3.595002984996675
 20
7.668699248291718
 30
0.0
 40
0.0468087730667376
100
AcDbArc
 50
57.3920789847983
 51
89.99999999999132
  0
ARC
  5
2E1
330
2
100
AcDbEntity
  8
0
100
AcDbCircle
 10
-3.595002984996675
 20
7.558861271981536
 30
0.0
 40
0.0320532506230862
100
AcDbArc
 50
270.0000000000127
 51
303.5108229556844
  0
ARC
  5
2E2
330
2
100
AcDbEntity
  8
0
100
AcDbCircle
 10
-3.610078003560453
 20
7.581627795596168
 30
0.0
 40
0.0593583926698498
100
AcDbArc
 50
303.5108229556669
 51
327.9718933333899
  0
ARC
  5
2E3
330
2
100
AcDbEntity
  8
0
100
AcDbCircle
 10
-3.634081429084141
 20
7.596643178217969
 30
0.0
 40
0.0876713959042334
100
AcDbArc
 50
327.9718933333754
 51
345.4734521831862
  0
ARC
  5
2E4
330
2
100
AcDbEntity
  8
0
100
AcDbCircle
 10
-3.672104924260275
 20
7.606495521358427
 30
0.0
 40
0.126950586969819
100
AcDbArc
 50
345.4734521832155
 51
0.0000000000128274
  0
ARC
  5
2E5
330
2
100
AcDbEntity
  8
0
100
AcDbCircle
 10
-3.672104924260246
 20
7.606495521358477
 30
0.0
 40
0.1269505869697909
100
AcDbArc
 50
359.9999999999904
 51
14.52654781678768
  0
ARC
  5
2E6
330
2
100
AcDbEntity
  8
0
100
AcDbCircle
 10
-3.634081429084134
 20
7.616347864498939
 30
0.0
 40
0.0876713959042252
100
AcDbArc
 50
14.52654781681278
 51
32.02810666662511
  0
ARC
  5
2E7
330
2
100
AcDbEntity
  8
0
100
AcDbCircle
 10
-3.610078003560453
 20
7.631363247120737
 30
0.0
 40
0.0593583926698482
100
AcDbArc
 50
32.02810666661014
 51
56.48917704433315
  0
ARC
  5
2E8
330
2
100
AcDbEntity
  8
0
100
AcDbCircle
 10
-3.595002984996675
 20
7.654129770735365
 30
0.0
 40
0.0320532506230915
100
AcDbArc
 50
56.48917704431916
 51
89.99999999998731
  0
ARC
  5
2ED
330
2
100
AcDbEntity
  8
0
100
AcDbCircle
 10
-3.595002984996683
 20
0.5042493976020079
 30
0.0
 40
0.2864983002371661
100
AcDbArc
 50
270.0000000000028
 51
286.0310365777448
  0
ARC
  5
2EE
330
2
100
AcDbEntity
  8
0
100
AcDbCircle
 10
-3.57406100091012
 20
0.43136504966491
 30
0.0
 40
0.2106649640867781
100
AcDbArc
 50
286.0310365777373
 51
304.7482755454287
  0
ARC
  5
2EF
330
2
100
AcDbEntity
  8
0
100
AcDbCircle
 10
-3.542064744140447
 20
0.3852396719608588
 30
0.0
 40
0.1545284259354788
100
AcDbArc
 50
304.7482755454358
 51
329.1575290112899
  0
ARC
  5
2F0
330
2
100
AcDbEntity
  8
0
100
AcDbCircle
 10
-3.493245675250662
 20
0.3560885973648471
 30
0.0
 40
0.0976681881821229
100
AcDbArc
 50
329.1575290112831
 51
359.9999999999961
  0
ARC
  5
2F1
330
2
100
AcDbEntity
  8
0
100
AcDbCircle
 10
-3.493245675250677
 20
0.3560885973648365
 30
0.0
 40
0.0976681881821371
100
AcDbArc
 50
0.0000000000018236
 51
30.84247098871446
  0
ARC
  5
2F2
330
2
100
AcDbEntity
  8
0
100
AcDbCircle
 10
-3.542064744140433
 20
0.3269375227688247
 30
0.0
 40
0.1545284259354655
100
AcDbArc
 50
30.84247098871466
 51
55.25172445456889
  0
ARC
  5
2F3
330
2
100
AcDbEntity
  8
0
100
AcDbCircle
 10
-3.574061000910149
 20
0.2808121450647718
 30
0.0
 40
0.2106649640867901
100
AcDbArc
 50
55.25172445456533
 51
73.96896342225658
  0
ARC
  5
2F4
330
2
100
AcDbEntity
  8
0
100
AcDbCircle
 10
-3.595002984996683
 20
0.207927797127681
 30
0.0
 40
0.2864983002371645
100
AcDbArc
 50
73.96896342225521
 51
89.99999999999716
  0
ARC
  5
2F5
330
2
100
AcDbEntity
  8
0
100
AcDbCircle
 10
-3.595002984996683
 20
2.185355199794158
 30
0.0
 40
0.2864983002371662
100
AcDbArc
 50
270.0000000000028
 51
286.0310365777447
  0
ARC
  5
2F6
330
2
100
AcDbEntity
  8
0
100
AcDbCircle
 10
-3.57406100091012
 20
2.11247085185706
 30
0.0
 40
0.2106649640867779
100
AcDbArc
 50
286.0310365777373
 51
304.7482755454288
  0
ARC
  5
2F7
330
2
100
AcDbEntity
  8
0
100
AcDbCircle
 10
-3.542064744140447
 20
2.066345474153009
 30
0.0
 40
0.1545284259354786
100
AcDbArc
 50
304.7482755454359
 51
329.15752901129
  0
ARC
  5
2F8
330
2
100
AcDbEntity
  8
0
100
AcDbCircle
 10
-3.493245675250662
 20
2.037194399556997
 30
0.0
 40
0.097668188182123
100
AcDbArc
 50
329.157529011283
 51
359.9999999999961
  0
ARC
  5
2F9
330
2
100
AcDbEntity
  8
0
100
AcDbCircle
 10
-3.493245675250677
 20
2.037194399556986
 30
0.0
 40
0.0976681881821371
100
AcDbArc
 50
0.0000000000018236
 51
30.84247098871446
  0
ARC
  5
2FA
330
2
100
AcDbEntity
  8
0
100
AcDbCircle
 10
-3.542064744140433
 20
2.008043324960974
 30
0.0
 40
0.1545284259354655
100
AcDbArc
 50
30.84247098871466
 51
55.25172445456889
  0
ARC
  5
2FB
330
2
100
AcDbEntity
  8
0
100
AcDbCircle
 10
-3.574061000910149
 20
1.961917947256922
 30
0.0
 40
0.21066496408679
100
AcDbArc
 50
55.25172445456531
 51
73.96896342225658
  0
ARC
  5
2FC
330
2
100
AcDbEntity
  8
0
100
AcDbCircle
 10
-3.595002984996683
 20
1.889033599319831
 30
0.0
 40
0.2864983002371644
100
AcDbArc
 50
73.96896342225521
 51
89.99999999999716
  0
ARC
  5
2FD
330
2
100
AcDbEntity
  8
0
100
AcDbCircle
 10
-3.602371597187172
 20
3.435355199794158
 30
0.0
 40
0.2864983002371662
100
AcDbArc
 50
270.0000000000028
 51
286.0310365777447
  0
ARC
  5
2FE
330
2
100
AcDbEntity
  8
0
100
AcDbCircle
 10
-3.58142961310061
 20
3.36247085185706
 30
0.0
 40
0.2106649640867783
100
AcDbArc
 50
286.0310365777373
 51
304.7482755454287
  0
ARC
  5
2FF
330
2
100
AcDbEntity
  8
0
100
AcDbCircle
 10
-3.549433356330937
 20
3.316345474153009
 30
0.0
 40
0.1545284259354786
100
AcDbArc
 50
304.7482755454359
 51
329.15752901129
  0
ARC
  5
300
330
2
100
AcDbEntity
  8
0
100
AcDbCircle
 10
-3.500614287441152
 20
3.287194399556997
 30
0.0
 40
0.097668188182123
100
AcDbArc
 50
329.157529011283
 51
359.9999999999961
  0
ARC
  5
301
330
2
100
AcDbEntity
  8
0
100
AcDbCircle
 10
-3.500614287441167
 20
3.287194399556986
 30
0.0
 40
0.0976681881821371
100
AcDbArc
 50
0.0000000000018236
 51
30.84247098871446
  0
ARC
  5
302
330
2
100
AcDbEntity
  8
0
100
AcDbCircle
 10
-3.549433356330923
 20
3.258043324960974
 30
0.0
 40
0.1545284259354655
100
AcDbArc
 50
30.84247098871466
 51
55.25172445456889
  0
ARC
  5
303
330
2
100
AcDbEntity
  8
0
100
AcDbCircle
 10
-3.581429613100639
 20
3.211917947256922
 30
0.0
 40
0.21066496408679
100
AcDbArc
 50
55.25172445456531
 51
73.96896342225658
  0
ARC
  5
304
330
2
100
AcDbEntity
  8
0
100
AcDbCircle
 10
-3.602371597187172
 20
3.139033599319831
 30
0.0
 40
0.2864983002371644
100
AcDbArc
 50
73.96896342225521
 51
89.99999999999716
  0
ARC
  5
305
330
2
100
AcDbEntity
  8
0
100
AcDbCircle
 10
-3.595002984996683
 20
5.88471564716424
 30
0.0
 40
0.2864983002371666
100
AcDbArc
 50
270.0000000000028
 51
286.0310365777447
  0
ARC
  5
306
330
2
100
AcDbEntity
  8
0
100
AcDbCircle
 10
-3.57406100091012
 20
5.811831299227142
 30
0.0
 40
0.2106649640867779
100
AcDbArc
 50
286.0310365777373
 51
304.7482755454288
  0
ARC
  5
307
330
2
100
AcDbEntity
  8
0
100
AcDbCircle
 10
-3.542064744140447
 20
5.765705921523091
 30
0.0
 40
0.1545284259354786
100
AcDbArc
 50
304.7482755454359
 51
329.15752901129
  0
ARC
  5
308
330
2
100
AcDbEntity
  8
0
100
AcDbCircle
 10
-3.493245675250662
 20
5.73655484692708
 30
0.0
 40
0.0976681881821232
100
AcDbArc
 50
329.1575290112829
 51
359.9999999999959
  0
ARC
  5
309
330
2
100
AcDbEntity
  8
0
100
AcDbCircle
 10
-3.493245675250677
 20
5.736554846927069
 30
0.0
 40
0.0976681881821371
100
AcDbArc
 50
0.0000000000020842
 51
30.84247098871468
  0
ARC
  5
30A
330
2
100
AcDbEntity
  8
0
100
AcDbCircle
 10
-3.542064744140433
 20
5.707403772331057
 30
0.0
 40
0.1545284259354653
100
AcDbArc
 50
30.84247098871452
 51
55.25172445456879
  0
ARC
  5
30B
330
2
100
AcDbEntity
  8
0
100
AcDbCircle
 10
-3.574061000910149
 20
5.661278394627004
 30
0.0
 40
0.2106649640867903
100
AcDbArc
 50
55.25172445456538
 51
73.96896342225661
  0
ARC
  5
30C
330
2
100
AcDbEntity
  8
0
100
AcDbCircle
 10
-3.595002984996683
 20
5.588394046689913
 30
0.0
 40
0.2864983002371644
100
AcDbArc
 50
73.96896342225521
 51
89.99999999999716
  0
ARC
  5
30D
330
2
100
AcDbEntity
  8
0
100
AcDbCircle
 10
-3.595002984996683
 20
7.754656321595617
 30
0.0
 40
0.2864983002371666
100
AcDbArc
 50
270.0000000000028
 51
286.0310365777447
  0
ARC
  5
30E
330
2
100
AcDbEntity
  8
0
100
AcDbCircle
 10
-3.57406100091012
 20
7.681771973658519
 30
0.0
 40
0.2106649640867779
100
AcDbArc
 50
286.0310365777373
 51
304.7482755454288
  0
ARC
  5
30F
330
2
100
AcDbEntity
  8
0
100
AcDbCircle
 10
-3.542064744140447
 20
7.635646595954468
 30
0.0
 40
0.1545284259354786
100
AcDbArc
 50
304.7482755454359
 51
329.15752901129
  0
ARC
  5
310
330
2
100
AcDbEntity
  8
0
100
AcDbCircle
 10
-3.493245675250662
 20
7.606495521358456
 30
0.0
 40
0.0976681881821232
100
AcDbArc
 50
329.1575290112829
 51
359.9999999999959
  0
ARC
  5
311
330
2
100
AcDbEntity
  8
0
100
AcDbCircle
 10
-3.493245675250677
 20
7.606495521358445
 30
0.0
 40
0.0976681881821371
100
AcDbArc
 50
0.0000000000020842
 51
30.84247098871468
  0
ARC
  5
312
330
2
100
AcDbEntity
  8
0
100
AcDbCircle
 10
-3.542064744140433
 20
7.577344446762433
 30
0.0
 40
0.1545284259354653
100
AcDbArc
 50
30.84247098871452
 51
55.25172445456879
  0
ARC
  5
313
330
2
100
AcDbEntity
  8
0
100
AcDbCircle
 10
-3.574061000910149
 20
7.531219069058381
 30
0.0
 40
0.2106649640867903
100
AcDbArc
 50
55.25172445456538
 51
73.96896342225661
  0
ARC
  5
314
330
2
100
AcDbEntity
  8
0
100
AcDbCircle
 10
-3.595002984996683
 20
7.45833472112129
 30
0.0
 40
0.2864983002371644
100
AcDbArc
 50
73.96896342225521
 51
89.99999999999716
  0
LINE
  5
3CA
330
2
100
AcDbEntity
  8
0
  6
HIDDEN
100
AcDbLine
 10
-5.622449611311604
 20
-0.0000000000000018
 30
0.0
 11
-2.622449611311604
 21
-0.0000000000000018
 31
0.0
  0
ENDSEC
  0
SECTION
  2
OBJECTS
  0
DICTIONARY
  5
9
330
0
100
AcDbDictionary
281
     1
  3
ACAD_COLOR
350
3C0
  3
ACAD_GROUP
350
23
  3
ACAD_LAYOUT
350
D
  3
ACAD_MATERIAL
350
3BF
  3
ACAD_MLINESTYLE
350
24
  3
ACAD_PLOTSETTINGS
350
25
  3
ACAD_PLOTSTYLENAME
350
8
  3
ACAD_TABLESTYLE
350
3C1
  3
ACDBHEADERROUNDTRIPXREC
350
3E4
  3
AcDbVariableDictionary
350
114
  0
DICTIONARY
  5
3C0
102
{ACAD_REACTORS
330
9
102
}
330
9
100
AcDbDictionary
281
     1
  0
DICTIONARY
  5
23
102
{ACAD_REACTORS
330
9
102
}
330
9
100
AcDbDictionary
281
     1
  0
DICTIONARY
  5
D
102
{ACAD_REACTORS
330
9
102
}
330
9
100
AcDbDictionary
281
     1
  3
Layout1
350
13
  3
Model
350
C
  0
DICTIONARY
  5
3BF
102
{ACAD_REACTORS
330
9
102
}
330
9
100
AcDbDictionary
281
     1
  0
DICTIONARY
  5
24
102
{ACAD_REACTORS
330
9
102
}
330
9
100
AcDbDictionary
281
     1
  3
STANDARD
350
27
  0
DICTIONARY
  5
25
102
{ACAD_REACTORS
330
9
102
}
330
9
100
AcDbDictionary
281
     1
  0
ACDBDICTIONARYWDFLT
  5
8
102
{ACAD_REACTORS
330
9
102
}
330
9
100
AcDbDictionary
281
     1
  3
Normal
350
7
100
AcDbDictionaryWithDefault
340
7
  0
DICTIONARY
  5
3C1
102
{ACAD_REACTORS
330
9
102
}
330
9
100
AcDbDictionary
281
     1
  3
Standard
350
3C2
  0
DICTIONARY
  5
3E4
102
{ACAD_REACTORS
330
9
102
}
330
9
100
AcDbDictionary
281
     1
  3
COLORDICT
350
3E5
  3
MATERIALDICT
350
3E6
  0
DICTIONARY
  5
114
102
{ACAD_REACTORS
330
9
102
}
330
9
100
AcDbDictionary
281
     1
  3
CTABLESTYLE
350
3D1
  3
HIDETEXT
350
3E3
  0
LAYOUT
  5
13
102
{ACAD_REACTORS
330
D
102
}
102
{ACAD_XDICTIONARY
360
3E7
102
}
330
D
100
AcDbPlotSettings
  1

  2
C:\ACAD2000\plotters\HP LaserJet 2100 Series PS.pc3
  4

  6

 40
0.0
 41
0.0
 42
0.0
 43
0.0
 44
0.0
 45
0.0
 46
0.0
 47
0.0
 48
0.0
 49
0.0
140
0.0
141
0.0
142
1.0
143
1.0
 70
   688
 72
     0
 73
     0
 74
     5
  7

 75
    16
147
1.0
148
0.0
149
0.0
100
AcDbLayout
  1
Layout1
 70
     0
 71
     1
 10
0.0
 20
0.0
 11
12.0
 21
9.0
 12
0.0
 22
0.0
 32
0.0
 14
1.000000000000000E+20
 24
1.000000000000000E+20
 34
1.000000000000000E+20
 15
-1.000000000000000E+20
 25
-1.000000000000000E+20
 35
-1.000000000000000E+20
146
0.0
 13
0.0
 23
0.0
 33
0.0
 16
1.0
 26
0.0
 36
0.0
 17
0.0
 27
1.0
 37
0.0
 76
     0
330
E
  0
LAYOUT
  5
C
102
{ACAD_REACTORS
330
D
102
}
102
{ACAD_XDICTIONARY
360
3E9
102
}
330
D
100
AcDbPlotSettings
  1

  2
HP LaserJet 2100 Series PS
  4
Letter
  6

 40
5.365749835968018
 41
5.408073902130127
 42
5.132904052734375
 43
5.090576171875
 44
215.8999938964844
 45
279.3999938964844
 46
0.0
 47
0.0
 48
0.0
 49
0.0
140
0.0
141
0.0
142
1.0
143
5.193734373688032
 70
 28336
 72
     0
 73
     1
 74
     2
  7

 75
     0
147
0.1925396887961961
148
0.0
149
0.0
100
AcDbLayout
  1
Model
 70
     1
 71
     0
 10
0.0
 20
0.0
 11
12.0
 21
9.0
 12
0.0
 22
0.0
 32
0.0
 14
0.0
 24
0.0
 34
0.0
 15
0.0
 25
0.0
 35
0.0
146
0.0
 13
0.0
 23
0.0
 33
0.0
 16
1.0
 26
0.0
 36
0.0
 17
0.0
 27
1.0
 37
0.0
 76
     0
330
2
  0
MLINESTYLE
  5
27
102
{ACAD_REACTORS
330
24
102
}
330
24
100
AcDbMlineStyle
  2
STANDARD
 70
     0
  3

 62
   256
 51
90.0
 52
90.0
 71
     2
 49
0.5
 62
   256
  6
BYLAYER
 49
-0.5
 62
   256
  6
BYLAYER
  0
ACDBPLACEHOLDER
  5
7
102
{ACAD_REACTORS
330
8
102
}
330
8
  0
ACAD_PROXY_OBJECT
  5
3C2
102
{ACAD_REACTORS
330
3C1
102
}
330
3C1
100
AcDbProxyObject
 90
      499
 91
      533
 95
   983063
 70
     0
 93
     1841
310
4214DD185B99185C9928B81E85EB51B8AE3F2E07A17AD46E2B8FC02B5E8DC0F42B1CFD028000000C1008070000C3001FDFF8000000C1003FBFF000000182007F7FE00000030400FEFFC00000060801FDFF8000000C1003FBFF00000018200000000000000681FA0B0000001820100E000186003FBFF000000182007F7FE000
310
00030400FEFFC00000060801FDFF8000000C1003FBFF000000182007F7FE000000304000AD7A3703D0AC73F4160000003040201C00030C007F7FE00000030400FEFFC00000060801FDFF8000000C1003FBFF000000182007F7FE00000030400FEFFC000000608000
340
16
340
16
340
16
 94
        0
  0
XRECORD
  5
3E5
102
{ACAD_REACTORS
330
3E4
102
}
330
3E4
100
AcDbXrecord
340
3C0
  0
XRECORD
  5
3E6
102
{ACAD_REACTORS
330
3E4
102
}
330
3E4
100
AcDbXrecord
340
3BF
  0
DICTIONARYVAR
  5
3D1
102
{ACAD_REACTORS
330
114
102
}
330
114
100
DictionaryVariables
280
     0
  1
STANDARD
  0
DICTIONARYVAR
  5
3E3
102
{ACAD_REACTORS
330
114
102
}
330
114
100
DictionaryVariables
280
     0
  1
0
  0
DICTIONARY
  5
3E7
330
13
100
AcDbDictionary
280
     1
281
     1
  3
ACAD_XREC_ROUNDTRIP
360
3E8
  0
DICTIONARY
  5
3E9
330
C
100
AcDbDictionary
280
     1
281
     1
  3
ACAD_XREC_ROUNDTRIP
360
3EA
  0
XRECORD
  5
3E8
102
{ACAD_REACTORS
330
3E7
102
}
330
3E7
100
AcDbXrecord
102
SHADEPLOT
 70
     0
102
SHADEPLOTRESLEVEL
 70
     2
102
SHADEPLOTCUSTOMDPI
 70
   300
  0
XRECORD
  5
3EA
102
{ACAD_REACTORS
330
3E9
102
}
330
3E9
100
AcDbXrecord
102
SHADEPLOT
 70
     0
102
SHADEPLOTRESLEVEL
 70
     2
102
SHADEPLOTCUSTOMDPI
 70
   300
  0
ENDSEC
  0
EOF
