  0
SECTION
  2
HEADER
  9
$ACADVER
  1
AC1015
  9
$ACADMAINTVER
 70
     6
  9
$DWGCODEPAGE
  3
ANSI_1252
  9
$INSBASE
 10
0.0
 20
0.0
 30
0.0
  9
$EXTMIN
 10
-22.44607209510214
 20
0.6948242940646878
 30
-0.0000000000000058
  9
$EXTMAX
 10
0.7290490594630796
 20
15.83154302443325
 30
0.0000000000000104
  9
$LIMMIN
 10
0.0
 20
0.0
  9
$LIMMAX
 10
42.0
 20
32.0
  9
$ORTHOMODE
 70
     1
  9
$REGENMODE
 70
     1
  9
$FILLMODE
 70
     1
  9
$QTEXTMODE
 70
     0
  9
$MIRRTEXT
 70
     1
  9
$LTSCALE
 40
0.5
  9
$ATTMODE
 70
     1
  9
$TEXTSIZE
 40
0.36
  9
$TRACEWID
 40
0.05
  9
$TEXTSTYLE
  7
STANDARD
  9
$CLAYER
  8
0
  9
$CELTYPE
  6
BYLAYER
  9
$CECOLOR
 62
   256
  9
$CELTSCALE
 40
1.0
  9
$DISPSILH
 70
     0
  9
$DIMSCALE
 40
4.0
  9
$DIMASZ
 40
0.125
  9
$DIMEXO
 40
0.062
  9
$DIMDLI
 40
0.375
  9
$DIMRND
 40
0.0
  9
$DIMDLE
 40
0.0
  9
$DIMEXE
 40
0.08
  9
$DIMTP
 40
0.0
  9
$DIMTM
 40
0.0
  9
$DIMTXT
 40
0.09
  9
$DIMCEN
 40
-0.06
  9
$DIMTSZ
 40
0.0
  9
$DIMTOL
 70
     0
  9
$DIMLIM
 70
     0
  9
$DIMTIH
 70
     1
  9
$DIMTOH
 70
     1
  9
$DIMSE1
 70
     0
  9
$DIMSE2
 70
     0
  9
$DIMTAD
 70
     0
  9
$DIMZIN
 70
     0
  9
$DIMBLK
  1

  9
$DIMASO
 70
     0
  9
$DIMSHO
 70
     0
  9
$DIMPOST
  1

  9
$DIMAPOST
  1

  9
$DIMALT
 70
     0
  9
$DIMALTD
 70
     2
  9
$DIMALTF
 40
25.4
  9
$DIMLFAC
 40
1.0
  9
$DIMTOFL
 70
     0
  9
$DIMTVP
 40
0.0
  9
$DIMTIX
 70
     0
  9
$DIMSOXD
 70
     0
  9
$DIMSAH
 70
     0
  9
$DIMBLK1
  1

  9
$DIMBLK2
  1

  9
$DIMSTYLE
  2
STANDARD
  9
$DIMCLRD
 70
     0
  9
$DIMCLRE
 70
     0
  9
$DIMCLRT
 70
     0
  9
$DIMTFAC
 40
1.0
  9
$DIMGAP
 40
0.09
  9
$DIMJUST
 70
     0
  9
$DIMSD1
 70
     0
  9
$DIMSD2
 70
     0
  9
$DIMTOLJ
 70
     1
  9
$DIMTZIN
 70
     0
  9
$DIMALTZ
 70
     0
  9
$DIMALTTZ
 70
     0
  9
$DIMUPT
 70
     0
  9
$DIMDEC
 70
     5
  9
$DIMTDEC
 70
     4
  9
$DIMALTU
 70
     2
  9
$DIMALTTD
 70
     2
  9
$DIMTXSTY
  7
STANDARD
  9
$DIMAUNIT
 70
     0
  9
$DIMADEC
 70
     0
  9
$DIMALTRND
 40
0.0
  9
$DIMAZIN
 70
     0
  9
$DIMDSEP
 70
    46
  9
$DIMATFIT
 70
     3
  9
$DIMFRAC
 70
     2
  9
$DIMLDRBLK
  1

  9
$DIMLUNIT
 70
     5
  9
$DIMLWD
 70
    -2
  9
$DIMLWE
 70
    -2
  9
$DIMTMOVE
 70
     2
  9
$LUNITS
 70
     2
  9
$LUPREC
 70
     4
  9
$SKETCHINC
 40
0.1
  9
$FILLETRAD
 40
0.0
  9
$AUNITS
 70
     0
  9
$AUPREC
 70
     0
  9
$MENU
  1
acad
  9
$ELEVATION
 40
0.0
  9
$PELEVATION
 40
0.0
  9
$THICKNESS
 40
0.0
  9
$LIMCHECK
 70
     0
  9
$CHAMFERA
 40
0.0
  9
$CHAMFERB
 40
0.0
  9
$CHAMFERC
 40
0.0
  9
$CHAMFERD
 40
0.0
  9
$SKPOLY
 70
     0
  9
$TDCREATE
 40
2448880.671175926
  9
$TDUCREATE
 40
2448881.00450926
  9
$TDUPDATE
 40
2454165.987804317
  9
$TDUUPDATE
 40
2454166.32113765
  9
$TDINDWG
 40
0.2401862269
  9
$TDUSRTIMER
 40
0.2401862269
  9
$USRTIMER
 70
     1
  9
$ANGBASE
 50
0.0
  9
$ANGDIR
 70
     0
  9
$PDMODE
 70
     0
  9
$PDSIZE
 40
0.0
  9
$PLINEWID
 40
0.0
  9
$SPLFRAME
 70
     0
  9
$SPLINETYPE
 70
     6
  9
$SPLINESEGS
 70
     8
  9
$HANDSEED
  5
41E
  9
$SURFTAB1
 70
     6
  9
$SURFTAB2
 70
     6
  9
$SURFTYPE
 70
     6
  9
$SURFU
 70
     6
  9
$SURFV
 70
     6
  9
$UCSBASE
  2

  9
$UCSNAME
  2

  9
$UCSORG
 10
0.0
 20
0.0
 30
0.0
  9
$UCSXDIR
 10
1.0
 20
0.0
 30
0.0
  9
$UCSYDIR
 10
0.0
 20
1.0
 30
0.0
  9
$UCSORTHOREF
  2

  9
$UCSORTHOVIEW
 70
     0
  9
$UCSORGTOP
 10
0.0
 20
0.0
 30
0.0
  9
$UCSORGBOTTOM
 10
0.0
 20
0.0
 30
0.0
  9
$UCSORGLEFT
 10
0.0
 20
0.0
 30
0.0
  9
$UCSORGRIGHT
 10
0.0
 20
0.0
 30
0.0
  9
$UCSORGFRONT
 10
0.0
 20
0.0
 30
0.0
  9
$UCSORGBACK
 10
0.0
 20
0.0
 30
0.0
  9
$PUCSBASE
  2

  9
$PUCSNAME
  2

  9
$PUCSORG
 10
0.0
 20
0.0
 30
0.0
  9
$PUCSXDIR
 10
1.0
 20
0.0
 30
0.0
  9
$PUCSYDIR
 10
0.0
 20
1.0
 30
0.0
  9
$PUCSORTHOREF
  2

  9
$PUCSORTHOVIEW
 70
     0
  9
$PUCSORGTOP
 10
0.0
 20
0.0
 30
0.0
  9
$PUCSORGBOTTOM
 10
0.0
 20
0.0
 30
0.0
  9
$PUCSORGLEFT
 10
0.0
 20
0.0
 30
0.0
  9
$PUCSORGRIGHT
 10
0.0
 20
0.0
 30
0.0
  9
$PUCSORGFRONT
 10
0.0
 20
0.0
 30
0.0
  9
$PUCSORGBACK
 10
0.0
 20
0.0
 30
0.0
  9
$USERI1
 70
     0
  9
$USERI2
 70
     0
  9
$USERI3
 70
     0
  9
$USERI4
 70
     0
  9
$USERI5
 70
     0
  9
$USERR1
 40
0.0
  9
$USERR2
 40
0.0
  9
$USERR3
 40
0.0
  9
$USERR4
 40
0.0
  9
$USERR5
 40
0.0
  9
$WORLDVIEW
 70
     1
  9
$SHADEDGE
 70
     3
  9
$SHADEDIF
 70
    70
  9
$TILEMODE
 70
     1
  9
$MAXACTVP
 70
    16
  9
$PINSBASE
 10
0.0
 20
0.0
 30
0.0
  9
$PLIMCHECK
 70
     0
  9
$PEXTMIN
 10
1.000000000000000E+20
 20
1.000000000000000E+20
 30
1.000000000000000E+20
  9
$PEXTMAX
 10
-1.000000000000000E+20
 20
-1.000000000000000E+20
 30
-1.000000000000000E+20
  9
$PLIMMIN
 10
0.0
 20
0.0
  9
$PLIMMAX
 10
12.0
 20
9.0
  9
$UNITMODE
 70
     0
  9
$VISRETAIN
 70
     0
  9
$PLINEGEN
 70
     0
  9
$PSLTSCALE
 70
     0
  9
$TREEDEPTH
 70
  3020
  9
$CMLSTYLE
  2
STANDARD
  9
$CMLJUST
 70
     0
  9
$CMLSCALE
 40
1.0
  9
$PROXYGRAPHICS
 70
     1
  9
$MEASUREMENT
 70
     0
  9
$CELWEIGHT
370
    -1
  9
$ENDCAPS
280
     0
  9
$JOINSTYLE
280
     0
  9
$LWDISPLAY
290
     0
  9
$INSUNITS
 70
     0
  9
$HYPERLINKBASE
  1

  9
$STYLESHEET
  1

  9
$XEDIT
290
     1
  9
$CEPSNTYPE
380
     0
  9
$PSTYLEMODE
290
     1
  9
$FINGERPRINTGUID
  2
{81491989-CD26-11D5-BE3F-00508B5FCD51}
  9
$VERSIONGUID
  2
{05605A1D-0725-4842-BFC8-E316E74EA50D}
  9
$EXTNAMES
290
     1
  9
$PSVPSCALE
 40
0.0
  9
$OLESTARTUP
290
     0
  0
ENDSEC
  0
SECTION
  2
CLASSES
  0
CLASS
  1
DICTIONARYVAR
  2
AcDbDictionaryVar
  3
AutoCAD 2000
 90
        0
280
     0
281
     0
  0
CLASS
  1
LWPOLYLINE
  2
AcDbPolyline
  3
AutoCAD 2000
 90
        0
280
     0
281
     1
  0
CLASS
  1
XRECORD
  2
AcDbXrecord
  3
AutoCAD 2000
 90
        0
280
     0
281
     0
  0
CLASS
  1
ACDBDICTIONARYWDFLT
  2
AcDbDictionaryWithDefault
  3
AutoCAD 2000
 90
        0
280
     0
281
     0
  0
CLASS
  1
ACDBPLACEHOLDER
  2
AcDbPlaceHolder
  3
ObjectDBX Classes
 90
        0
280
     0
281
     0
  0
CLASS
  1
LAYOUT
  2
AcDbLayout
  3
ObjectDBX Classes
 90
        0
280
     0
281
     0
  0
CLASS
  1
LONG_TRANSACTION
  2
AcDbLongTransaction
  3
ObjectDBX Classes
 90
   -65536
280
     1
281
     0
  0
CLASS
  1
LWPOLYLINE
  2
AcDbPolyline
  3
AutoCAD 2000
 90
        0
280
     0
281
     1
  0
CLASS
  1
HATCH
  2
AcDbHatch
  3
AutoCAD 2000
 90
        0
280
     0
281
     1
  0
CLASS
  1
XRECORD
  2
AcDbXrecord
  3
AutoCAD 2000
 90
        0
280
     0
281
     0
  0
CLASS
  1
LONG_TRANSACTION
  2
AcDbLongTransaction
  3
ObjectDBX Classes
 90
   -65536
280
     1
281
     0
  0
CLASS
  1
LWPOLYLINE
  2
AcDbPolyline
  3
AutoCAD 2000
 90
        0
280
     0
281
     1
  0
CLASS
  1
HATCH
  2
AcDbHatch
  3
AutoCAD 2000
 90
        0
280
     0
281
     1
  0
CLASS
  1
XRECORD
  2
AcDbXrecord
  3
AutoCAD 2000
 90
        0
280
     0
281
     0
  0
CLASS
  1
LONG_TRANSACTION
  2
AcDbLongTransaction
  3
ObjectDBX Classes
 90
   -65536
280
     1
281
     0
  0
CLASS
  1
LWPOLYLINE
  2
AcDbPolyline
  3
AutoCAD 2000
 90
        0
280
     0
281
     1
  0
CLASS
  1
HATCH
  2
AcDbHatch
  3
AutoCAD 2000
 90
        0
280
     0
281
     1
  0
CLASS
  1
XRECORD
  2
AcDbXrecord
  3
AutoCAD 2000
 90
        0
280
     0
281
     0
  0
CLASS
  1
LONG_TRANSACTION
  2
AcDbLongTransaction
  3
ObjectDBX Classes
 90
   -65536
280
     1
281
     0
  0
CLASS
  1
LWPOLYLINE
  2
AcDbPolyline
  3
AutoCAD 2000
 90
        0
280
     0
281
     1
  0
CLASS
  1
HATCH
  2
AcDbHatch
  3
AutoCAD 2000
 90
        0
280
     0
281
     1
  0
CLASS
  1
XRECORD
  2
AcDbXrecord
  3
AutoCAD 2000
 90
        0
280
     0
281
     0
  0
CLASS
  1
LONG_TRANSACTION
  2
AcDbLongTransaction
  3
ObjectDBX Classes
 90
   -65536
280
     1
281
     0
  0
CLASS
  1
LWPOLYLINE
  2
AcDbPolyline
  3
AutoCAD 2000
 90
        0
280
     0
281
     1
  0
CLASS
  1
HATCH
  2
AcDbHatch
  3
AutoCAD 2000
 90
        0
280
     0
281
     1
  0
CLASS
  1
XRECORD
  2
AcDbXrecord
  3
AutoCAD 2000
 90
        0
280
     0
281
     0
  0
CLASS
  1
LONG_TRANSACTION
  2
AcDbLongTransaction
  3
ObjectDBX Classes
 90
   -65536
280
     1
281
     0
  0
CLASS
  1
LWPOLYLINE
  2
AcDbPolyline
  3
AutoCAD 2000
 90
        0
280
     0
281
     1
  0
CLASS
  1
HATCH
  2
AcDbHatch
  3
AutoCAD 2000
 90
        0
280
     0
281
     1
  0
CLASS
  1
XRECORD
  2
AcDbXrecord
  3
AutoCAD 2000
 90
        0
280
     0
281
     0
  0
CLASS
  1
LONG_TRANSACTION
  2
AcDbLongTransaction
  3
ObjectDBX Classes
 90
   -65536
280
     1
281
     0
  0
CLASS
  1
LWPOLYLINE
  2
AcDbPolyline
  3
AutoCAD 2000
 90
        0
280
     0
281
     1
  0
CLASS
  1
HATCH
  2
AcDbHatch
  3
AutoCAD 2000
 90
        0
280
     0
281
     1
  0
CLASS
  1
XRECORD
  2
AcDbXrecord
  3
AutoCAD 2000
 90
        0
280
     0
281
     0
  0
CLASS
  1
LONG_TRANSACTION
  2
AcDbLongTransaction
  3
ObjectDBX Classes
 90
   -65536
280
     1
281
     0
  0
CLASS
  1
LWPOLYLINE
  2
AcDbPolyline
  3
AutoCAD 2000
 90
        0
280
     0
281
     1
  0
CLASS
  1
HATCH
  2
AcDbHatch
  3
AutoCAD 2000
 90
        0
280
     0
281
     1
  0
CLASS
  1
XRECORD
  2
AcDbXrecord
  3
AutoCAD 2000
 90
        0
280
     0
281
     0
  0
CLASS
  1
TABLESTYLE
  2
AcDbTableStyle
  3
ObjectDBX Classes
 90
     2047
280
     1
281
     0
  0
ENDSEC
  0
SECTION
  2
TABLES
  0
TABLE
  2
VPORT
  5
1D
330
0
100
AcDbSymbolTable
 70
     5
  0
VPORT
  5
40E
330
1D
100
AcDbSymbolTableRecord
100
AcDbViewportTableRecord
  2
*Active
 70
     0
 10
0.0
 20
0.0
 11
1.0
 21
1.0
 12
3.519003030258645
 22
12.57302150291073
 13
0.0
 23
0.0
 14
0.063
 24
0.063
 15
0.25
 25
0.25
 16
0.0
 26
0.0
 36
1.0
 17
0.0
 27
0.0
 37
0.0
 40
35.75977654347476
 41
1.814583333333333
 42
50.0
 43
0.0
 44
0.0
 50
0.0
 51
0.0
 71
     0
 72
   100
 73
     1
 74
     1
 75
     0
 76
     0
 77
     0
 78
     0
281
     0
 65
     1
110
0.0
120
0.0
130
0.0
111
1.0
121
0.0
131
0.0
112
0.0
122
1.0
132
0.0
 79
     0
146
0.0
  0
ENDTAB
  0
TABLE
  2
LTYPE
  5
18
330
0
100
AcDbSymbolTable
 70
     3
  0
LTYPE
  5
19
330
18
100
AcDbSymbolTableRecord
100
AcDbLinetypeTableRecord
  2
BYBLOCK
 70
     0
  3

 72
    65
 73
     0
 40
0.0
  0
LTYPE
  5
1A
330
18
100
AcDbSymbolTableRecord
100
AcDbLinetypeTableRecord
  2
BYLAYER
 70
     0
  3

 72
    65
 73
     0
 40
0.0
  0
LTYPE
  5
A
330
18
100
AcDbSymbolTableRecord
100
AcDbLinetypeTableRecord
  2
CONTINUOUS
 70
     0
  3
Solid line
 72
    65
 73
     0
 40
0.0
  0
LTYPE
  5
2C0
330
18
100
AcDbSymbolTableRecord
100
AcDbLinetypeTableRecord
  2
HIDDEN
 70
     0
  3
_ _ _ _ _ _ _ _ _ _ _ _ _ _ _ _ _ _ _ _ _ _ _
 72
    65
 73
     2
 40
0.375
 49
0.25
 74
     0
 49
-0.125
 74
     0
  0
ENDTAB
  0
TABLE
  2
LAYER
  5
14
330
0
100
AcDbSymbolTable
 70
     4
  0
LAYER
  5
6
330
14
100
AcDbSymbolTableRecord
100
AcDbLayerTableRecord
  2
0
 70
     0
 62
     7
  6
CONTINUOUS
370
    -3
390
7
  0
ENDTAB
  0
TABLE
  2
STYLE
  5
15
330
0
100
AcDbSymbolTable
 70
     1
  0
STYLE
  5
16
330
15
100
AcDbSymbolTableRecord
100
AcDbTextStyleTableRecord
  2
STANDARD
 70
     0
 40
0.0
 41
1.0
 50
0.0
 71
     0
 42
0.36
  3
TXT
  4

  0
ENDTAB
  0
TABLE
  2
VIEW
  5
1B
330
0
100
AcDbSymbolTable
 70
     0
  0
ENDTAB
  0
TABLE
  2
UCS
  5
1C
330
0
100
AcDbSymbolTable
 70
     0
  0
ENDTAB
  0
TABLE
  2
APPID
  5
1F
330
0
100
AcDbSymbolTable
 70
     1
  0
APPID
  5
20
330
1F
100
AcDbSymbolTableRecord
100
AcDbRegAppTableRecord
  2
ACAD
 70
     0
  0
ENDTAB
  0
TABLE
  2
DIMSTYLE
  5
21
330
0
100
AcDbSymbolTable
 70
     1
100
AcDbDimStyleTable
  0
DIMSTYLE
105
28
330
21
100
AcDbSymbolTableRecord
100
AcDbDimStyleTableRecord
  2
STANDARD
 70
     0
  3

  4

340
16
  0
ENDTAB
  0
TABLE
  2
BLOCK_RECORD
  5
1
330
0
100
AcDbSymbolTable
 70
     0
  0
BLOCK_RECORD
  5
2
330
1
100
AcDbSymbolTableRecord
100
AcDbBlockTableRecord
  2
*MODEL_SPACE
340
C
  0
BLOCK_RECORD
  5
E
330
1
100
AcDbSymbolTableRecord
100
AcDbBlockTableRecord
  2
*PAPER_SPACE
340
13
  0
ENDTAB
  0
ENDSEC
  0
SECTION
  2
BLOCKS
  0
BLOCK
  5
5
330
2
100
AcDbEntity
  8
0
100
AcDbBlockBegin
  2
*MODEL_SPACE
 70
     0
 10
0.0
 20
0.0
 30
0.0
  3
*MODEL_SPACE
  1

  4

  0
ENDBLK
  5
B
330
2
100
AcDbEntity
  8
0
100
AcDbBlockEnd
  0
BLOCK
  5
11
330
E
100
AcDbEntity
 67
     1
  8
0
100
AcDbBlockBegin
  2
*PAPER_SPACE
 70
     0
 10
0.0
 20
0.0
 30
0.0
  3
*PAPER_SPACE
  1

  4

  0
ENDBLK
  5
12
330
E
100
AcDbEntity
 67
     1
  8
0
100
AcDbBlockEnd
  0
ENDSEC
  0
SECTION
  2
ENTITIES
  0
ARC
  5
385
330
2
100
AcDbEntity
  8
0
100
AcDbCircle
 10
-9.618514813874917
 20
6.346250039661225
 30
0.0
 40
0.15625
100
AcDbArc
 50
270.0
 51
359.9999999999999
  0
LINE
  5
386
330
2
100
AcDbEntity
  8
0
100
AcDbLine
 10
-10.83726481387492
 20
7.846250039661232
 30
0.0
 11
-10.83726481387492
 21
0.9022303545530868
 31
0.0
  0
LINE
  5
387
330
2
100
AcDbEntity
  8
0
100
AcDbLine
 10
-10.77476481387492
 20
7.846250039661232
 30
0.0
 11
-10.77476481387492
 21
0.9022303545530868
 31
0.0
  0
LINE
  5
388
330
2
100
AcDbEntity
  8
0
100
AcDbLine
 10
-9.779800483214771
 20
1.453458138756776
 30
0.0
 11
-9.779800483214771
 21
1.730133138756781
 31
0.0
  0
ARC
  5
389
330
2
100
AcDbEntity
  8
0
100
AcDbCircle
 10
-9.760757978922989
 20
1.559358778567596
 30
0.0
 40
0.0821454866301448
100
AcDbArc
 50
212.9226719024499
 51
237.392078984805
  0
LWPOLYLINE
  5
38A
330
2
100
AcDbEntity
  8
0
100
AcDbPolyline
 90
        9
 70
     0
 43
0.0
 10
-9.779800483214771
 20
1.453458138756776
 42
-0.0700628980345364
 10
-9.858919287014814
 20
1.464599414525647
 42
-0.0818514225363451
 10
-9.920815605141257
 20
1.493976254414381
 42
-0.1069100077216601
 10
-9.965413756206758
 20
1.541723167169412
 42
-0.135394011665182
 10
-9.979225981142903
 20
1.591795638756775
 42
-0.1353940116651818
 10
-9.965413756206758
 20
1.641868110344145
 42
-0.1069100077216599
 10
-9.920815605141257
 20
1.689615023099169
 42
-0.0818514225363446
 10
-9.858919287014814
 20
1.71899186298791
 42
-0.0700628980345367
 10
-9.779800483214771
 20
1.730133138756781
 42
-0.0700628980345371
  0
LINE
  5
38B
330
2
100
AcDbEntity
  8
0
100
AcDbLine
 10
-9.156859327574487
 20
2.23890077702632
 30
0.0
 11
-7.802467557025139
 21
0.9312121709786716
 31
0.0
  0
LINE
  5
38C
330
2
100
AcDbEntity
  8
0
100
AcDbLine
 10
-7.69704550006314
 20
0.7212500396612249
 30
0.0
 11
-10.69704550006311
 21
0.7212500396612249
 31
0.0
  0
ARC
  5
38D
330
2
100
AcDbEntity
  8
0
100
AcDbCircle
 10
-8.149764813874917
 20
0.5715114406699691
 30
0.0
 40
0.5
100
AcDbArc
 50
25.11757623782308
 51
46.00508600525416
  0
LINE
  5
38E
330
2
100
AcDbEntity
  8
0
100
AcDbLine
 10
-7.69704550006314
 20
0.7837500396612249
 30
0.0
 11
-7.69704550006314
 21
0.7212500396612249
 31
0.0
  0
ARC
  5
38F
330
2
100
AcDbEntity
  8
0
100
AcDbCircle
 10
-9.779800483214771
 20
1.529591911823513
 30
0.0
 40
0.0468087730667364
100
AcDbArc
 50
237.392078984802
 51
269.9999999999956
  0
LINE
  5
390
330
2
100
AcDbEntity
  8
0
100
AcDbLine
 10
-10.83726481387492
 20
0.9022303545530868
 30
0.0
 11
-10.77476481387492
 21
0.9022303545530868
 31
0.0
  0
LINE
  5
391
330
2
100
AcDbEntity
  8
0
100
AcDbLine
 10
-10.69704550006311
 20
0.7837500396612249
 30
0.0
 11
-10.69704550006311
 21
0.7212500396612249
 31
0.0
  0
ARC
  5
392
330
2
100
AcDbEntity
  8
0
100
AcDbCircle
 10
-11.14976481387492
 20
0.5715114406699691
 30
0.0
 40
0.5
100
AcDbArc
 50
25.11757623782321
 51
41.40962210927817
  0
LINE
  5
393
330
2
100
AcDbEntity
  8
0
100
AcDbLine
 10
-9.462264813874917
 20
2.958302237643732
 30
0.0
 11
-9.462264813874924
 21
4.971250039661225
 31
0.0
  0
ARC
  5
394
330
2
100
AcDbEntity
  8
0
100
AcDbCircle
 10
-8.462264813874917
 20
2.958302237643732
 30
0.0
 40
1.0
100
AcDbArc
 50
180.0
 51
226.0050860052541
  0
ARC
  5
395
330
2
100
AcDbEntity
  8
0
100
AcDbCircle
 10
-9.682606021276605
 20
1.591795638756775
 30
0.0
 40
0.1677790160026763
100
AcDbArc
 50
179.9999999999976
 51
195.0133710019946
  0
ARC
  5
396
330
2
100
AcDbEntity
  8
0
100
AcDbCircle
 10
-9.682606021276641
 20
1.591795638756789
 30
0.0
 40
0.167779016002644
100
AcDbArc
 50
164.9866289980049
 51
180.0000000000025
  0
ARC
  5
397
330
2
100
AcDbEntity
  8
0
100
AcDbCircle
 10
-9.760757978922989
 20
1.624232498945961
 30
0.0
 40
0.0821454866301446
100
AcDbArc
 50
122.607921015195
 51
147.0773280975501
  0
ARC
  5
398
330
2
100
AcDbEntity
  8
0
100
AcDbCircle
 10
-9.779800483214771
 20
1.653999365690044
 30
0.0
 40
0.0468087730667357
100
AcDbArc
 50
90.00000000000435
 51
122.607921015198
  0
ARC
  5
399
330
2
100
AcDbEntity
  8
0
100
AcDbCircle
 10
-9.779800483214771
 20
1.544161389379863
 30
0.0
 40
0.0320532506230862
100
AcDbArc
 50
236.4891770443209
 51
269.9999999999936
  0
ARC
  5
39A
330
2
100
AcDbEntity
  8
0
100
AcDbCircle
 10
-9.764725464650979
 20
1.566927912994494
 30
0.0
 40
0.0593583926698537
100
AcDbArc
 50
212.0281066666065
 51
236.4891770443275
  0
ARC
  5
39B
330
2
100
AcDbEntity
  8
0
100
AcDbCircle
 10
-9.740722039127299
 20
1.581943295616295
 30
0.0
 40
0.0876713959042334
100
AcDbArc
 50
194.5265478168138
 51
212.0281066666247
  0
ARC
  5
39C
330
2
100
AcDbEntity
  8
0
100
AcDbCircle
 10
-9.702698543951165
 20
1.591795638756754
 30
0.0
 40
0.126950586969819
100
AcDbArc
 50
179.9999999999872
 51
194.5265478167845
  0
ARC
  5
39D
330
2
100
AcDbEntity
  8
0
100
AcDbCircle
 10
-9.702698543951193
 20
1.591795638756803
 30
0.0
 40
0.1269505869697944
100
AcDbArc
 50
165.4734521832127
 51
180.0000000000096
  0
ARC
  5
39E
330
2
100
AcDbEntity
  8
0
100
AcDbCircle
 10
-9.740722039127306
 20
1.601647981897266
 30
0.0
 40
0.0876713959042287
100
AcDbArc
 50
147.9718933333761
 51
165.4734521831878
  0
ARC
  5
39F
330
2
100
AcDbEntity
  8
0
100
AcDbCircle
 10
-9.764725464650979
 20
1.616663364519063
 30
0.0
 40
0.0593583926698542
100
AcDbArc
 50
123.5108229556726
 51
147.9718933333935
  0
ARC
  5
3A0
330
2
100
AcDbEntity
  8
0
100
AcDbCircle
 10
-9.779800483214771
 20
1.639429888133691
 30
0.0
 40
0.0320532506230895
100
AcDbArc
 50
90.00000000000637
 51
123.5108229556756
  0
ARC
  5
3A1
330
2
100
AcDbEntity
  8
0
100
AcDbCircle
 10
-9.730500067609945
 20
1.578950487563866
 30
0.0
 40
0.1181923486076141
100
AcDbArc
 50
195.0133710020014
 51
212.9226719024537
  0
ARC
  5
3A2
330
2
100
AcDbEntity
  8
0
100
AcDbCircle
 10
-9.730500067609945
 20
1.604640789949695
 30
0.0
 40
0.11819234860761
100
AcDbArc
 50
147.0773280975469
 51
164.9866289979999
  0
ARC
  5
3A3
330
2
100
AcDbEntity
  8
0
100
AcDbCircle
 10
-9.682606021276641
 20
3.34051396531029
 30
0.0
 40
0.167779016002644
100
AcDbArc
 50
164.9866289980049
 51
180.0000000000025
  0
LINE
  5
3A4
330
2
100
AcDbEntity
  8
0
100
AcDbLine
 10
-9.779800483214771
 20
3.202176465310277
 30
0.0
 11
-9.779800483214771
 21
3.478851465310282
 31
0.0
  0
ARC
  5
3A5
330
2
100
AcDbEntity
  8
0
100
AcDbCircle
 10
-9.740722039127306
 20
3.350366308450766
 30
0.0
 40
0.0876713959042287
100
AcDbArc
 50
147.9718933333761
 51
165.4734521831878
  0
LWPOLYLINE
  5
3A6
330
2
100
AcDbEntity
  8
0
100
AcDbPolyline
 90
        9
 70
     0
 43
0.0
 10
-9.779800483214771
 20
3.202176465310277
 42
-0.0700628980345364
 10
-9.858919287014814
 20
3.213317741079148
 42
-0.0818514225363451
 10
-9.920815605141257
 20
3.242694580967882
 42
-0.1069100077216601
 10
-9.965413756206758
 20
3.290441493722913
 42
-0.135394011665182
 10
-9.979225981142903
 20
3.340513965310276
 42
-0.1353940116651818
 10
-9.965413756206758
 20
3.390586436897646
 42
-0.1069100077216599
 10
-9.920815605141257
 20
3.43833334965267
 42
-0.0818514225363446
 10
-9.858919287014814
 20
3.46771018954141
 42
-0.0700628980345367
 10
-9.779800483214771
 20
3.478851465310282
 42
-0.0700628980345371
  0
ARC
  5
3A7
330
2
100
AcDbEntity
  8
0
100
AcDbCircle
 10
-9.682606021276605
 20
3.340513965310276
 30
0.0
 40
0.1677790160026763
100
AcDbArc
 50
179.9999999999976
 51
195.0133710019946
  0
ARC
  5
3A8
330
2
100
AcDbEntity
  8
0
100
AcDbCircle
 10
-9.779800483214771
 20
3.292879715933363
 30
0.0
 40
0.0320532506230862
100
AcDbArc
 50
236.4891770443209
 51
269.9999999999936
  0
ARC
  5
3A9
330
2
100
AcDbEntity
  8
0
100
AcDbCircle
 10
-9.764725464650979
 20
3.315646239547995
 30
0.0
 40
0.0593583926698537
100
AcDbArc
 50
212.0281066666065
 51
236.4891770443275
  0
ARC
  5
3AA
330
2
100
AcDbEntity
  8
0
100
AcDbCircle
 10
-9.740722039127299
 20
3.330661622169796
 30
0.0
 40
0.0876713959042334
100
AcDbArc
 50
194.5265478168138
 51
212.0281066666247
  0
ARC
  5
3AB
330
2
100
AcDbEntity
  8
0
100
AcDbCircle
 10
-9.702698543951165
 20
3.340513965310255
 30
0.0
 40
0.126950586969819
100
AcDbArc
 50
179.9999999999872
 51
194.5265478167845
  0
ARC
  5
3AC
330
2
100
AcDbEntity
  8
0
100
AcDbCircle
 10
-9.702698543951193
 20
3.340513965310304
 30
0.0
 40
0.1269505869697944
100
AcDbArc
 50
165.4734521832127
 51
180.0000000000096
  0
ARC
  5
3AD
330
2
100
AcDbEntity
  8
0
100
AcDbCircle
 10
-9.779800483214771
 20
3.278310238377014
 30
0.0
 40
0.0468087730667364
100
AcDbArc
 50
237.392078984802
 51
269.9999999999956
  0
ARC
  5
3AE
330
2
100
AcDbEntity
  8
0
100
AcDbCircle
 10
-9.760757978922989
 20
3.308077105121097
 30
0.0
 40
0.0821454866301448
100
AcDbArc
 50
212.9226719024499
 51
237.392078984805
  0
ARC
  5
3AF
330
2
100
AcDbEntity
  8
0
100
AcDbCircle
 10
-9.730500067609945
 20
3.327668814117367
 30
0.0
 40
0.1181923486076141
100
AcDbArc
 50
195.0133710020014
 51
212.9226719024537
  0
ARC
  5
3B0
330
2
100
AcDbEntity
  8
0
100
AcDbCircle
 10
-9.764725464650979
 20
3.365381691072564
 30
0.0
 40
0.0593583926698542
100
AcDbArc
 50
123.5108229556726
 51
147.9718933333935
  0
ARC
  5
3B1
330
2
100
AcDbEntity
  8
0
100
AcDbCircle
 10
-9.779800483214771
 20
3.388148214687192
 30
0.0
 40
0.0320532506230895
100
AcDbArc
 50
90.00000000000637
 51
123.5108229556756
  0
ARC
  5
3B2
330
2
100
AcDbEntity
  8
0
100
AcDbCircle
 10
-9.760757978922989
 20
3.372950825499462
 30
0.0
 40
0.0821454866301446
100
AcDbArc
 50
122.607921015195
 51
147.0773280975501
  0
ARC
  5
3B3
330
2
100
AcDbEntity
  8
0
100
AcDbCircle
 10
-9.779800483214771
 20
3.402717692243545
 30
0.0
 40
0.0468087730667357
100
AcDbArc
 50
90.00000000000435
 51
122.607921015198
  0
ARC
  5
3B4
330
2
100
AcDbEntity
  8
0
100
AcDbCircle
 10
-9.730500067609945
 20
3.353359116503196
 30
0.0
 40
0.11819234860761
100
AcDbArc
 50
147.0773280975469
 51
164.9866289979999
  0
ARC
  5
3B5
330
2
100
AcDbEntity
  8
0
100
AcDbCircle
 10
-9.618514813874917
 20
4.971250039661225
 30
0.0
 40
0.15625
100
AcDbArc
 50
0.000000000000007
 51
90.0
  0
ARC
  5
3B6
330
2
100
AcDbEntity
  8
0
100
AcDbCircle
 10
-9.682606021276605
 20
4.457770170195328
 30
0.0
 40
0.1677790160026763
100
AcDbArc
 50
179.9999999999976
 51
195.0133710019946
  0
ARC
  5
3B7
330
2
100
AcDbEntity
  8
0
100
AcDbCircle
 10
-9.682606021276641
 20
4.457770170195342
 30
0.0
 40
0.167779016002644
100
AcDbArc
 50
164.9866289980049
 51
180.0000000000025
  0
ARC
  5
3B8
330
2
100
AcDbEntity
  8
0
100
AcDbCircle
 10
-9.740722039127299
 20
4.447917827054848
 30
0.0
 40
0.0876713959042334
100
AcDbArc
 50
194.5265478168138
 51
212.0281066666247
  0
ARC
  5
3B9
330
2
100
AcDbEntity
  8
0
100
AcDbCircle
 10
-9.702698543951165
 20
4.457770170195307
 30
0.0
 40
0.126950586969819
100
AcDbArc
 50
179.9999999999872
 51
194.5265478167845
  0
ARC
  5
3BA
330
2
100
AcDbEntity
  8
0
100
AcDbCircle
 10
-9.702698543951193
 20
4.457770170195357
 30
0.0
 40
0.1269505869697944
100
AcDbArc
 50
165.4734521832127
 51
180.0000000000096
  0
ARC
  5
3BB
330
2
100
AcDbEntity
  8
0
100
AcDbCircle
 10
-9.740722039127306
 20
4.467622513335819
 30
0.0
 40
0.0876713959042287
100
AcDbArc
 50
147.9718933333761
 51
165.4734521831878
  0
ARC
  5
3BC
330
2
100
AcDbEntity
  8
0
100
AcDbCircle
 10
-9.764725464650979
 20
4.482637895957616
 30
0.0
 40
0.0593583926698542
100
AcDbArc
 50
123.5108229556726
 51
147.9718933333935
  0
ARC
  5
3BD
330
2
100
AcDbEntity
  8
0
100
AcDbCircle
 10
-9.779800483214771
 20
4.505404419572244
 30
0.0
 40
0.0320532506230895
100
AcDbArc
 50
90.00000000000637
 51
123.5108229556756
  0
ARC
  5
3BE
330
2
100
AcDbEntity
  8
0
100
AcDbCircle
 10
-9.760757978922989
 20
4.490207030384514
 30
0.0
 40
0.0821454866301446
100
AcDbArc
 50
122.607921015195
 51
147.0773280975501
  0
ARC
  5
3BF
330
2
100
AcDbEntity
  8
0
100
AcDbCircle
 10
-9.779800483214771
 20
4.519973897128597
 30
0.0
 40
0.0468087730667357
100
AcDbArc
 50
90.00000000000435
 51
122.607921015198
  0
ARC
  5
3C0
330
2
100
AcDbEntity
  8
0
100
AcDbCircle
 10
-9.779800483214771
 20
4.410135920818416
 30
0.0
 40
0.0320532506230862
100
AcDbArc
 50
236.4891770443209
 51
269.9999999999936
  0
ARC
  5
3C1
330
2
100
AcDbEntity
  8
0
100
AcDbCircle
 10
-9.779800483214771
 20
4.395566443262066
 30
0.0
 40
0.0468087730667364
100
AcDbArc
 50
237.392078984802
 51
269.9999999999956
  0
ARC
  5
3C2
330
2
100
AcDbEntity
  8
0
100
AcDbCircle
 10
-9.760757978922989
 20
4.425333310006149
 30
0.0
 40
0.0821454866301448
100
AcDbArc
 50
212.9226719024499
 51
237.392078984805
  0
LINE
  5
3C3
330
2
100
AcDbEntity
  8
0
100
AcDbLine
 10
-9.779800483214771
 20
4.319432670195329
 30
0.0
 11
-9.779800483214771
 21
4.596107670195334
 31
0.0
  0
ARC
  5
3C4
330
2
100
AcDbEntity
  8
0
100
AcDbCircle
 10
-9.764725464650979
 20
4.432902444433047
 30
0.0
 40
0.0593583926698537
100
AcDbArc
 50
212.0281066666065
 51
236.4891770443275
  0
LWPOLYLINE
  5
3C5
330
2
100
AcDbEntity
  8
0
100
AcDbPolyline
 90
        9
 70
     0
 43
0.0
 10
-9.779800483214771
 20
4.319432670195329
 42
-0.0700628980345364
 10
-9.858919287014814
 20
4.330573945964201
 42
-0.0818514225363451
 10
-9.920815605141257
 20
4.359950785852934
 42
-0.1069100077216601
 10
-9.965413756206758
 20
4.407697698607965
 42
-0.135394011665182
 10
-9.979225981142903
 20
4.457770170195328
 42
-0.1353940116651818
 10
-9.965413756206758
 20
4.507842641782698
 42
-0.1069100077216599
 10
-9.920815605141257
 20
4.555589554537722
 42
-0.0818514225363446
 10
-9.858919287014814
 20
4.584966394426463
 42
-0.0700628980345367
 10
-9.779800483214771
 20
4.596107670195334
 42
-0.0700628980345371
  0
ARC
  5
3C6
330
2
100
AcDbEntity
  8
0
100
AcDbCircle
 10
-9.730500067609945
 20
4.444925019002419
 30
0.0
 40
0.1181923486076141
100
AcDbArc
 50
195.0133710020014
 51
212.9226719024537
  0
ARC
  5
3C7
330
2
100
AcDbEntity
  8
0
100
AcDbCircle
 10
-9.730500067609945
 20
4.470615321388248
 30
0.0
 40
0.11819234860761
100
AcDbArc
 50
147.0773280975469
 51
164.9866289979999
  0
LINE
  5
3C8
330
2
100
AcDbEntity
  8
0
100
AcDbLine
 10
-9.774764813874924
 20
5.283750039661225
 30
0.0
 11
-9.774764813874924
 21
6.033750039661225
 31
0.0
  0
ARC
  5
3C9
330
2
100
AcDbEntity
  8
0
100
AcDbCircle
 10
-9.618514813874917
 20
5.283750039661225
 30
0.0
 40
0.15625
100
AcDbArc
 50
180.0
 51
269.9999999999999
  0
LINE
  5
3CA
330
2
100
AcDbEntity
  8
0
100
AcDbLine
 10
-9.618514813874924
 20
5.127500039661225
 30
0.0
 11
-9.618514813874924
 21
5.127500039661225
 31
0.0
  0
ARC
  5
3CB
330
2
100
AcDbEntity
  8
0
100
AcDbCircle
 10
-9.618514813874917
 20
6.033750039661225
 30
0.0
 40
0.15625
100
AcDbArc
 50
90.0
 51
180.0
  0
LINE
  5
3CC
330
2
100
AcDbEntity
  8
0
100
AcDbLine
 10
-9.618514813874924
 20
6.190000039661225
 30
0.0
 11
-9.618514813874924
 21
6.190000039661225
 31
0.0
  0
ARC
  5
3CD
330
2
100
AcDbEntity
  8
0
100
AcDbCircle
 10
-10.77476481387492
 20
2.650425915094683
 30
0.0
 40
0.1875000000000025
100
AcDbArc
 50
270.0
 51
90.0
  0
LINE
  5
3CE
330
2
100
AcDbEntity
  8
0
100
AcDbLine
 10
-10.83726481387492
 20
7.846250039661225
 30
0.0
 11
-9.774764813874924
 21
7.846250039661225
 31
0.0
  0
LINE
  5
3CF
330
2
100
AcDbEntity
  8
0
100
AcDbLine
 10
-9.774764813874924
 20
7.158750039661225
 30
0.0
 11
-9.774764813874924
 21
7.846250039661225
 31
0.0
  0
ARC
  5
3D0
330
2
100
AcDbEntity
  8
0
100
AcDbCircle
 10
-9.618514813874917
 20
6.846250039661225
 30
0.0
 40
0.15625
100
AcDbArc
 50
0.000000000000007
 51
90.0
  0
LINE
  5
3D1
330
2
100
AcDbEntity
  8
0
100
AcDbLine
 10
-9.462264813874924
 20
6.346250039661225
 30
0.0
 11
-9.462264813874924
 21
6.846250039661225
 31
0.0
  0
ARC
  5
3D2
330
2
100
AcDbEntity
  8
0
100
AcDbCircle
 10
-9.779800483214771
 20
6.882980592044902
 30
0.0
 40
0.0320532506230895
100
AcDbArc
 50
90.00000000000637
 51
123.5108229556756
  0
ARC
  5
3D3
330
2
100
AcDbEntity
  8
0
100
AcDbCircle
 10
-9.760757978922989
 20
6.867783202857172
 30
0.0
 40
0.0821454866301446
100
AcDbArc
 50
122.607921015195
 51
147.0773280975501
  0
ARC
  5
3D4
330
2
100
AcDbEntity
  8
0
100
AcDbCircle
 10
-9.779800483214771
 20
6.897550069601255
 30
0.0
 40
0.0468087730667357
100
AcDbArc
 50
90.00000000000435
 51
122.607921015198
  0
ARC
  5
3D5
330
2
100
AcDbEntity
  8
0
100
AcDbCircle
 10
-9.682606021276605
 20
6.835346342667986
 30
0.0
 40
0.1677790160026763
100
AcDbArc
 50
179.9999999999976
 51
195.0133710019946
  0
ARC
  5
3D6
330
2
100
AcDbEntity
  8
0
100
AcDbCircle
 10
-9.682606021276641
 20
6.835346342668
 30
0.0
 40
0.167779016002644
100
AcDbArc
 50
164.9866289980049
 51
180.0000000000025
  0
ARC
  5
3D7
330
2
100
AcDbEntity
  8
0
100
AcDbCircle
 10
-9.779800483214771
 20
6.787712093291074
 30
0.0
 40
0.0320532506230862
100
AcDbArc
 50
236.4891770443209
 51
269.9999999999936
  0
ARC
  5
3D8
330
2
100
AcDbEntity
  8
0
100
AcDbCircle
 10
-9.764725464650979
 20
6.810478616905705
 30
0.0
 40
0.0593583926698537
100
AcDbArc
 50
212.0281066666065
 51
236.4891770443275
  0
ARC
  5
3D9
330
2
100
AcDbEntity
  8
0
100
AcDbCircle
 10
-9.740722039127299
 20
6.825493999527506
 30
0.0
 40
0.0876713959042334
100
AcDbArc
 50
194.5265478168138
 51
212.0281066666247
  0
ARC
  5
3DA
330
2
100
AcDbEntity
  8
0
100
AcDbCircle
 10
-9.702698543951165
 20
6.835346342667965
 30
0.0
 40
0.126950586969819
100
AcDbArc
 50
179.9999999999872
 51
194.5265478167845
  0
ARC
  5
3DB
330
2
100
AcDbEntity
  8
0
100
AcDbCircle
 10
-9.702698543951193
 20
6.835346342668014
 30
0.0
 40
0.1269505869697944
100
AcDbArc
 50
165.4734521832127
 51
180.0000000000096
  0
ARC
  5
3DC
330
2
100
AcDbEntity
  8
0
100
AcDbCircle
 10
-9.740722039127306
 20
6.845198685808477
 30
0.0
 40
0.0876713959042287
100
AcDbArc
 50
147.9718933333761
 51
165.4734521831878
  0
ARC
  5
3DD
330
2
100
AcDbEntity
  8
0
100
AcDbCircle
 10
-9.779800483214771
 20
6.773142615734724
 30
0.0
 40
0.0468087730667364
100
AcDbArc
 50
237.392078984802
 51
269.9999999999956
  0
ARC
  5
3DE
330
2
100
AcDbEntity
  8
0
100
AcDbCircle
 10
-9.760757978922989
 20
6.802909482478807
 30
0.0
 40
0.0821454866301448
100
AcDbArc
 50
212.9226719024499
 51
237.392078984805
  0
ARC
  5
3DF
330
2
100
AcDbEntity
  8
0
100
AcDbCircle
 10
-9.730500067609945
 20
6.822501191475077
 30
0.0
 40
0.1181923486076141
100
AcDbArc
 50
195.0133710020014
 51
212.9226719024537
  0
LINE
  5
3E0
330
2
100
AcDbEntity
  8
0
100
AcDbLine
 10
-9.779800483214771
 20
6.697008842667987
 30
0.0
 11
-9.779800483214771
 21
6.973683842667992
 31
0.0
  0
LWPOLYLINE
  5
3E1
330
2
100
AcDbEntity
  8
0
100
AcDbPolyline
 90
        9
 70
     0
 43
0.0
 10
-9.779800483214771
 20
6.697008842667987
 42
-0.0700628980345364
 10
-9.858919287014814
 20
6.708150118436858
 42
-0.0818514225363451
 10
-9.920815605141257
 20
6.737526958325592
 42
-0.1069100077216601
 10
-9.965413756206758
 20
6.785273871080623
 42
-0.135394011665182
 10
-9.979225981142903
 20
6.835346342667986
 42
-0.1353940116651818
 10
-9.965413756206758
 20
6.885418814255356
 42
-0.1069100077216599
 10
-9.920815605141257
 20
6.93316572701038
 42
-0.0818514225363446
 10
-9.858919287014814
 20
6.962542566899121
 42
-0.0700628980345367
 10
-9.779800483214771
 20
6.973683842667992
 42
-0.0700628980345371
  0
ARC
  5
3E2
330
2
100
AcDbEntity
  8
0
100
AcDbCircle
 10
-9.764725464650979
 20
6.860214068430274
 30
0.0
 40
0.0593583926698542
100
AcDbArc
 50
123.5108229556726
 51
147.9718933333935
  0
ARC
  5
3E3
330
2
100
AcDbEntity
  8
0
100
AcDbCircle
 10
-9.730500067609945
 20
6.848191493860906
 30
0.0
 40
0.11819234860761
100
AcDbArc
 50
147.0773280975469
 51
164.9866289979999
  0
ARC
  5
3E4
330
2
100
AcDbEntity
  8
0
100
AcDbCircle
 10
-9.618514813874917
 20
7.158750039661225
 30
0.0
 40
0.15625
100
AcDbArc
 50
180.0
 51
269.9999999999999
  0
LINE
  5
3E5
330
2
100
AcDbEntity
  8
0
100
AcDbLine
 10
-9.618514813874924
 20
7.002500039661225
 30
0.0
 11
-9.618514813874924
 21
7.002500039661225
 31
0.0
  0
LINE
  5
3FC
330
2
100
AcDbEntity
  8
0
  6
HIDDEN
100
AcDbLine
 10
-7.697045500063119
 20
0.783750039661232
 30
0.0
 11
-10.69704550006312
 21
0.783750039661232
 31
0.0
  0
ENDSEC
  0
SECTION
  2
OBJECTS
  0
DICTIONARY
  5
9
330
0
100
AcDbDictionary
281
     1
  3
ACAD_COLOR
350
3EC
  3
ACAD_GROUP
350
23
  3
ACAD_LAYOUT
350
D
  3
ACAD_MATERIAL
350
3EB
  3
ACAD_MLINESTYLE
350
24
  3
ACAD_PLOTSETTINGS
350
25
  3
ACAD_PLOTSTYLENAME
350
8
  3
ACAD_TABLESTYLE
350
3ED
  3
ACDBHEADERROUNDTRIPXREC
350
417
  3
AcDbVariableDictionary
350
E8
  0
DICTIONARY
  5
3EC
102
{ACAD_REACTORS
330
9
102
}
330
9
100
AcDbDictionary
281
     1
  0
DICTIONARY
  5
23
102
{ACAD_REACTORS
330
9
102
}
330
9
100
AcDbDictionary
281
     1
  0
DICTIONARY
  5
D
102
{ACAD_REACTORS
330
9
102
}
330
9
100
AcDbDictionary
281
     1
  3
Layout1
350
13
  3
Model
350
C
  0
DICTIONARY
  5
3EB
102
{ACAD_REACTORS
330
9
102
}
330
9
100
AcDbDictionary
281
     1
  0
DICTIONARY
  5
24
102
{ACAD_REACTORS
330
9
102
}
330
9
100
AcDbDictionary
281
     1
  3
STANDARD
350
27
  0
DICTIONARY
  5
25
102
{ACAD_REACTORS
330
9
102
}
330
9
100
AcDbDictionary
281
     1
  0
ACDBDICTIONARYWDFLT
  5
8
102
{ACAD_REACTORS
330
9
102
}
330
9
100
AcDbDictionary
281
     1
  3
Normal
350
7
100
AcDbDictionaryWithDefault
340
7
  0
DICTIONARY
  5
3ED
102
{ACAD_REACTORS
330
9
102
}
330
9
100
AcDbDictionary
281
     1
  3
Standard
350
3EE
  0
DICTIONARY
  5
417
102
{ACAD_REACTORS
330
9
102
}
330
9
100
AcDbDictionary
281
     1
  3
COLORDICT
350
418
  3
MATERIALDICT
350
419
  0
DICTIONARY
  5
E8
102
{ACAD_REACTORS
330
9
102
}
330
9
100
AcDbDictionary
281
     1
  3
CTABLESTYLE
350
414
  3
HIDETEXT
350
416
  0
LAYOUT
  5
13
102
{ACAD_REACTORS
330
D
102
}
102
{ACAD_XDICTIONARY
360
41A
102
}
330
D
100
AcDbPlotSettings
  1

  2
HP LaserJet 2100 Series PS
  4

  6

 40
0.0
 41
0.0
 42
0.0
 43
0.0
 44
0.0
 45
0.0
 46
0.0
 47
0.0
 48
0.0
 49
0.0
140
0.0
141
0.0
142
1.0
143
1.0
 70
   688
 72
     0
 73
     0
 74
     5
  7

 75
    16
147
1.0
148
0.0
149
0.0
100
AcDbLayout
  1
Layout1
 70
     0
 71
     1
 10
0.0
 20
0.0
 11
12.0
 21
9.0
 12
0.0
 22
0.0
 32
0.0
 14
1.000000000000000E+20
 24
1.000000000000000E+20
 34
1.000000000000000E+20
 15
-1.000000000000000E+20
 25
-1.000000000000000E+20
 35
-1.000000000000000E+20
146
0.0
 13
0.0
 23
0.0
 33
0.0
 16
1.0
 26
0.0
 36
0.0
 17
0.0
 27
1.0
 37
0.0
 76
     0
330
E
  0
LAYOUT
  5
C
102
{ACAD_REACTORS
330
D
102
}
102
{ACAD_XDICTIONARY
360
41C
102
}
330
D
100
AcDbPlotSettings
  1

  2
HP LaserJet 2100 Series PS
  4
Letter
  6

 40
5.365749835968018
 41
5.408084392547607
 42
5.4080810546875
 43
5.365753173828125
 44
215.8999938964844
 45
279.3999938964844
 46
0.0
 47
0.0
 48
0.0
 49
0.0
140
0.0
141
0.0
142
1.0
143
1.0
 70
 11952
 72
     0
 73
     1
 74
     0
  7

 75
     0
147
1.0
148
-337.5132176879018
149
24.59964501664816
100
AcDbLayout
  1
Model
 70
     1
 71
     0
 10
0.0
 20
0.0
 11
12.0
 21
9.0
 12
0.0
 22
0.0
 32
0.0
 14
0.0
 24
0.0
 34
0.0
 15
0.0
 25
0.0
 35
0.0
146
0.0
 13
0.0
 23
0.0
 33
0.0
 16
1.0
 26
0.0
 36
0.0
 17
0.0
 27
1.0
 37
0.0
 76
     0
330
2
  0
MLINESTYLE
  5
27
102
{ACAD_REACTORS
330
24
102
}
330
24
100
AcDbMlineStyle
  2
STANDARD
 70
     0
  3

 62
   256
 51
90.0
 52
90.0
 71
     2
 49
0.5
 62
   256
  6
BYLAYER
 49
-0.5
 62
   256
  6
BYLAYER
  0
ACDBPLACEHOLDER
  5
7
102
{ACAD_REACTORS
330
8
102
}
330
8
  0
ACAD_PROXY_OBJECT
  5
3EE
102
{ACAD_REACTORS
330
3ED
102
}
330
3ED
100
AcDbProxyObject
 90
      499
 91
      538
 95
   983063
 70
     0
 93
     1841
310
4214DD185B99185C9928B81E85EB51B8AE3F2E07A17AD46E2B8FC02B5E8DC0F42B1CFD028000000C1008070000C3001FDFF8000000C1003FBFF000000182007F7FE00000030400FEFFC00000060801FDFF8000000C1003FBFF00000018200000000000000681FA0B0000001820100E000186003FBFF000000182007F7FE000
310
00030400FEFFC00000060801FDFF8000000C1003FBFF000000182007F7FE000000304000AD7A3703D0AC73F4160000003040201C00030C007F7FE00000030400FEFFC00000060801FDFF8000000C1003FBFF000000182007F7FE00000030400FEFFC000000608000
340
16
340
16
340
16
 94
        0
  0
XRECORD
  5
418
102
{ACAD_REACTORS
330
417
102
}
330
417
100
AcDbXrecord
340
3EC
  0
XRECORD
  5
419
102
{ACAD_REACTORS
330
417
102
}
330
417
100
AcDbXrecord
340
3EB
  0
DICTIONARYVAR
  5
414
102
{ACAD_REACTORS
330
E8
102
}
330
E8
100
DictionaryVariables
280
     0
  1
STANDARD
  0
DICTIONARYVAR
  5
416
102
{ACAD_REACTORS
330
E8
102
}
330
E8
100
DictionaryVariables
280
     0
  1
0
  0
DICTIONARY
  5
41A
330
13
100
AcDbDictionary
280
     1
281
     1
  3
ACAD_XREC_ROUNDTRIP
360
41B
  0
DICTIONARY
  5
41C
330
C
100
AcDbDictionary
280
     1
281
     1
  3
ACAD_XREC_ROUNDTRIP
360
41D
  0
XRECORD
  5
41B
102
{ACAD_REACTORS
330
41A
102
}
330
41A
100
AcDbXrecord
102
SHADEPLOT
 70
     0
102
SHADEPLOTRESLEVEL
 70
     2
102
SHADEPLOTCUSTOMDPI
 70
   300
  0
XRECORD
  5
41D
102
{ACAD_REACTORS
330
41C
102
}
330
41C
100
AcDbXrecord
102
SHADEPLOT
 70
     0
102
SHADEPLOTRESLEVEL
 70
     2
102
SHADEPLOTCUSTOMDPI
 70
   300
  0
ENDSEC
  0
EOF
