  0
SECTION
  2
HEADER
  9
$ACADVER
  1
AC1015
  9
$ACADMAINTVER
 70
     6
  9
$DWGCODEPAGE
  3
ANSI_1252
  9
$INSBASE
 10
0.0
 20
0.0
 30
0.0
  9
$EXTMIN
 10
-22.44586424320457
 20
0.6953616920129065
 30
0.0
  9
$EXTMAX
 10
0.7268245287799289
 20
15.82976936067176
 30
0.0
  9
$LIMMIN
 10
0.0
 20
0.0
  9
$LIMMAX
 10
42.0
 20
32.0
  9
$ORTHOMODE
 70
     1
  9
$REGENMODE
 70
     1
  9
$FILLMODE
 70
     1
  9
$QTEXTMODE
 70
     0
  9
$MIRRTEXT
 70
     1
  9
$LTSCALE
 40
0.5
  9
$ATTMODE
 70
     1
  9
$TEXTSIZE
 40
0.36
  9
$TRACEWID
 40
0.05
  9
$TEXTSTYLE
  7
STANDARD
  9
$CLAYER
  8
0
  9
$CELTYPE
  6
BYLAYER
  9
$CECOLOR
 62
   256
  9
$CELTSCALE
 40
1.0
  9
$DISPSILH
 70
     0
  9
$DIMSCALE
 40
4.0
  9
$DIMASZ
 40
0.125
  9
$DIMEXO
 40
0.062
  9
$DIMDLI
 40
0.375
  9
$DIMRND
 40
0.0
  9
$DIMDLE
 40
0.0
  9
$DIMEXE
 40
0.08
  9
$DIMTP
 40
0.0
  9
$DIMTM
 40
0.0
  9
$DIMTXT
 40
0.09
  9
$DIMCEN
 40
-0.06
  9
$DIMTSZ
 40
0.0
  9
$DIMTOL
 70
     0
  9
$DIMLIM
 70
     0
  9
$DIMTIH
 70
     1
  9
$DIMTOH
 70
     1
  9
$DIMSE1
 70
     0
  9
$DIMSE2
 70
     0
  9
$DIMTAD
 70
     0
  9
$DIMZIN
 70
     0
  9
$DIMBLK
  1

  9
$DIMASO
 70
     0
  9
$DIMSHO
 70
     0
  9
$DIMPOST
  1

  9
$DIMAPOST
  1

  9
$DIMALT
 70
     0
  9
$DIMALTD
 70
     2
  9
$DIMALTF
 40
25.4
  9
$DIMLFAC
 40
1.0
  9
$DIMTOFL
 70
     0
  9
$DIMTVP
 40
0.0
  9
$DIMTIX
 70
     0
  9
$DIMSOXD
 70
     0
  9
$DIMSAH
 70
     0
  9
$DIMBLK1
  1

  9
$DIMBLK2
  1

  9
$DIMSTYLE
  2
STANDARD
  9
$DIMCLRD
 70
     0
  9
$DIMCLRE
 70
     0
  9
$DIMCLRT
 70
     0
  9
$DIMTFAC
 40
1.0
  9
$DIMGAP
 40
0.09
  9
$DIMJUST
 70
     0
  9
$DIMSD1
 70
     0
  9
$DIMSD2
 70
     0
  9
$DIMTOLJ
 70
     1
  9
$DIMTZIN
 70
     0
  9
$DIMALTZ
 70
     0
  9
$DIMALTTZ
 70
     0
  9
$DIMUPT
 70
     0
  9
$DIMDEC
 70
     5
  9
$DIMTDEC
 70
     4
  9
$DIMALTU
 70
     2
  9
$DIMALTTD
 70
     2
  9
$DIMTXSTY
  7
STANDARD
  9
$DIMAUNIT
 70
     0
  9
$DIMADEC
 70
     0
  9
$DIMALTRND
 40
0.0
  9
$DIMAZIN
 70
     0
  9
$DIMDSEP
 70
    46
  9
$DIMATFIT
 70
     3
  9
$DIMFRAC
 70
     2
  9
$DIMLDRBLK
  1

  9
$DIMLUNIT
 70
     5
  9
$DIMLWD
 70
    -2
  9
$DIMLWE
 70
    -2
  9
$DIMTMOVE
 70
     2
  9
$LUNITS
 70
     2
  9
$LUPREC
 70
     4
  9
$SKETCHINC
 40
0.1
  9
$FILLETRAD
 40
0.0
  9
$AUNITS
 70
     0
  9
$AUPREC
 70
     0
  9
$MENU
  1
acad
  9
$ELEVATION
 40
0.0
  9
$PELEVATION
 40
0.0
  9
$THICKNESS
 40
0.0
  9
$LIMCHECK
 70
     0
  9
$CHAMFERA
 40
0.0
  9
$CHAMFERB
 40
0.0
  9
$CHAMFERC
 40
0.0
  9
$CHAMFERD
 40
0.0
  9
$SKPOLY
 70
     0
  9
$TDCREATE
 40
2448880.671175926
  9
$TDUCREATE
 40
2448881.00450926
  9
$TDUPDATE
 40
2454165.988002708
  9
$TDUUPDATE
 40
2454166.321336042
  9
$TDINDWG
 40
0.240160544
  9
$TDUSRTIMER
 40
0.240160544
  9
$USRTIMER
 70
     1
  9
$ANGBASE
 50
0.0
  9
$ANGDIR
 70
     0
  9
$PDMODE
 70
     0
  9
$PDSIZE
 40
0.0
  9
$PLINEWID
 40
0.0
  9
$SPLFRAME
 70
     0
  9
$SPLINETYPE
 70
     6
  9
$SPLINESEGS
 70
     8
  9
$HANDSEED
  5
41D
  9
$SURFTAB1
 70
     6
  9
$SURFTAB2
 70
     6
  9
$SURFTYPE
 70
     6
  9
$SURFU
 70
     6
  9
$SURFV
 70
     6
  9
$UCSBASE
  2

  9
$UCSNAME
  2

  9
$UCSORG
 10
0.0
 20
0.0
 30
0.0
  9
$UCSXDIR
 10
1.0
 20
0.0
 30
0.0
  9
$UCSYDIR
 10
0.0
 20
1.0
 30
0.0
  9
$UCSORTHOREF
  2

  9
$UCSORTHOVIEW
 70
     0
  9
$UCSORGTOP
 10
0.0
 20
0.0
 30
0.0
  9
$UCSORGBOTTOM
 10
0.0
 20
0.0
 30
0.0
  9
$UCSORGLEFT
 10
0.0
 20
0.0
 30
0.0
  9
$UCSORGRIGHT
 10
0.0
 20
0.0
 30
0.0
  9
$UCSORGFRONT
 10
0.0
 20
0.0
 30
0.0
  9
$UCSORGBACK
 10
0.0
 20
0.0
 30
0.0
  9
$PUCSBASE
  2

  9
$PUCSNAME
  2

  9
$PUCSORG
 10
0.0
 20
0.0
 30
0.0
  9
$PUCSXDIR
 10
1.0
 20
0.0
 30
0.0
  9
$PUCSYDIR
 10
0.0
 20
1.0
 30
0.0
  9
$PUCSORTHOREF
  2

  9
$PUCSORTHOVIEW
 70
     0
  9
$PUCSORGTOP
 10
0.0
 20
0.0
 30
0.0
  9
$PUCSORGBOTTOM
 10
0.0
 20
0.0
 30
0.0
  9
$PUCSORGLEFT
 10
0.0
 20
0.0
 30
0.0
  9
$PUCSORGRIGHT
 10
0.0
 20
0.0
 30
0.0
  9
$PUCSORGFRONT
 10
0.0
 20
0.0
 30
0.0
  9
$PUCSORGBACK
 10
0.0
 20
0.0
 30
0.0
  9
$USERI1
 70
     0
  9
$USERI2
 70
     0
  9
$USERI3
 70
     0
  9
$USERI4
 70
     0
  9
$USERI5
 70
     0
  9
$USERR1
 40
0.0
  9
$USERR2
 40
0.0
  9
$USERR3
 40
0.0
  9
$USERR4
 40
0.0
  9
$USERR5
 40
0.0
  9
$WORLDVIEW
 70
     1
  9
$SHADEDGE
 70
     3
  9
$SHADEDIF
 70
    70
  9
$TILEMODE
 70
     1
  9
$MAXACTVP
 70
    16
  9
$PINSBASE
 10
0.0
 20
0.0
 30
0.0
  9
$PLIMCHECK
 70
     0
  9
$PEXTMIN
 10
1.000000000000000E+20
 20
1.000000000000000E+20
 30
1.000000000000000E+20
  9
$PEXTMAX
 10
-1.000000000000000E+20
 20
-1.000000000000000E+20
 30
-1.000000000000000E+20
  9
$PLIMMIN
 10
0.0
 20
0.0
  9
$PLIMMAX
 10
12.0
 20
9.0
  9
$UNITMODE
 70
     0
  9
$VISRETAIN
 70
     0
  9
$PLINEGEN
 70
     0
  9
$PSLTSCALE
 70
     0
  9
$TREEDEPTH
 70
  3020
  9
$CMLSTYLE
  2
STANDARD
  9
$CMLJUST
 70
     0
  9
$CMLSCALE
 40
1.0
  9
$PROXYGRAPHICS
 70
     1
  9
$MEASUREMENT
 70
     0
  9
$CELWEIGHT
370
    -1
  9
$ENDCAPS
280
     0
  9
$JOINSTYLE
280
     0
  9
$LWDISPLAY
290
     0
  9
$INSUNITS
 70
     0
  9
$HYPERLINKBASE
  1

  9
$STYLESHEET
  1

  9
$XEDIT
290
     1
  9
$CEPSNTYPE
380
     0
  9
$PSTYLEMODE
290
     1
  9
$FINGERPRINTGUID
  2
{81491989-CD26-11D5-BE3F-00508B5FCD51}
  9
$VERSIONGUID
  2
{DC3EC325-7289-4F1B-A3A7-6D51E0048EEC}
  9
$EXTNAMES
290
     1
  9
$PSVPSCALE
 40
0.0
  9
$OLESTARTUP
290
     0
  0
ENDSEC
  0
SECTION
  2
CLASSES
  0
CLASS
  1
DICTIONARYVAR
  2
AcDbDictionaryVar
  3
AutoCAD 2000
 90
        0
280
     0
281
     0
  0
CLASS
  1
LWPOLYLINE
  2
AcDbPolyline
  3
AutoCAD 2000
 90
        0
280
     0
281
     1
  0
CLASS
  1
XRECORD
  2
AcDbXrecord
  3
AutoCAD 2000
 90
        0
280
     0
281
     0
  0
CLASS
  1
ACDBDICTIONARYWDFLT
  2
AcDbDictionaryWithDefault
  3
AutoCAD 2000
 90
        0
280
     0
281
     0
  0
CLASS
  1
ACDBPLACEHOLDER
  2
AcDbPlaceHolder
  3
ObjectDBX Classes
 90
        0
280
     0
281
     0
  0
CLASS
  1
LAYOUT
  2
AcDbLayout
  3
ObjectDBX Classes
 90
        0
280
     0
281
     0
  0
CLASS
  1
LONG_TRANSACTION
  2
AcDbLongTransaction
  3
ObjectDBX Classes
 90
   -65536
280
     1
281
     0
  0
CLASS
  1
LWPOLYLINE
  2
AcDbPolyline
  3
AutoCAD 2000
 90
        0
280
     0
281
     1
  0
CLASS
  1
HATCH
  2
AcDbHatch
  3
AutoCAD 2000
 90
        0
280
     0
281
     1
  0
CLASS
  1
XRECORD
  2
AcDbXrecord
  3
AutoCAD 2000
 90
        0
280
     0
281
     0
  0
CLASS
  1
LONG_TRANSACTION
  2
AcDbLongTransaction
  3
ObjectDBX Classes
 90
   -65536
280
     1
281
     0
  0
CLASS
  1
LWPOLYLINE
  2
AcDbPolyline
  3
AutoCAD 2000
 90
        0
280
     0
281
     1
  0
CLASS
  1
HATCH
  2
AcDbHatch
  3
AutoCAD 2000
 90
        0
280
     0
281
     1
  0
CLASS
  1
XRECORD
  2
AcDbXrecord
  3
AutoCAD 2000
 90
        0
280
     0
281
     0
  0
CLASS
  1
LONG_TRANSACTION
  2
AcDbLongTransaction
  3
ObjectDBX Classes
 90
   -65536
280
     1
281
     0
  0
CLASS
  1
LWPOLYLINE
  2
AcDbPolyline
  3
AutoCAD 2000
 90
        0
280
     0
281
     1
  0
CLASS
  1
HATCH
  2
AcDbHatch
  3
AutoCAD 2000
 90
        0
280
     0
281
     1
  0
CLASS
  1
XRECORD
  2
AcDbXrecord
  3
AutoCAD 2000
 90
        0
280
     0
281
     0
  0
CLASS
  1
LONG_TRANSACTION
  2
AcDbLongTransaction
  3
ObjectDBX Classes
 90
   -65536
280
     1
281
     0
  0
CLASS
  1
LWPOLYLINE
  2
AcDbPolyline
  3
AutoCAD 2000
 90
        0
280
     0
281
     1
  0
CLASS
  1
HATCH
  2
AcDbHatch
  3
AutoCAD 2000
 90
        0
280
     0
281
     1
  0
CLASS
  1
XRECORD
  2
AcDbXrecord
  3
AutoCAD 2000
 90
        0
280
     0
281
     0
  0
CLASS
  1
LONG_TRANSACTION
  2
AcDbLongTransaction
  3
ObjectDBX Classes
 90
   -65536
280
     1
281
     0
  0
CLASS
  1
LWPOLYLINE
  2
AcDbPolyline
  3
AutoCAD 2000
 90
        0
280
     0
281
     1
  0
CLASS
  1
HATCH
  2
AcDbHatch
  3
AutoCAD 2000
 90
        0
280
     0
281
     1
  0
CLASS
  1
XRECORD
  2
AcDbXrecord
  3
AutoCAD 2000
 90
        0
280
     0
281
     0
  0
CLASS
  1
LONG_TRANSACTION
  2
AcDbLongTransaction
  3
ObjectDBX Classes
 90
   -65536
280
     1
281
     0
  0
CLASS
  1
LWPOLYLINE
  2
AcDbPolyline
  3
AutoCAD 2000
 90
        0
280
     0
281
     1
  0
CLASS
  1
HATCH
  2
AcDbHatch
  3
AutoCAD 2000
 90
        0
280
     0
281
     1
  0
CLASS
  1
XRECORD
  2
AcDbXrecord
  3
AutoCAD 2000
 90
        0
280
     0
281
     0
  0
CLASS
  1
LONG_TRANSACTION
  2
AcDbLongTransaction
  3
ObjectDBX Classes
 90
   -65536
280
     1
281
     0
  0
CLASS
  1
LWPOLYLINE
  2
AcDbPolyline
  3
AutoCAD 2000
 90
        0
280
     0
281
     1
  0
CLASS
  1
HATCH
  2
AcDbHatch
  3
AutoCAD 2000
 90
        0
280
     0
281
     1
  0
CLASS
  1
XRECORD
  2
AcDbXrecord
  3
AutoCAD 2000
 90
        0
280
     0
281
     0
  0
CLASS
  1
LONG_TRANSACTION
  2
AcDbLongTransaction
  3
ObjectDBX Classes
 90
   -65536
280
     1
281
     0
  0
CLASS
  1
LWPOLYLINE
  2
AcDbPolyline
  3
AutoCAD 2000
 90
        0
280
     0
281
     1
  0
CLASS
  1
HATCH
  2
AcDbHatch
  3
AutoCAD 2000
 90
        0
280
     0
281
     1
  0
CLASS
  1
XRECORD
  2
AcDbXrecord
  3
AutoCAD 2000
 90
        0
280
     0
281
     0
  0
CLASS
  1
TABLESTYLE
  2
AcDbTableStyle
  3
ObjectDBX Classes
 90
     2047
280
     1
281
     0
  0
ENDSEC
  0
SECTION
  2
TABLES
  0
TABLE
  2
VPORT
  5
1D
330
0
100
AcDbSymbolTable
 70
     3
  0
VPORT
  5
40F
330
1D
100
AcDbSymbolTableRecord
100
AcDbViewportTableRecord
  2
*Active
 70
     0
 10
0.0
 20
0.0
 11
1.0
 21
1.0
 12
4.710995540743021
 22
13.16901772320579
 13
0.0
 23
0.0
 14
0.063
 24
0.063
 15
0.25
 25
0.25
 16
0.0
 26
0.0
 36
1.0
 17
0.0
 27
0.0
 37
0.0
 40
35.75977652669705
 41
1.814583333333333
 42
50.0
 43
0.0
 44
0.0
 50
0.0
 51
0.0
 71
     0
 72
   100
 73
     1
 74
     1
 75
     0
 76
     0
 77
     0
 78
     0
281
     0
 65
     1
110
0.0
120
0.0
130
0.0
111
1.0
121
0.0
131
0.0
112
0.0
122
1.0
132
0.0
 79
     0
146
0.0
  0
ENDTAB
  0
TABLE
  2
LTYPE
  5
18
330
0
100
AcDbSymbolTable
 70
     2
  0
LTYPE
  5
19
330
18
100
AcDbSymbolTableRecord
100
AcDbLinetypeTableRecord
  2
BYBLOCK
 70
     0
  3

 72
    65
 73
     0
 40
0.0
  0
LTYPE
  5
1A
330
18
100
AcDbSymbolTableRecord
100
AcDbLinetypeTableRecord
  2
BYLAYER
 70
     0
  3

 72
    65
 73
     0
 40
0.0
  0
LTYPE
  5
A
330
18
100
AcDbSymbolTableRecord
100
AcDbLinetypeTableRecord
  2
CONTINUOUS
 70
     0
  3
Solid line
 72
    65
 73
     0
 40
0.0
  0
LTYPE
  5
2C0
330
18
100
AcDbSymbolTableRecord
100
AcDbLinetypeTableRecord
  2
HIDDEN
 70
     0
  3
_ _ _ _ _ _ _ _ _ _ _ _ _ _ _ _ _ _ _ _ _ _ _
 72
    65
 73
     2
 40
0.375
 49
0.25
 74
     0
 49
-0.125
 74
     0
  0
ENDTAB
  0
TABLE
  2
LAYER
  5
14
330
0
100
AcDbSymbolTable
 70
     1
  0
LAYER
  5
6
330
14
100
AcDbSymbolTableRecord
100
AcDbLayerTableRecord
  2
0
 70
     0
 62
     7
  6
CONTINUOUS
370
    -3
390
7
  0
ENDTAB
  0
TABLE
  2
STYLE
  5
15
330
0
100
AcDbSymbolTable
 70
     1
  0
STYLE
  5
16
330
15
100
AcDbSymbolTableRecord
100
AcDbTextStyleTableRecord
  2
STANDARD
 70
     0
 40
0.0
 41
1.0
 50
0.0
 71
     0
 42
0.36
  3
TXT
  4

  0
ENDTAB
  0
TABLE
  2
VIEW
  5
1B
330
0
100
AcDbSymbolTable
 70
     0
  0
ENDTAB
  0
TABLE
  2
UCS
  5
1C
330
0
100
AcDbSymbolTable
 70
     0
  0
ENDTAB
  0
TABLE
  2
APPID
  5
1F
330
0
100
AcDbSymbolTable
 70
     1
  0
APPID
  5
20
330
1F
100
AcDbSymbolTableRecord
100
AcDbRegAppTableRecord
  2
ACAD
 70
     0
  0
ENDTAB
  0
TABLE
  2
DIMSTYLE
  5
21
330
0
100
AcDbSymbolTable
 70
     1
100
AcDbDimStyleTable
  0
DIMSTYLE
105
28
330
21
100
AcDbSymbolTableRecord
100
AcDbDimStyleTableRecord
  2
STANDARD
 70
     0
  3

  4

340
16
  0
ENDTAB
  0
TABLE
  2
BLOCK_RECORD
  5
1
330
0
100
AcDbSymbolTable
 70
     0
  0
BLOCK_RECORD
  5
2
330
1
100
AcDbSymbolTableRecord
100
AcDbBlockTableRecord
  2
*MODEL_SPACE
340
C
  0
BLOCK_RECORD
  5
E
330
1
100
AcDbSymbolTableRecord
100
AcDbBlockTableRecord
  2
*PAPER_SPACE
340
13
  0
ENDTAB
  0
ENDSEC
  0
SECTION
  2
BLOCKS
  0
BLOCK
  5
5
330
2
100
AcDbEntity
  8
0
100
AcDbBlockBegin
  2
*MODEL_SPACE
 70
     0
 10
0.0
 20
0.0
 30
0.0
  3
*MODEL_SPACE
  1

  4

  0
ENDBLK
  5
B
330
2
100
AcDbEntity
  8
0
100
AcDbBlockEnd
  0
BLOCK
  5
11
330
E
100
AcDbEntity
 67
     1
  8
0
100
AcDbBlockBegin
  2
*PAPER_SPACE
 70
     0
 10
0.0
 20
0.0
 30
0.0
  3
*PAPER_SPACE
  1

  4

  0
ENDBLK
  5
12
330
E
100
AcDbEntity
 67
     1
  8
0
100
AcDbBlockEnd
  0
ENDSEC
  0
SECTION
  2
ENTITIES
  0
LINE
  5
171
330
2
100
AcDbEntity
  8
0
100
AcDbLine
 10
-12.55443145165967
 20
2.958302237643732
 30
0.0
 11
-12.55443145165967
 21
4.971250039661225
 31
0.0
  0
LINE
  5
172
330
2
100
AcDbEntity
  8
0
100
AcDbLine
 10
-11.17943145165967
 20
7.846250039661232
 30
0.0
 11
-11.17943145165967
 21
0.9022303545530868
 31
0.0
  0
LINE
  5
173
330
2
100
AcDbEntity
  8
0
100
AcDbLine
 10
-11.24193145165967
 20
7.846250039661232
 30
0.0
 11
-11.24193145165967
 21
0.9022303545530868
 31
0.0
  0
LINE
  5
174
330
2
100
AcDbEntity
  8
0
100
AcDbLine
 10
-14.31965076547144
 20
0.7212500396612249
 30
0.0
 11
-11.31965076547148
 21
0.7212500396612249
 31
0.0
  0
ARC
  5
175
330
2
100
AcDbEntity
  8
0
100
AcDbCircle
 10
-13.86693145165967
 20
0.5715114406699691
 30
0.0
 40
0.5
100
AcDbArc
 50
133.9949139947458
 51
154.8824237621769
  0
LINE
  5
176
330
2
100
AcDbEntity
  8
0
100
AcDbLine
 10
-14.31965076547144
 20
0.7837500396612249
 30
0.0
 11
-14.31965076547144
 21
0.7212500396612249
 31
0.0
  0
LINE
  5
178
330
2
100
AcDbEntity
  8
0
100
AcDbLine
 10
-12.8598369379601
 20
2.23890077702632
 30
0.0
 11
-14.21422870850945
 21
0.9312121709786716
 31
0.0
  0
LINE
  5
179
330
2
100
AcDbEntity
  8
0
100
AcDbLine
 10
-11.17943145165967
 20
0.9022303545530868
 30
0.0
 11
-11.24193145165967
 21
0.9022303545530868
 31
0.0
  0
LINE
  5
17A
330
2
100
AcDbEntity
  8
0
100
AcDbLine
 10
-11.31965076547148
 20
0.7837500396612249
 30
0.0
 11
-11.31965076547148
 21
0.7212500396612249
 31
0.0
  0
ARC
  5
17B
330
2
100
AcDbEntity
  8
0
100
AcDbCircle
 10
-10.86693145165967
 20
0.5715114406699691
 30
0.0
 40
0.5
100
AcDbArc
 50
138.5903778907218
 51
154.8824237621768
  0
ARC
  5
17C
330
2
100
AcDbEntity
  8
0
100
AcDbCircle
 10
-13.55443145165967
 20
2.958302237643732
 30
0.0
 40
1.0
100
AcDbArc
 50
313.9949139947459
 51
0.0
  0
ARC
  5
17E
330
2
100
AcDbEntity
  8
0
100
AcDbCircle
 10
-11.24193145165967
 20
2.650425915094683
 30
0.0
 40
0.1875000000000025
100
AcDbArc
 50
90.0
 51
270.0
  0
ARC
  5
17F
330
2
100
AcDbEntity
  8
0
100
AcDbCircle
 10
-12.39818145165967
 20
6.346250039661225
 30
0.0
 40
0.15625
100
AcDbArc
 50
180.0000000000001
 51
270.0
  0
ARC
  5
180
330
2
100
AcDbEntity
  8
0
100
AcDbCircle
 10
-12.39818145165967
 20
4.971250039661225
 30
0.0
 40
0.15625
100
AcDbArc
 50
90.0
 51
180.0
  0
LINE
  5
182
330
2
100
AcDbEntity
  8
0
100
AcDbLine
 10
-12.24193145165967
 20
5.283750039661225
 30
0.0
 11
-12.24193145165967
 21
6.033750039661225
 31
0.0
  0
ARC
  5
183
330
2
100
AcDbEntity
  8
0
100
AcDbCircle
 10
-12.39818145165967
 20
5.283750039661225
 30
0.0
 40
0.15625
100
AcDbArc
 50
270.0000000000001
 51
0.0
  0
LINE
  5
184
330
2
100
AcDbEntity
  8
0
100
AcDbLine
 10
-12.39818145165967
 20
5.127500039661225
 30
0.0
 11
-12.39818145165967
 21
5.127500039661225
 31
0.0
  0
ARC
  5
185
330
2
100
AcDbEntity
  8
0
100
AcDbCircle
 10
-12.39818145165967
 20
6.033750039661225
 30
0.0
 40
0.15625
100
AcDbArc
 50
0.0
 51
90.0
  0
LINE
  5
186
330
2
100
AcDbEntity
  8
0
100
AcDbLine
 10
-12.39818145165967
 20
6.190000039661225
 30
0.0
 11
-12.39818145165967
 21
6.190000039661225
 31
0.0
  0
LINE
  5
187
330
2
100
AcDbEntity
  8
0
100
AcDbLine
 10
-11.17943145165967
 20
7.846250039661225
 30
0.0
 11
-12.24193145165967
 21
7.846250039661225
 31
0.0
  0
LINE
  5
188
330
2
100
AcDbEntity
  8
0
100
AcDbLine
 10
-12.24193145165967
 20
7.158750039661225
 30
0.0
 11
-12.24193145165966
 21
7.846250039661225
 31
0.0
  0
ARC
  5
189
330
2
100
AcDbEntity
  8
0
100
AcDbCircle
 10
-12.39818145165967
 20
6.846250039661225
 30
0.0
 40
0.15625
100
AcDbArc
 50
90.0
 51
180.0
  0
LINE
  5
18A
330
2
100
AcDbEntity
  8
0
100
AcDbLine
 10
-12.55443145165967
 20
6.346250039661225
 30
0.0
 11
-12.55443145165967
 21
6.846250039661225
 31
0.0
  0
ARC
  5
18C
330
2
100
AcDbEntity
  8
0
100
AcDbCircle
 10
-12.39818145165967
 20
7.158750039661225
 30
0.0
 40
0.15625
100
AcDbArc
 50
270.0000000000001
 51
0.0
  0
LINE
  5
18D
330
2
100
AcDbEntity
  8
0
100
AcDbLine
 10
-12.39818145165967
 20
7.002500039661225
 30
0.0
 11
-12.39818145165967
 21
7.002500039661225
 31
0.0
  0
LINE
  5
20E
330
2
100
AcDbEntity
  8
0
100
AcDbLine
 10
-12.23689578231981
 20
1.273668154288291
 30
0.0
 11
-12.23689578231981
 21
1.550343154288296
 31
0.0
  0
LWPOLYLINE
  5
210
330
2
100
AcDbEntity
  8
0
100
AcDbPolyline
 90
        9
 70
     0
 43
0.0
 10
-12.23689578231982
 20
1.273668154288291
 42
0.0700628980345364
 10
-12.15777697851977
 20
1.284809430057162
 42
0.0818514225363451
 10
-12.09588066039333
 20
1.314186269945896
 42
0.1069100077216601
 10
-12.05128250932783
 20
1.361933182700927
 42
0.135394011665182
 10
-12.03747028439168
 20
1.41200565428829
 42
0.1353940116651818
 10
-12.05128250932783
 20
1.46207812587566
 42
0.1069100077216599
 10
-12.09588066039333
 20
1.509825038630684
 42
0.0818514225363446
 10
-12.15777697851977
 20
1.539201878519425
 42
0.0700628980345367
 10
-12.23689578231982
 20
1.550343154288296
 42
0.0700628980345371
  0
LINE
  5
212
330
2
100
AcDbEntity
  8
0
100
AcDbLine
 10
-12.23689578231981
 20
3.022386480841792
 30
0.0
 11
-12.23689578231981
 21
3.299061480841797
 31
0.0
  0
LWPOLYLINE
  5
214
330
2
100
AcDbEntity
  8
0
100
AcDbPolyline
 90
        9
 70
     0
 43
0.0
 10
-12.23689578231982
 20
3.022386480841792
 42
0.0700628980345364
 10
-12.15777697851977
 20
3.033527756610663
 42
0.0818514225363451
 10
-12.09588066039333
 20
3.062904596499397
 42
0.1069100077216601
 10
-12.05128250932783
 20
3.110651509254428
 42
0.135394011665182
 10
-12.03747028439168
 20
3.160723980841791
 42
0.1353940116651818
 10
-12.05128250932783
 20
3.210796452429161
 42
0.1069100077216599
 10
-12.09588066039333
 20
3.258543365184185
 42
0.0818514225363446
 10
-12.15777697851977
 20
3.287920205072926
 42
0.0700628980345367
 10
-12.23689578231982
 20
3.299061480841797
 42
0.0700628980345371
  0
LINE
  5
216
330
2
100
AcDbEntity
  8
0
100
AcDbLine
 10
-12.23689578231981
 20
4.139642685726845
 30
0.0
 11
-12.23689578231981
 21
4.416317685726849
 31
0.0
  0
LWPOLYLINE
  5
218
330
2
100
AcDbEntity
  8
0
100
AcDbPolyline
 90
        9
 70
     0
 43
0.0
 10
-12.23689578231982
 20
4.139642685726845
 42
0.0700628980345364
 10
-12.15777697851977
 20
4.150783961495716
 42
0.0818514225363451
 10
-12.09588066039333
 20
4.180160801384449
 42
0.1069100077216601
 10
-12.05128250932783
 20
4.22790771413948
 42
0.135394011665182
 10
-12.03747028439168
 20
4.277980185726843
 42
0.1353940116651818
 10
-12.05128250932783
 20
4.328052657314213
 42
0.1069100077216599
 10
-12.09588066039333
 20
4.375799570069237
 42
0.0818514225363446
 10
-12.15777697851977
 20
4.405176409957978
 42
0.0700628980345367
 10
-12.23689578231982
 20
4.416317685726849
 42
0.0700628980345371
  0
LINE
  5
21A
330
2
100
AcDbEntity
  8
0
100
AcDbLine
 10
-12.23689578231981
 20
6.517218858199502
 30
0.0
 11
-12.23689578231981
 21
6.793893858199507
 31
0.0
  0
LWPOLYLINE
  5
21C
330
2
100
AcDbEntity
  8
0
100
AcDbPolyline
 90
        9
 70
     0
 43
0.0
 10
-12.23689578231982
 20
6.517218858199502
 42
0.0700628980345364
 10
-12.15777697851977
 20
6.528360133968373
 42
0.0818514225363451
 10
-12.09588066039333
 20
6.557736973857107
 42
0.1069100077216601
 10
-12.05128250932783
 20
6.605483886612138
 42
0.135394011665182
 10
-12.03747028439168
 20
6.655556358199501
 42
0.1353940116651818
 10
-12.05128250932783
 20
6.705628829786871
 42
0.1069100077216599
 10
-12.09588066039333
 20
6.753375742541895
 42
0.0818514225363446
 10
-12.15777697851977
 20
6.782752582430636
 42
0.0700628980345367
 10
-12.23689578231982
 20
6.793893858199507
 42
0.0700628980345371
  0
ARC
  5
21E
330
2
100
AcDbEntity
  8
0
100
AcDbCircle
 10
-12.23689578231982
 20
1.349801927355028
 30
0.0
 40
0.0468087730667364
100
AcDbArc
 50
270.0000000000044
 51
302.607921015198
  0
ARC
  5
21F
330
2
100
AcDbEntity
  8
0
100
AcDbCircle
 10
-12.2559382866116
 20
1.379568794099111
 30
0.0
 40
0.0821454866301448
100
AcDbArc
 50
302.607921015195
 51
327.0773280975502
  0
ARC
  5
220
330
2
100
AcDbEntity
  8
0
100
AcDbCircle
 10
-12.28619619792465
 20
1.399160503095381
 30
0.0
 40
0.1181923486076141
100
AcDbArc
 50
327.0773280975463
 51
344.9866289979987
  0
ARC
  5
221
330
2
100
AcDbEntity
  8
0
100
AcDbCircle
 10
-12.33409024425798
 20
1.41200565428829
 30
0.0
 40
0.1677790160026763
100
AcDbArc
 50
344.9866289980054
 51
0.0000000000024265
  0
ARC
  5
222
330
2
100
AcDbEntity
  8
0
100
AcDbCircle
 10
-12.33409024425795
 20
1.412005654288304
 30
0.0
 40
0.167779016002644
100
AcDbArc
 50
359.9999999999976
 51
15.0133710019951
  0
ARC
  5
223
330
2
100
AcDbEntity
  8
0
100
AcDbCircle
 10
-12.28619619792464
 20
1.42485080548121
 30
0.0
 40
0.11819234860761
100
AcDbArc
 50
15.0133710020001
 51
32.92267190245313
  0
ARC
  5
224
330
2
100
AcDbEntity
  8
0
100
AcDbCircle
 10
-12.2559382866116
 20
1.444442514477476
 30
0.0
 40
0.0821454866301446
100
AcDbArc
 50
32.92267190244989
 51
57.39207898480503
  0
ARC
  5
225
330
2
100
AcDbEntity
  8
0
100
AcDbCircle
 10
-12.23689578231982
 20
1.474209381221559
 30
0.0
 40
0.0468087730667357
100
AcDbArc
 50
57.39207898480197
 51
89.99999999999565
  0
ARC
  5
226
330
2
100
AcDbEntity
  8
0
100
AcDbCircle
 10
-12.23689578231982
 20
1.364371404911378
 30
0.0
 40
0.0320532506230862
100
AcDbArc
 50
270.0000000000064
 51
303.5108229556791
  0
ARC
  5
227
330
2
100
AcDbEntity
  8
0
100
AcDbCircle
 10
-12.25197080088361
 20
1.387137928526009
 30
0.0
 40
0.0593583926698537
100
AcDbArc
 50
303.5108229556726
 51
327.9718933333935
  0
ARC
  5
228
330
2
100
AcDbEntity
  8
0
100
AcDbCircle
 10
-12.27597422640729
 20
1.40215331114781
 30
0.0
 40
0.0876713959042334
100
AcDbArc
 50
327.9718933333754
 51
345.4734521831862
  0
ARC
  5
229
330
2
100
AcDbEntity
  8
0
100
AcDbCircle
 10
-12.31399772158342
 20
1.412005654288269
 30
0.0
 40
0.126950586969819
100
AcDbArc
 50
345.4734521832155
 51
0.0000000000128274
  0
ARC
  5
22A
330
2
100
AcDbEntity
  8
0
100
AcDbCircle
 10
-12.3139977215834
 20
1.412005654288318
 30
0.0
 40
0.1269505869697944
100
AcDbArc
 50
359.9999999999904
 51
14.52654781678728
  0
ARC
  5
22B
330
2
100
AcDbEntity
  8
0
100
AcDbCircle
 10
-12.27597422640729
 20
1.421857997428781
 30
0.0
 40
0.0876713959042287
100
AcDbArc
 50
14.5265478168122
 51
32.02810666662388
  0
ARC
  5
22C
330
2
100
AcDbEntity
  8
0
100
AcDbCircle
 10
-12.25197080088361
 20
1.436873380050578
 30
0.0
 40
0.0593583926698542
100
AcDbArc
 50
32.0281066666065
 51
56.48917704432745
  0
ARC
  5
22D
330
2
100
AcDbEntity
  8
0
100
AcDbCircle
 10
-12.23689578231982
 20
1.459639903665206
 30
0.0
 40
0.0320532506230895
100
AcDbArc
 50
56.48917704432444
 51
89.99999999999365
  0
ARC
  5
22E
330
2
100
AcDbEntity
  8
0
100
AcDbCircle
 10
-12.23689578231982
 20
3.113089731464878
 30
0.0
 40
0.0320532506230862
100
AcDbArc
 50
270.0000000000064
 51
303.5108229556791
  0
ARC
  5
22F
330
2
100
AcDbEntity
  8
0
100
AcDbCircle
 10
-12.25197080088361
 20
3.13585625507951
 30
0.0
 40
0.0593583926698537
100
AcDbArc
 50
303.5108229556726
 51
327.9718933333935
  0
ARC
  5
230
330
2
100
AcDbEntity
  8
0
100
AcDbCircle
 10
-12.27597422640729
 20
3.150871637701311
 30
0.0
 40
0.0876713959042334
100
AcDbArc
 50
327.9718933333754
 51
345.4734521831862
  0
ARC
  5
231
330
2
100
AcDbEntity
  8
0
100
AcDbCircle
 10
-12.31399772158342
 20
3.16072398084177
 30
0.0
 40
0.126950586969819
100
AcDbArc
 50
345.4734521832155
 51
0.0000000000128274
  0
ARC
  5
232
330
2
100
AcDbEntity
  8
0
100
AcDbCircle
 10
-12.3139977215834
 20
3.160723980841819
 30
0.0
 40
0.1269505869697944
100
AcDbArc
 50
359.9999999999904
 51
14.52654781678728
  0
ARC
  5
233
330
2
100
AcDbEntity
  8
0
100
AcDbCircle
 10
-12.27597422640729
 20
3.170576323982282
 30
0.0
 40
0.0876713959042287
100
AcDbArc
 50
14.5265478168122
 51
32.02810666662388
  0
ARC
  5
234
330
2
100
AcDbEntity
  8
0
100
AcDbCircle
 10
-12.25197080088361
 20
3.185591706604079
 30
0.0
 40
0.0593583926698542
100
AcDbArc
 50
32.0281066666065
 51
56.48917704432745
  0
ARC
  5
235
330
2
100
AcDbEntity
  8
0
100
AcDbCircle
 10
-12.23689578231982
 20
3.208358230218707
 30
0.0
 40
0.0320532506230895
100
AcDbArc
 50
56.48917704432444
 51
89.99999999999365
  0
ARC
  5
236
330
2
100
AcDbEntity
  8
0
100
AcDbCircle
 10
-12.23689578231982
 20
3.098520253908529
 30
0.0
 40
0.0468087730667364
100
AcDbArc
 50
270.0000000000044
 51
302.607921015198
  0
ARC
  5
237
330
2
100
AcDbEntity
  8
0
100
AcDbCircle
 10
-12.2559382866116
 20
3.128287120652612
 30
0.0
 40
0.0821454866301448
100
AcDbArc
 50
302.607921015195
 51
327.0773280975502
  0
ARC
  5
238
330
2
100
AcDbEntity
  8
0
100
AcDbCircle
 10
-12.28619619792465
 20
3.147878829648882
 30
0.0
 40
0.1181923486076141
100
AcDbArc
 50
327.0773280975463
 51
344.9866289979987
  0
ARC
  5
239
330
2
100
AcDbEntity
  8
0
100
AcDbCircle
 10
-12.33409024425798
 20
3.160723980841791
 30
0.0
 40
0.1677790160026763
100
AcDbArc
 50
344.9866289980054
 51
0.0000000000024265
  0
ARC
  5
23A
330
2
100
AcDbEntity
  8
0
100
AcDbCircle
 10
-12.33409024425795
 20
3.160723980841805
 30
0.0
 40
0.167779016002644
100
AcDbArc
 50
359.9999999999976
 51
15.0133710019951
  0
ARC
  5
23B
330
2
100
AcDbEntity
  8
0
100
AcDbCircle
 10
-12.28619619792464
 20
3.173569132034711
 30
0.0
 40
0.11819234860761
100
AcDbArc
 50
15.0133710020001
 51
32.92267190245313
  0
ARC
  5
23C
330
2
100
AcDbEntity
  8
0
100
AcDbCircle
 10
-12.2559382866116
 20
3.193160841030977
 30
0.0
 40
0.0821454866301446
100
AcDbArc
 50
32.92267190244989
 51
57.39207898480503
  0
ARC
  5
23D
330
2
100
AcDbEntity
  8
0
100
AcDbCircle
 10
-12.23689578231982
 20
3.22292770777506
 30
0.0
 40
0.0468087730667357
100
AcDbArc
 50
57.39207898480197
 51
89.99999999999565
  0
ARC
  5
23E
330
2
100
AcDbEntity
  8
0
100
AcDbCircle
 10
-12.23689578231982
 20
4.230345936349931
 30
0.0
 40
0.0320532506230862
100
AcDbArc
 50
270.0000000000064
 51
303.5108229556791
  0
ARC
  5
23F
330
2
100
AcDbEntity
  8
0
100
AcDbCircle
 10
-12.25197080088361
 20
4.253112459964562
 30
0.0
 40
0.0593583926698537
100
AcDbArc
 50
303.5108229556726
 51
327.9718933333935
  0
ARC
  5
240
330
2
100
AcDbEntity
  8
0
100
AcDbCircle
 10
-12.27597422640729
 20
4.268127842586363
 30
0.0
 40
0.0876713959042334
100
AcDbArc
 50
327.9718933333754
 51
345.4734521831862
  0
ARC
  5
241
330
2
100
AcDbEntity
  8
0
100
AcDbCircle
 10
-12.31399772158342
 20
4.277980185726822
 30
0.0
 40
0.126950586969819
100
AcDbArc
 50
345.4734521832155
 51
0.0000000000128274
  0
ARC
  5
242
330
2
100
AcDbEntity
  8
0
100
AcDbCircle
 10
-12.3139977215834
 20
4.277980185726872
 30
0.0
 40
0.1269505869697944
100
AcDbArc
 50
359.9999999999904
 51
14.52654781678728
  0
ARC
  5
243
330
2
100
AcDbEntity
  8
0
100
AcDbCircle
 10
-12.27597422640729
 20
4.287832528867334
 30
0.0
 40
0.0876713959042287
100
AcDbArc
 50
14.5265478168122
 51
32.02810666662388
  0
ARC
  5
244
330
2
100
AcDbEntity
  8
0
100
AcDbCircle
 10
-12.25197080088361
 20
4.302847911489131
 30
0.0
 40
0.0593583926698542
100
AcDbArc
 50
32.0281066666065
 51
56.48917704432745
  0
ARC
  5
245
330
2
100
AcDbEntity
  8
0
100
AcDbCircle
 10
-12.23689578231982
 20
4.325614435103759
 30
0.0
 40
0.0320532506230895
100
AcDbArc
 50
56.48917704432444
 51
89.99999999999365
  0
ARC
  5
246
330
2
100
AcDbEntity
  8
0
100
AcDbCircle
 10
-12.23689578231982
 20
4.215776458793581
 30
0.0
 40
0.0468087730667364
100
AcDbArc
 50
270.0000000000044
 51
302.607921015198
  0
ARC
  5
247
330
2
100
AcDbEntity
  8
0
100
AcDbCircle
 10
-12.2559382866116
 20
4.245543325537664
 30
0.0
 40
0.0821454866301448
100
AcDbArc
 50
302.607921015195
 51
327.0773280975502
  0
ARC
  5
248
330
2
100
AcDbEntity
  8
0
100
AcDbCircle
 10
-12.28619619792465
 20
4.265135034533934
 30
0.0
 40
0.1181923486076141
100
AcDbArc
 50
327.0773280975463
 51
344.9866289979987
  0
ARC
  5
249
330
2
100
AcDbEntity
  8
0
100
AcDbCircle
 10
-12.33409024425798
 20
4.277980185726843
 30
0.0
 40
0.1677790160026763
100
AcDbArc
 50
344.9866289980054
 51
0.0000000000024265
  0
ARC
  5
24A
330
2
100
AcDbEntity
  8
0
100
AcDbCircle
 10
-12.33409024425795
 20
4.277980185726857
 30
0.0
 40
0.167779016002644
100
AcDbArc
 50
359.9999999999976
 51
15.0133710019951
  0
ARC
  5
24B
330
2
100
AcDbEntity
  8
0
100
AcDbCircle
 10
-12.28619619792464
 20
4.290825336919763
 30
0.0
 40
0.11819234860761
100
AcDbArc
 50
15.0133710020001
 51
32.92267190245313
  0
ARC
  5
24C
330
2
100
AcDbEntity
  8
0
100
AcDbCircle
 10
-12.2559382866116
 20
4.310417045916029
 30
0.0
 40
0.0821454866301446
100
AcDbArc
 50
32.92267190244989
 51
57.39207898480503
  0
ARC
  5
24D
330
2
100
AcDbEntity
  8
0
100
AcDbCircle
 10
-12.23689578231982
 20
4.340183912660113
 30
0.0
 40
0.0468087730667357
100
AcDbArc
 50
57.39207898480197
 51
89.99999999999565
  0
ARC
  5
24E
330
2
100
AcDbEntity
  8
0
100
AcDbCircle
 10
-12.23689578231982
 20
6.607922108822589
 30
0.0
 40
0.0320532506230862
100
AcDbArc
 50
270.0000000000064
 51
303.5108229556791
  0
ARC
  5
24F
330
2
100
AcDbEntity
  8
0
100
AcDbCircle
 10
-12.25197080088361
 20
6.63068863243722
 30
0.0
 40
0.0593583926698537
100
AcDbArc
 50
303.5108229556726
 51
327.9718933333935
  0
ARC
  5
250
330
2
100
AcDbEntity
  8
0
100
AcDbCircle
 10
-12.27597422640729
 20
6.645704015059021
 30
0.0
 40
0.0876713959042334
100
AcDbArc
 50
327.9718933333754
 51
345.4734521831862
  0
ARC
  5
251
330
2
100
AcDbEntity
  8
0
100
AcDbCircle
 10
-12.31399772158342
 20
6.65555635819948
 30
0.0
 40
0.126950586969819
100
AcDbArc
 50
345.4734521832155
 51
0.0000000000128274
  0
ARC
  5
252
330
2
100
AcDbEntity
  8
0
100
AcDbCircle
 10
-12.3139977215834
 20
6.655556358199529
 30
0.0
 40
0.1269505869697944
100
AcDbArc
 50
359.9999999999904
 51
14.52654781678728
  0
ARC
  5
253
330
2
100
AcDbEntity
  8
0
100
AcDbCircle
 10
-12.27597422640729
 20
6.665408701339992
 30
0.0
 40
0.0876713959042287
100
AcDbArc
 50
14.5265478168122
 51
32.02810666662388
  0
ARC
  5
254
330
2
100
AcDbEntity
  8
0
100
AcDbCircle
 10
-12.25197080088361
 20
6.680424083961789
 30
0.0
 40
0.0593583926698542
100
AcDbArc
 50
32.0281066666065
 51
56.48917704432745
  0
ARC
  5
255
330
2
100
AcDbEntity
  8
0
100
AcDbCircle
 10
-12.23689578231982
 20
6.703190607576417
 30
0.0
 40
0.0320532506230895
100
AcDbArc
 50
56.48917704432444
 51
89.99999999999365
  0
ARC
  5
256
330
2
100
AcDbEntity
  8
0
100
AcDbCircle
 10
-12.23689578231982
 20
6.593352631266239
 30
0.0
 40
0.0468087730667364
100
AcDbArc
 50
270.0000000000044
 51
302.607921015198
  0
ARC
  5
257
330
2
100
AcDbEntity
  8
0
100
AcDbCircle
 10
-12.2559382866116
 20
6.623119498010322
 30
0.0
 40
0.0821454866301448
100
AcDbArc
 50
302.607921015195
 51
327.0773280975502
  0
ARC
  5
258
330
2
100
AcDbEntity
  8
0
100
AcDbCircle
 10
-12.28619619792465
 20
6.642711207006592
 30
0.0
 40
0.1181923486076141
100
AcDbArc
 50
327.0773280975463
 51
344.9866289979987
  0
ARC
  5
259
330
2
100
AcDbEntity
  8
0
100
AcDbCircle
 10
-12.33409024425798
 20
6.655556358199501
 30
0.0
 40
0.1677790160026763
100
AcDbArc
 50
344.9866289980054
 51
0.0000000000024265
  0
ARC
  5
25A
330
2
100
AcDbEntity
  8
0
100
AcDbCircle
 10
-12.33409024425795
 20
6.655556358199515
 30
0.0
 40
0.167779016002644
100
AcDbArc
 50
359.9999999999976
 51
15.0133710019951
  0
ARC
  5
25B
330
2
100
AcDbEntity
  8
0
100
AcDbCircle
 10
-12.28619619792464
 20
6.668401509392421
 30
0.0
 40
0.11819234860761
100
AcDbArc
 50
15.0133710020001
 51
32.92267190245313
  0
ARC
  5
25C
330
2
100
AcDbEntity
  8
0
100
AcDbCircle
 10
-12.2559382866116
 20
6.687993218388687
 30
0.0
 40
0.0821454866301446
100
AcDbArc
 50
32.92267190244989
 51
57.39207898480503
  0
ARC
  5
25D
330
2
100
AcDbEntity
  8
0
100
AcDbCircle
 10
-12.23689578231982
 20
6.71776008513277
 30
0.0
 40
0.0468087730667357
100
AcDbArc
 50
57.39207898480197
 51
89.99999999999565
  0
LINE
  5
3FD
330
2
100
AcDbEntity
  8
0
  6
HIDDEN
100
AcDbLine
 10
-14.31965076547147
 20
0.7837500396612285
 30
0.0
 11
-11.31965076547148
 21
0.7837500396612285
 31
0.0
  0
ENDSEC
  0
SECTION
  2
OBJECTS
  0
DICTIONARY
  5
9
330
0
100
AcDbDictionary
281
     1
  3
ACAD_COLOR
350
3EC
  3
ACAD_GROUP
350
23
  3
ACAD_LAYOUT
350
D
  3
ACAD_MATERIAL
350
3EB
  3
ACAD_MLINESTYLE
350
24
  3
ACAD_PLOTSETTINGS
350
25
  3
ACAD_PLOTSTYLENAME
350
8
  3
ACAD_TABLESTYLE
350
3ED
  3
ACDBHEADERROUNDTRIPXREC
350
416
  3
AcDbVariableDictionary
350
E8
  0
DICTIONARY
  5
3EC
102
{ACAD_REACTORS
330
9
102
}
330
9
100
AcDbDictionary
281
     1
  0
DICTIONARY
  5
23
102
{ACAD_REACTORS
330
9
102
}
330
9
100
AcDbDictionary
281
     1
  0
DICTIONARY
  5
D
102
{ACAD_REACTORS
330
9
102
}
330
9
100
AcDbDictionary
281
     1
  3
Layout1
350
13
  3
Model
350
C
  0
DICTIONARY
  5
3EB
102
{ACAD_REACTORS
330
9
102
}
330
9
100
AcDbDictionary
281
     1
  0
DICTIONARY
  5
24
102
{ACAD_REACTORS
330
9
102
}
330
9
100
AcDbDictionary
281
     1
  3
STANDARD
350
27
  0
DICTIONARY
  5
25
102
{ACAD_REACTORS
330
9
102
}
330
9
100
AcDbDictionary
281
     1
  0
ACDBDICTIONARYWDFLT
  5
8
102
{ACAD_REACTORS
330
9
102
}
330
9
100
AcDbDictionary
281
     1
  3
Normal
350
7
100
AcDbDictionaryWithDefault
340
7
  0
DICTIONARY
  5
3ED
102
{ACAD_REACTORS
330
9
102
}
330
9
100
AcDbDictionary
281
     1
  3
Standard
350
3EE
  0
DICTIONARY
  5
416
102
{ACAD_REACTORS
330
9
102
}
330
9
100
AcDbDictionary
281
     1
  3
COLORDICT
350
417
  3
MATERIALDICT
350
418
  0
DICTIONARY
  5
E8
102
{ACAD_REACTORS
330
9
102
}
330
9
100
AcDbDictionary
281
     1
  3
CTABLESTYLE
350
404
  3
HIDETEXT
350
415
  0
LAYOUT
  5
13
102
{ACAD_REACTORS
330
D
102
}
102
{ACAD_XDICTIONARY
360
419
102
}
330
D
100
AcDbPlotSettings
  1

  2
HP LaserJet 2100 Series PS
  4

  6

 40
0.0
 41
0.0
 42
0.0
 43
0.0
 44
0.0
 45
0.0
 46
0.0
 47
0.0
 48
0.0
 49
0.0
140
0.0
141
0.0
142
1.0
143
1.0
 70
   688
 72
     0
 73
     0
 74
     5
  7

 75
    16
147
1.0
148
0.0
149
0.0
100
AcDbLayout
  1
Layout1
 70
     0
 71
     1
 10
0.0
 20
0.0
 11
12.0
 21
9.0
 12
0.0
 22
0.0
 32
0.0
 14
1.000000000000000E+20
 24
1.000000000000000E+20
 34
1.000000000000000E+20
 15
-1.000000000000000E+20
 25
-1.000000000000000E+20
 35
-1.000000000000000E+20
146
0.0
 13
0.0
 23
0.0
 33
0.0
 16
1.0
 26
0.0
 36
0.0
 17
0.0
 27
1.0
 37
0.0
 76
     0
330
E
  0
LAYOUT
  5
C
102
{ACAD_REACTORS
330
D
102
}
102
{ACAD_XDICTIONARY
360
41B
102
}
330
D
100
AcDbPlotSettings
  1

  2
HP LaserJet 2100 Series PS
  4
Letter
  6

 40
5.365749835968018
 41
5.408084392547607
 42
5.4080810546875
 43
5.365753173828125
 44
215.8999938964844
 45
279.3999938964844
 46
0.0
 47
0.0
 48
0.0
 49
0.0
140
0.0
141
0.0
142
1.0
143
1.0
 70
 11952
 72
     0
 73
     1
 74
     0
  7

 75
     0
147
1.0
148
-337.5132176879018
149
24.59964501664816
100
AcDbLayout
  1
Model
 70
     1
 71
     0
 10
0.0
 20
0.0
 11
12.0
 21
9.0
 12
0.0
 22
0.0
 32
0.0
 14
0.0
 24
0.0
 34
0.0
 15
0.0
 25
0.0
 35
0.0
146
0.0
 13
0.0
 23
0.0
 33
0.0
 16
1.0
 26
0.0
 36
0.0
 17
0.0
 27
1.0
 37
0.0
 76
     0
330
2
  0
MLINESTYLE
  5
27
102
{ACAD_REACTORS
330
24
102
}
330
24
100
AcDbMlineStyle
  2
STANDARD
 70
     0
  3

 62
   256
 51
90.0
 52
90.0
 71
     2
 49
0.5
 62
   256
  6
BYLAYER
 49
-0.5
 62
   256
  6
BYLAYER
  0
ACDBPLACEHOLDER
  5
7
102
{ACAD_REACTORS
330
8
102
}
330
8
  0
ACAD_PROXY_OBJECT
  5
3EE
102
{ACAD_REACTORS
330
3ED
102
}
330
3ED
100
AcDbProxyObject
 90
      499
 91
      538
 95
   983063
 70
     0
 93
     1841
310
4214DD185B99185C9928B81E85EB51B8AE3F2E07A17AD46E2B8FC02B5E8DC0F42B1CFD028000000C1008070000C3001FDFF8000000C1003FBFF000000182007F7FE00000030400FEFFC00000060801FDFF8000000C1003FBFF00000018200000000000000681FA0B0000001820100E000186003FBFF000000182007F7FE000
310
00030400FEFFC00000060801FDFF8000000C1003FBFF000000182007F7FE000000304000AD7A3703D0AC73F4160000003040201C00030C007F7FE00000030400FEFFC00000060801FDFF8000000C1003FBFF000000182007F7FE00000030400FEFFC000000608000
340
16
340
16
340
16
 94
        0
  0
XRECORD
  5
417
102
{ACAD_REACTORS
330
416
102
}
330
416
100
AcDbXrecord
340
3EC
  0
XRECORD
  5
418
102
{ACAD_REACTORS
330
416
102
}
330
416
100
AcDbXrecord
340
3EB
  0
DICTIONARYVAR
  5
404
102
{ACAD_REACTORS
330
E8
102
}
330
E8
100
DictionaryVariables
280
     0
  1
STANDARD
  0
DICTIONARYVAR
  5
415
102
{ACAD_REACTORS
330
E8
102
}
330
E8
100
DictionaryVariables
280
     0
  1
0
  0
DICTIONARY
  5
419
330
13
100
AcDbDictionary
280
     1
281
     1
  3
ACAD_XREC_ROUNDTRIP
360
41A
  0
DICTIONARY
  5
41B
330
C
100
AcDbDictionary
280
     1
281
     1
  3
ACAD_XREC_ROUNDTRIP
360
41C
  0
XRECORD
  5
41A
102
{ACAD_REACTORS
330
419
102
}
330
419
100
AcDbXrecord
102
SHADEPLOT
 70
     0
102
SHADEPLOTRESLEVEL
 70
     2
102
SHADEPLOTCUSTOMDPI
 70
   300
  0
XRECORD
  5
41C
102
{ACAD_REACTORS
330
41B
102
}
330
41B
100
AcDbXrecord
102
SHADEPLOT
 70
     0
102
SHADEPLOTRESLEVEL
 70
     2
102
SHADEPLOTCUSTOMDPI
 70
   300
  0
ENDSEC
  0
EOF
