  0
SECTION
  2
HEADER
  9
$ACADVER
  1
AC1015
  9
$ACADMAINTVER
 70
     6
  9
$DWGCODEPAGE
  3
ANSI_1252
  9
$INSBASE
 10
0.0
 20
0.0
 30
0.0
  9
$EXTMIN
 10
-21.98916685068863
 20
-0.0608266451279657
 30
0.0
  9
$EXTMAX
 10
1.183521921295863
 20
15.43613236105029
 30
0.0
  9
$LIMMIN
 10
0.0
 20
0.0
  9
$LIMMAX
 10
42.0
 20
32.0
  9
$ORTHOMODE
 70
     0
  9
$REGENMODE
 70
     1
  9
$FILLMODE
 70
     1
  9
$QTEXTMODE
 70
     0
  9
$MIRRTEXT
 70
     1
  9
$LTSCALE
 40
0.5
  9
$ATTMODE
 70
     1
  9
$TEXTSIZE
 40
0.36
  9
$TRACEWID
 40
0.05
  9
$TEXTSTYLE
  7
STANDARD
  9
$CLAYER
  8
0
  9
$CELTYPE
  6
BYLAYER
  9
$CECOLOR
 62
   256
  9
$CELTSCALE
 40
1.0
  9
$DISPSILH
 70
     0
  9
$DIMSCALE
 40
4.0
  9
$DIMASZ
 40
0.125
  9
$DIMEXO
 40
0.062
  9
$DIMDLI
 40
0.375
  9
$DIMRND
 40
0.0
  9
$DIMDLE
 40
0.0
  9
$DIMEXE
 40
0.08
  9
$DIMTP
 40
0.0
  9
$DIMTM
 40
0.0
  9
$DIMTXT
 40
0.09
  9
$DIMCEN
 40
-0.06
  9
$DIMTSZ
 40
0.0
  9
$DIMTOL
 70
     0
  9
$DIMLIM
 70
     0
  9
$DIMTIH
 70
     1
  9
$DIMTOH
 70
     1
  9
$DIMSE1
 70
     0
  9
$DIMSE2
 70
     0
  9
$DIMTAD
 70
     0
  9
$DIMZIN
 70
     0
  9
$DIMBLK
  1

  9
$DIMASO
 70
     0
  9
$DIMSHO
 70
     0
  9
$DIMPOST
  1

  9
$DIMAPOST
  1

  9
$DIMALT
 70
     0
  9
$DIMALTD
 70
     2
  9
$DIMALTF
 40
25.4
  9
$DIMLFAC
 40
1.0
  9
$DIMTOFL
 70
     0
  9
$DIMTVP
 40
0.0
  9
$DIMTIX
 70
     0
  9
$DIMSOXD
 70
     0
  9
$DIMSAH
 70
     0
  9
$DIMBLK1
  1

  9
$DIMBLK2
  1

  9
$DIMSTYLE
  2
STANDARD
  9
$DIMCLRD
 70
     0
  9
$DIMCLRE
 70
     0
  9
$DIMCLRT
 70
     0
  9
$DIMTFAC
 40
1.0
  9
$DIMGAP
 40
0.09
  9
$DIMJUST
 70
     0
  9
$DIMSD1
 70
     0
  9
$DIMSD2
 70
     0
  9
$DIMTOLJ
 70
     1
  9
$DIMTZIN
 70
     0
  9
$DIMALTZ
 70
     0
  9
$DIMALTTZ
 70
     0
  9
$DIMUPT
 70
     0
  9
$DIMDEC
 70
     5
  9
$DIMTDEC
 70
     4
  9
$DIMALTU
 70
     2
  9
$DIMALTTD
 70
     2
  9
$DIMTXSTY
  7
STANDARD
  9
$DIMAUNIT
 70
     0
  9
$DIMADEC
 70
     0
  9
$DIMALTRND
 40
0.0
  9
$DIMAZIN
 70
     0
  9
$DIMDSEP
 70
    46
  9
$DIMATFIT
 70
     3
  9
$DIMFRAC
 70
     2
  9
$DIMLDRBLK
  1

  9
$DIMLUNIT
 70
     5
  9
$DIMLWD
 70
    -2
  9
$DIMLWE
 70
    -2
  9
$DIMTMOVE
 70
     2
  9
$LUNITS
 70
     2
  9
$LUPREC
 70
     4
  9
$SKETCHINC
 40
0.1
  9
$FILLETRAD
 40
0.0
  9
$AUNITS
 70
     0
  9
$AUPREC
 70
     0
  9
$MENU
  1
acad
  9
$ELEVATION
 40
0.0
  9
$PELEVATION
 40
0.0
  9
$THICKNESS
 40
0.0
  9
$LIMCHECK
 70
     0
  9
$CHAMFERA
 40
0.0
  9
$CHAMFERB
 40
0.0
  9
$CHAMFERC
 40
0.0
  9
$CHAMFERD
 40
0.0
  9
$SKPOLY
 70
     0
  9
$TDCREATE
 40
2448880.671175926
  9
$TDUCREATE
 40
2448881.00450926
  9
$TDUPDATE
 40
2453811.029358982
  9
$TDUUPDATE
 40
2453811.362692315
  9
$TDINDWG
 40
0.2391546875
  9
$TDUSRTIMER
 40
0.2391546875
  9
$USRTIMER
 70
     1
  9
$ANGBASE
 50
0.0
  9
$ANGDIR
 70
     0
  9
$PDMODE
 70
     0
  9
$PDSIZE
 40
0.0
  9
$PLINEWID
 40
0.0
  9
$SPLFRAME
 70
     0
  9
$SPLINETYPE
 70
     6
  9
$SPLINESEGS
 70
     8
  9
$HANDSEED
  5
3FA
  9
$SURFTAB1
 70
     6
  9
$SURFTAB2
 70
     6
  9
$SURFTYPE
 70
     6
  9
$SURFU
 70
     6
  9
$SURFV
 70
     6
  9
$UCSBASE
  2

  9
$UCSNAME
  2

  9
$UCSORG
 10
0.0
 20
0.0
 30
0.0
  9
$UCSXDIR
 10
1.0
 20
0.0
 30
0.0
  9
$UCSYDIR
 10
0.0
 20
1.0
 30
0.0
  9
$UCSORTHOREF
  2

  9
$UCSORTHOVIEW
 70
     0
  9
$UCSORGTOP
 10
0.0
 20
0.0
 30
0.0
  9
$UCSORGBOTTOM
 10
0.0
 20
0.0
 30
0.0
  9
$UCSORGLEFT
 10
0.0
 20
0.0
 30
0.0
  9
$UCSORGRIGHT
 10
0.0
 20
0.0
 30
0.0
  9
$UCSORGFRONT
 10
0.0
 20
0.0
 30
0.0
  9
$UCSORGBACK
 10
0.0
 20
0.0
 30
0.0
  9
$PUCSBASE
  2

  9
$PUCSNAME
  2

  9
$PUCSORG
 10
0.0
 20
0.0
 30
0.0
  9
$PUCSXDIR
 10
1.0
 20
0.0
 30
0.0
  9
$PUCSYDIR
 10
0.0
 20
1.0
 30
0.0
  9
$PUCSORTHOREF
  2

  9
$PUCSORTHOVIEW
 70
     0
  9
$PUCSORGTOP
 10
0.0
 20
0.0
 30
0.0
  9
$PUCSORGBOTTOM
 10
0.0
 20
0.0
 30
0.0
  9
$PUCSORGLEFT
 10
0.0
 20
0.0
 30
0.0
  9
$PUCSORGRIGHT
 10
0.0
 20
0.0
 30
0.0
  9
$PUCSORGFRONT
 10
0.0
 20
0.0
 30
0.0
  9
$PUCSORGBACK
 10
0.0
 20
0.0
 30
0.0
  9
$USERI1
 70
     0
  9
$USERI2
 70
     0
  9
$USERI3
 70
     0
  9
$USERI4
 70
     0
  9
$USERI5
 70
     0
  9
$USERR1
 40
0.0
  9
$USERR2
 40
0.0
  9
$USERR3
 40
0.0
  9
$USERR4
 40
0.0
  9
$USERR5
 40
0.0
  9
$WORLDVIEW
 70
     1
  9
$SHADEDGE
 70
     3
  9
$SHADEDIF
 70
    70
  9
$TILEMODE
 70
     1
  9
$MAXACTVP
 70
    16
  9
$PINSBASE
 10
0.0
 20
0.0
 30
0.0
  9
$PLIMCHECK
 70
     0
  9
$PEXTMIN
 10
1.000000000000000E+20
 20
1.000000000000000E+20
 30
1.000000000000000E+20
  9
$PEXTMAX
 10
-1.000000000000000E+20
 20
-1.000000000000000E+20
 30
-1.000000000000000E+20
  9
$PLIMMIN
 10
0.0
 20
0.0
  9
$PLIMMAX
 10
12.0
 20
9.0
  9
$UNITMODE
 70
     0
  9
$VISRETAIN
 70
     0
  9
$PLINEGEN
 70
     0
  9
$PSLTSCALE
 70
     0
  9
$TREEDEPTH
 70
  3020
  9
$CMLSTYLE
  2
STANDARD
  9
$CMLJUST
 70
     0
  9
$CMLSCALE
 40
1.0
  9
$PROXYGRAPHICS
 70
     1
  9
$MEASUREMENT
 70
     0
  9
$CELWEIGHT
370
    -1
  9
$ENDCAPS
280
     0
  9
$JOINSTYLE
280
     0
  9
$LWDISPLAY
290
     0
  9
$INSUNITS
 70
     0
  9
$HYPERLINKBASE
  1

  9
$STYLESHEET
  1

  9
$XEDIT
290
     1
  9
$CEPSNTYPE
380
     0
  9
$PSTYLEMODE
290
     1
  9
$FINGERPRINTGUID
  2
{81491989-CD26-11D5-BE3F-00508B5FCD51}
  9
$VERSIONGUID
  2
{F5FCC5D8-634B-4B52-9B85-DB2266536426}
  9
$EXTNAMES
290
     1
  9
$PSVPSCALE
 40
0.0
  9
$OLESTARTUP
290
     0
  0
ENDSEC
  0
SECTION
  2
CLASSES
  0
CLASS
  1
DICTIONARYVAR
  2
AcDbDictionaryVar
  3
AutoCAD 2000
 90
        0
280
     0
281
     0
  0
CLASS
  1
LWPOLYLINE
  2
AcDbPolyline
  3
AutoCAD 2000
 90
        0
280
     0
281
     1
  0
CLASS
  1
XRECORD
  2
AcDbXrecord
  3
AutoCAD 2000
 90
        0
280
     0
281
     0
  0
CLASS
  1
ACDBDICTIONARYWDFLT
  2
AcDbDictionaryWithDefault
  3
AutoCAD 2000
 90
        0
280
     0
281
     0
  0
CLASS
  1
ACDBPLACEHOLDER
  2
AcDbPlaceHolder
  3
ObjectDBX Classes
 90
        0
280
     0
281
     0
  0
CLASS
  1
LAYOUT
  2
AcDbLayout
  3
ObjectDBX Classes
 90
        0
280
     0
281
     0
  0
CLASS
  1
LONG_TRANSACTION
  2
AcDbLongTransaction
  3
AutoCAD 2000
 90
   -65536
280
     1
281
     0
  0
CLASS
  1
LWPOLYLINE
  2
AcDbPolyline
  3
AutoCAD 2000
 90
        0
280
     0
281
     1
  0
CLASS
  1
HATCH
  2
AcDbHatch
  3
AutoCAD 2000
 90
        0
280
     0
281
     1
  0
CLASS
  1
XRECORD
  2
AcDbXrecord
  3
AutoCAD 2000
 90
        0
280
     0
281
     0
  0
CLASS
  1
LONG_TRANSACTION
  2
AcDbLongTransaction
  3
AutoCAD 2000
 90
   -65536
280
     1
281
     0
  0
CLASS
  1
LWPOLYLINE
  2
AcDbPolyline
  3
AutoCAD 2000
 90
        0
280
     0
281
     1
  0
CLASS
  1
HATCH
  2
AcDbHatch
  3
AutoCAD 2000
 90
        0
280
     0
281
     1
  0
CLASS
  1
XRECORD
  2
AcDbXrecord
  3
AutoCAD 2000
 90
        0
280
     0
281
     0
  0
CLASS
  1
LONG_TRANSACTION
  2
AcDbLongTransaction
  3
AutoCAD 2000
 90
   -65536
280
     1
281
     0
  0
CLASS
  1
LWPOLYLINE
  2
AcDbPolyline
  3
AutoCAD 2000
 90
        0
280
     0
281
     1
  0
CLASS
  1
HATCH
  2
AcDbHatch
  3
AutoCAD 2000
 90
        0
280
     0
281
     1
  0
CLASS
  1
XRECORD
  2
AcDbXrecord
  3
AutoCAD 2000
 90
        0
280
     0
281
     0
  0
CLASS
  1
LONG_TRANSACTION
  2
AcDbLongTransaction
  3
AutoCAD 2000
 90
   -65536
280
     1
281
     0
  0
CLASS
  1
LWPOLYLINE
  2
AcDbPolyline
  3
AutoCAD 2000
 90
        0
280
     0
281
     1
  0
CLASS
  1
HATCH
  2
AcDbHatch
  3
AutoCAD 2000
 90
        0
280
     0
281
     1
  0
CLASS
  1
XRECORD
  2
AcDbXrecord
  3
AutoCAD 2000
 90
        0
280
     0
281
     0
  0
CLASS
  1
LONG_TRANSACTION
  2
AcDbLongTransaction
  3
AutoCAD 2000
 90
   -65536
280
     1
281
     0
  0
CLASS
  1
LWPOLYLINE
  2
AcDbPolyline
  3
AutoCAD 2000
 90
        0
280
     0
281
     1
  0
CLASS
  1
HATCH
  2
AcDbHatch
  3
AutoCAD 2000
 90
        0
280
     0
281
     1
  0
CLASS
  1
XRECORD
  2
AcDbXrecord
  3
AutoCAD 2000
 90
        0
280
     0
281
     0
  0
CLASS
  1
LONG_TRANSACTION
  2
AcDbLongTransaction
  3
AutoCAD 2000
 90
   -65536
280
     1
281
     0
  0
CLASS
  1
LWPOLYLINE
  2
AcDbPolyline
  3
AutoCAD 2000
 90
        0
280
     0
281
     1
  0
CLASS
  1
HATCH
  2
AcDbHatch
  3
AutoCAD 2000
 90
        0
280
     0
281
     1
  0
CLASS
  1
XRECORD
  2
AcDbXrecord
  3
AutoCAD 2000
 90
        0
280
     0
281
     0
  0
CLASS
  1
LONG_TRANSACTION
  2
AcDbLongTransaction
  3
AutoCAD 2000
 90
   -65536
280
     1
281
     0
  0
CLASS
  1
LWPOLYLINE
  2
AcDbPolyline
  3
AutoCAD 2000
 90
        0
280
     0
281
     1
  0
CLASS
  1
HATCH
  2
AcDbHatch
  3
AutoCAD 2000
 90
        0
280
     0
281
     1
  0
CLASS
  1
XRECORD
  2
AcDbXrecord
  3
AutoCAD 2000
 90
        0
280
     0
281
     0
  0
CLASS
  1
LONG_TRANSACTION
  2
AcDbLongTransaction
  3
AutoCAD 2000
 90
   -65536
280
     1
281
     0
  0
CLASS
  1
LWPOLYLINE
  2
AcDbPolyline
  3
AutoCAD 2000
 90
        0
280
     0
281
     1
  0
CLASS
  1
HATCH
  2
AcDbHatch
  3
AutoCAD 2000
 90
        0
280
     0
281
     1
  0
CLASS
  1
XRECORD
  2
AcDbXrecord
  3
AutoCAD 2000
 90
        0
280
     0
281
     0
  0
ENDSEC
  0
SECTION
  2
TABLES
  0
TABLE
  2
VPORT
  5
1D
330
0
100
AcDbSymbolTable
 70
     4
  0
VPORT
  5
3EF
330
1D
100
AcDbSymbolTableRecord
100
AcDbViewportTableRecord
  2
*Active
 70
     0
 10
0.0
 20
0.0
 11
1.0
 21
1.0
 12
7.500165774671338
 22
12.96389072041087
 13
0.0
 23
0.0
 14
0.063
 24
0.063
 15
0.25
 25
0.25
 16
0.0
 26
0.0
 36
1.0
 17
0.0
 27
0.0
 37
0.0
 40
38.25497690500912
 41
1.68452380952381
 42
50.0
 43
0.0
 44
0.0
 50
0.0
 51
0.0
 71
     0
 72
   100
 73
     1
 74
     1
 75
     0
 76
     0
 77
     0
 78
     0
281
     0
 65
     1
110
0.0
120
0.0
130
0.0
111
1.0
121
0.0
131
0.0
112
0.0
122
1.0
132
0.0
 79
     0
146
0.0
  0
ENDTAB
  0
TABLE
  2
LTYPE
  5
18
330
0
100
AcDbSymbolTable
 70
     3
  0
LTYPE
  5
19
330
18
100
AcDbSymbolTableRecord
100
AcDbLinetypeTableRecord
  2
BYBLOCK
 70
     0
  3

 72
    65
 73
     0
 40
0.0
  0
LTYPE
  5
1A
330
18
100
AcDbSymbolTableRecord
100
AcDbLinetypeTableRecord
  2
BYLAYER
 70
     0
  3

 72
    65
 73
     0
 40
0.0
  0
LTYPE
  5
A
330
18
100
AcDbSymbolTableRecord
100
AcDbLinetypeTableRecord
  2
CONTINUOUS
 70
     0
  3
Solid line
 72
    65
 73
     0
 40
0.0
  0
LTYPE
  5
2C0
330
18
100
AcDbSymbolTableRecord
100
AcDbLinetypeTableRecord
  2
HIDDEN
 70
     0
  3
_ _ _ _ _ _ _ _ _ _ _ _ _ _ _ _ _ _ _ _ _ _ _
 72
    65
 73
     2
 40
0.375
 49
0.25
 74
     0
 49
-0.125
 74
     0
  0
LTYPE
  5
2C1
330
18
100
AcDbSymbolTableRecord
100
AcDbLinetypeTableRecord
  2
CENTER
 70
     0
  3
____ _ ____ _ ____ _ ____ _ ____ _ ____ _ ____
 72
    65
 73
     4
 40
2.0
 49
1.25
 74
     0
 49
-0.25
 74
     0
 49
0.25
 74
     0
 49
-0.25
 74
     0
  0
ENDTAB
  0
TABLE
  2
LAYER
  5
14
330
0
100
AcDbSymbolTable
 70
     4
  0
LAYER
  5
6
330
14
100
AcDbSymbolTableRecord
100
AcDbLayerTableRecord
  2
0
 70
     0
 62
     7
  6
CONTINUOUS
370
    -3
390
7
  0
LAYER
  5
2C2
330
14
100
AcDbSymbolTableRecord
100
AcDbLayerTableRecord
  2
NOTE
 70
     0
 62
     1
  6
CONTINUOUS
370
    -3
390
7
  0
LAYER
  5
2C3
330
14
100
AcDbSymbolTableRecord
100
AcDbLayerTableRecord
  2
DIM
 70
     0
 62
     5
  6
CONTINUOUS
370
    -3
390
7
  0
LAYER
  5
2C4
330
14
100
AcDbSymbolTableRecord
100
AcDbLayerTableRecord
  2
OBJECT
 70
     0
 62
     7
  6
CONTINUOUS
370
    -3
390
7
  0
ENDTAB
  0
TABLE
  2
STYLE
  5
15
330
0
100
AcDbSymbolTable
 70
     1
  0
STYLE
  5
16
330
15
100
AcDbSymbolTableRecord
100
AcDbTextStyleTableRecord
  2
STANDARD
 70
     0
 40
0.0
 41
1.0
 50
0.0
 71
     0
 42
0.36
  3
TXT
  4

  0
ENDTAB
  0
TABLE
  2
VIEW
  5
1B
330
0
100
AcDbSymbolTable
 70
     0
  0
ENDTAB
  0
TABLE
  2
UCS
  5
1C
330
0
100
AcDbSymbolTable
 70
     0
  0
ENDTAB
  0
TABLE
  2
APPID
  5
1F
330
0
100
AcDbSymbolTable
 70
     1
  0
APPID
  5
20
330
1F
100
AcDbSymbolTableRecord
100
AcDbRegAppTableRecord
  2
ACAD
 70
     0
  0
ENDTAB
  0
TABLE
  2
DIMSTYLE
  5
21
330
0
100
AcDbSymbolTable
 70
     1
100
AcDbDimStyleTable
  0
DIMSTYLE
105
28
330
21
100
AcDbSymbolTableRecord
100
AcDbDimStyleTableRecord
  2
STANDARD
 70
     0
  3

  4

340
16
  0
ENDTAB
  0
TABLE
  2
BLOCK_RECORD
  5
1
330
0
100
AcDbSymbolTable
 70
     0
  0
BLOCK_RECORD
  5
2
330
1
100
AcDbSymbolTableRecord
100
AcDbBlockTableRecord
  2
*MODEL_SPACE
340
C
  0
BLOCK_RECORD
  5
E
330
1
100
AcDbSymbolTableRecord
100
AcDbBlockTableRecord
  2
*PAPER_SPACE
340
13
  0
ENDTAB
  0
ENDSEC
  0
SECTION
  2
BLOCKS
  0
BLOCK
  5
5
330
2
100
AcDbEntity
  8
0
100
AcDbBlockBegin
  2
*MODEL_SPACE
 70
     0
 10
0.0
 20
0.0
 30
0.0
  3
*MODEL_SPACE
  1

  4

  0
ENDBLK
  5
B
330
2
100
AcDbEntity
  8
0
100
AcDbBlockEnd
  0
BLOCK
  5
11
330
E
100
AcDbEntity
 67
     1
  8
0
100
AcDbBlockBegin
  2
*PAPER_SPACE
 70
     0
 10
0.0
 20
0.0
 30
0.0
  3
*PAPER_SPACE
  1

  4

  0
ENDBLK
  5
12
330
E
100
AcDbEntity
 67
     1
  8
0
100
AcDbBlockEnd
  0
ENDSEC
  0
SECTION
  2
ENTITIES
  0
LINE
  5
FA
330
2
100
AcDbEntity
  8
0
100
AcDbLine
 10
-18.27494219333543
 20
-0.0491495939340059
 30
0.0
 11
-15.71570733764891
 21
-0.0491495939340094
 31
0.0
  0
LINE
  5
32A
330
2
100
AcDbEntity
  8
OBJECT
100
AcDbLine
 10
-18.8705021900852
 20
-0.0018689077458198
 30
0.0
 11
-18.8705021900852
 21
2.289238753714319
 31
0.0
  0
LINE
  5
32B
330
2
100
AcDbEntity
  8
OBJECT
100
AcDbLine
 10
-15.1205021900852
 20
-0.0018689077458092
 30
0.0
 11
-15.1205021900852
 21
2.289238753714322
 31
0.0
  0
LINE
  5
32C
330
2
100
AcDbEntity
  8
OBJECT
100
AcDbLine
 10
-18.8080021900852
 20
-0.0018689077458198
 30
0.0
 11
-18.80800219008523
 21
2.998131092254187
 31
0.0
  0
LINE
  5
32D
330
2
100
AcDbEntity
  8
OBJECT
100
AcDbLine
 10
-15.1830021900852
 20
-0.0018689077458092
 30
0.0
 11
-15.1830021900852
 21
2.998131092254191
 31
0.0
  0
LINE
  5
330
330
2
100
AcDbEntity
  8
OBJECT
100
AcDbLine
 10
-13.12050219008517
 20
3.138350406066
 30
0.0
 11
-15.0580021900852
 21
3.138350406066
 31
0.0
  0
LINE
  5
331
330
2
100
AcDbEntity
  8
OBJECT
100
AcDbLine
 10
-13.12050219008517
 20
3.075850406066
 30
0.0
 11
-15.0580021900852
 21
3.075850406066
 31
0.0
  0
LINE
  5
335
330
2
100
AcDbEntity
  8
OBJECT
100
AcDbLine
 10
-18.93300219008523
 20
3.138350406066
 30
0.0
 11
-20.87050219008521
 21
3.138350406066
 31
0.0
  0
LINE
  5
336
330
2
100
AcDbEntity
  8
OBJECT
100
AcDbLine
 10
-18.9330021900852
 20
3.075850406066
 30
0.0
 11
-20.87050219008521
 21
3.075850406066
 31
0.0
  0
LINE
  5
338
330
2
100
AcDbEntity
  8
OBJECT
100
AcDbLine
 10
-20.87050219008521
 20
3.075850406066
 30
0.0
 11
-20.87050219008521
 21
3.138350406066
 31
0.0
  0
LINE
  5
341
330
2
100
AcDbEntity
  8
OBJECT
100
AcDbLine
 10
-18.8705021900852
 20
2.289238753714319
 30
0.0
 11
-18.8705021900852
 21
3.013350406066
 31
0.0
  0
LINE
  5
343
330
2
100
AcDbEntity
  8
OBJECT
100
AcDbLine
 10
-15.1205021900852
 20
2.289238753714322
 30
0.0
 11
-15.1205021900852
 21
3.013350406066
 31
0.0
  0
LINE
  5
344
330
2
100
AcDbEntity
  8
OBJECT
100
AcDbLine
 10
-18.27185302235322
 20
2.950850406065992
 30
0.0
 11
-15.7126181666667
 21
2.950850406065996
 31
0.0
  0
ARC
  5
345
330
2
100
AcDbEntity
  8
OBJECT
100
AcDbCircle
 10
-18.36723559450998
 20
2.951222461977931
 30
0.0
 40
0.0953832977876115
100
AcDbArc
 50
180.2234907792951
 51
359.7765092207051
  0
ARC
  5
346
330
2
100
AcDbEntity
  8
OBJECT
100
AcDbCircle
 10
-18.9330021900852
 20
3.013350406066
 30
0.0
 40
0.0625
100
AcDbArc
 50
0.0
 51
90.00000000000003
  0
ARC
  5
347
330
2
100
AcDbEntity
  8
OBJECT
100
AcDbCircle
 10
-18.93300219008523
 20
3.013350406066
 30
0.0
 40
0.125
100
AcDbArc
 50
0.0
 51
90.00000000000003
  0
LINE
  5
348
330
2
100
AcDbEntity
  8
OBJECT
100
AcDbLine
 10
-18.59576359109398
 20
2.950850406065992
 30
0.0
 11
-18.46261816666684
 21
2.950850406065992
 31
0.0
  0
ARC
  5
349
330
2
100
AcDbEntity
  8
OBJECT
100
AcDbCircle
 10
-18.59576359109398
 20
3.450850406065992
 30
0.0
 40
0.5
100
AcDbArc
 50
244.8824237621772
 51
269.9999999999999
  0
LINE
  5
34A
330
2
100
AcDbEntity
  8
OBJECT
100
AcDbLine
 10
-18.80800219008523
 20
2.998131092254187
 30
0.0
 11
-18.80800219008523
 21
3.013350406066
 31
0.0
  0
LINE
  5
34C
330
2
100
AcDbEntity
  8
OBJECT
100
AcDbLine
 10
-15.52185302235323
 20
2.950850406065996
 30
0.0
 11
-15.39524078907645
 21
2.950850406065996
 31
0.0
  0
ARC
  5
34D
330
2
100
AcDbEntity
  8
OBJECT
100
AcDbCircle
 10
-15.61723559450994
 20
2.951222461977935
 30
0.0
 40
0.0953832977876115
100
AcDbArc
 50
180.2234907792951
 51
359.7765092207051
  0
ARC
  5
34E
330
2
100
AcDbEntity
  8
OBJECT
100
AcDbCircle
 10
-15.39524078907645
 20
3.450850406065996
 30
0.0
 40
0.5
100
AcDbArc
 50
270.0
 51
295.1175762378232
  0
LINE
  5
34F
330
2
100
AcDbEntity
  8
OBJECT
100
AcDbLine
 10
-15.4955021900852
 20
2.950850406065996
 30
0.0
 11
-15.39524078907645
 21
2.950850406065996
 31
0.0
  0
ARC
  5
350
330
2
100
AcDbEntity
  8
OBJECT
100
AcDbCircle
 10
-15.0580021900852
 20
3.013350406066
 30
0.0
 40
0.0625
100
AcDbArc
 50
90.00000000000011
 51
180.0
  0
ARC
  5
351
330
2
100
AcDbEntity
  8
OBJECT
100
AcDbCircle
 10
-15.0580021900852
 20
3.013350406066
 30
0.0
 40
0.125
100
AcDbArc
 50
90.00000000000011
 51
180.0
  0
LINE
  5
352
330
2
100
AcDbEntity
  8
OBJECT
100
AcDbLine
 10
-15.1830021900852
 20
2.998131092254194
 30
0.0
 11
-15.1830021900852
 21
3.013350406066
 31
0.0
  0
LINE
  5
355
330
2
100
AcDbEntity
  8
OBJECT
100
AcDbLine
 10
-18.88845316707509
 20
2.257829908358584
 30
0.0
 11
-18.9948124459633
 21
2.151470629470364
 31
0.0
  0
LINE
  5
356
330
2
100
AcDbEntity
  8
OBJECT
100
AcDbLine
 10
-18.86163643050578
 20
2.196252002266458
 30
0.0
 11
-18.92806371292384
 21
2.13091025669878
 31
0.0
  0
LINE
  5
357
330
2
100
AcDbEntity
  8
OBJECT
100
AcDbLine
 10
-18.99481244596331
 20
2.151470629470364
 30
0.0
 11
-18.87014734089924
 21
2.080886075405854
 31
0.0
  0
ARC
  5
358
330
2
100
AcDbEntity
  8
OBJECT
100
AcDbCircle
 10
-18.93264734089924
 20
2.302024082182737
 30
0.0
 40
0.125
100
AcDbArc
 50
315.0000000000001
 51
0.0
  0
ARC
  5
359
330
2
100
AcDbEntity
  8
OBJECT
100
AcDbCircle
 10
-18.93264734089924
 20
2.302024082182744
 30
0.0
 40
0.0625
100
AcDbArc
 50
315.0000000000001
 51
0.0
  0
LINE
  5
35F
330
2
100
AcDbEntity
  8
0
100
AcDbLine
 10
-16.9955021900852
 20
1.450850406066
 30
0.0
 11
-16.8851935322201
 21
1.340541748200895
 31
0.0
  0
LINE
  5
360
330
2
100
AcDbEntity
  8
0
100
AcDbLine
 10
-17.1058108479503
 20
1.340541748200895
 30
0.0
 11
-16.9955021900852
 21
1.450850406066
 31
0.0
  0
ARC
  5
365
330
2
100
AcDbEntity
  8
OBJECT
100
AcDbCircle
 10
-15.0580021900852
 20
2.302024082182744
 30
0.0
 40
0.0625
100
AcDbArc
 50
180.0000000000002
 51
224.9999999999999
  0
LINE
  5
366
330
2
100
AcDbEntity
  8
OBJECT
100
AcDbLine
 10
-15.1318550548903
 20
2.202455698905592
 30
0.0
 11
-15.06750380319689
 21
2.134002485083979
 31
0.0
  0
ARC
  5
368
330
2
100
AcDbEntity
  8
OBJECT
100
AcDbCircle
 10
-15.05800219008519
 20
2.302024082182737
 30
0.0
 40
0.125
100
AcDbArc
 50
180.0000000000002
 51
224.9999999999999
  0
LINE
  5
369
330
2
100
AcDbEntity
  8
OBJECT
100
AcDbLine
 10
-15.10219636390936
 20
2.257829908358584
 30
0.0
 11
-14.99583708502114
 21
2.151470629470364
 31
0.0
  0
LINE
  5
36A
330
2
100
AcDbEntity
  8
OBJECT
100
AcDbLine
 10
-14.99583708502114
 20
2.151470629470364
 30
0.0
 11
-15.1205021900852
 21
2.080886075405854
 31
0.0
  0
LINE
  5
36B
330
2
100
AcDbEntity
  8
0
100
AcDbLine
 10
-16.8851935322201
 20
1.340541748200895
 30
0.0
 11
-16.9955021900852
 21
1.230233090335798
 31
0.0
  0
LINE
  5
36C
330
2
100
AcDbEntity
  8
0
100
AcDbLine
 10
-16.9955021900852
 20
1.230233090335798
 30
0.0
 11
-17.1058108479503
 21
1.340541748200895
 31
0.0
  0
LINE
  5
36E
330
2
100
AcDbEntity
  8
OBJECT
100
AcDbLine
 10
-13.12050219008517
 20
3.075850406066
 30
0.0
 11
-13.12050219008517
 21
3.138350406066
 31
0.0
  0
ARC
  5
378
330
2
100
AcDbEntity
  8
OBJECT
100
AcDbCircle
 10
-18.37033853444454
 20
-0.0495610072333612
 30
0.0
 40
0.0863460497437565
100
AcDbArc
 50
0.272998416842015
 51
179.7270015831582
  0
LINE
  5
379
330
2
100
AcDbEntity
  8
OBJECT
100
AcDbLine
 10
-18.8705021900852
 20
-0.0018689077458198
 30
0.0
 11
-18.8080021900852
 21
-0.0018689077458198
 31
0.0
  0
LINE
  5
37A
330
2
100
AcDbEntity
  8
OBJECT
100
AcDbLine
 10
-18.59576359109398
 20
-0.0491495939340076
 30
0.0
 11
-18.49550219008523
 21
-0.0491495939340076
 31
0.0
  0
ARC
  5
37B
330
2
100
AcDbEntity
  8
OBJECT
100
AcDbCircle
 10
-18.59576359109398
 20
0.4508504060659924
 30
0.0
 40
0.5
100
AcDbArc
 50
244.8824237621802
 51
269.9999999999999
  0
LINE
  5
37C
330
2
100
AcDbEntity
  8
OBJECT
100
AcDbLine
 10
-18.59576359109398
 20
-0.0491495939340076
 30
0.0
 11
-18.45668360405158
 21
-0.0491495939340076
 31
0.0
  0
LINE
  5
37D
330
2
100
AcDbEntity
  8
OBJECT
100
AcDbLine
 10
-18.8705021900852
 20
-0.0018689077458198
 30
0.0
 11
-18.8080021900852
 21
-0.0018689077458198
 31
0.0
  0
LINE
  5
37F
330
2
100
AcDbEntity
  8
OBJECT
100
AcDbLine
 10
-15.53366974606201
 20
-0.0491495939340076
 30
0.0
 11
-15.39524078907645
 21
-0.0491495939340041
 31
0.0
  0
ARC
  5
380
330
2
100
AcDbEntity
  8
OBJECT
100
AcDbCircle
 10
-15.62016290610444
 20
-0.0498610803672577
 30
0.0
 40
0.0864960863107047
100
AcDbArc
 50
0.4713002780001075
 51
179.5286997219983
  0
ARC
  5
381
330
2
100
AcDbEntity
  8
OBJECT
100
AcDbCircle
 10
-15.39524078907645
 20
0.4508504060659959
 30
0.0
 40
0.5
100
AcDbArc
 50
270.0
 51
295.117576237823
  0
LINE
  5
382
330
2
100
AcDbEntity
  8
OBJECT
100
AcDbLine
 10
-15.4955021900852
 20
-0.0491495939340005
 30
0.0
 11
-15.39524078907645
 21
-0.0491495939340041
 31
0.0
  0
LINE
  5
383
330
2
100
AcDbEntity
  8
OBJECT
100
AcDbLine
 10
-15.1205021900852
 20
-0.0018689077458092
 30
0.0
 11
-15.1830021900852
 21
-0.0018689077458092
 31
0.0
  0
ENDSEC
  0
SECTION
  2
OBJECTS
  0
DICTIONARY
  5
9
330
0
100
AcDbDictionary
281
     1
  3
ACAD_COLOR
350
3F2
  3
ACAD_GROUP
350
23
  3
ACAD_LAYOUT
350
D
  3
ACAD_MATERIAL
350
3F4
  3
ACAD_MLINESTYLE
350
24
  3
ACAD_PLOTSETTINGS
350
25
  3
ACAD_PLOTSTYLENAME
350
8
  3
ACDBHEADERROUNDTRIPXREC
350
3F1
  3
AcDbVariableDictionary
350
E8
  0
DICTIONARY
  5
3F2
102
{ACAD_REACTORS
330
9
102
}
330
9
100
AcDbDictionary
281
     1
  0
DICTIONARY
  5
23
102
{ACAD_REACTORS
330
9
102
}
330
9
100
AcDbDictionary
281
     1
  0
DICTIONARY
  5
D
102
{ACAD_REACTORS
330
9
102
}
330
9
100
AcDbDictionary
281
     1
  3
Layout1
350
13
  3
Model
350
C
  0
DICTIONARY
  5
3F4
102
{ACAD_REACTORS
330
9
102
}
330
9
100
AcDbDictionary
281
     1
  0
DICTIONARY
  5
24
102
{ACAD_REACTORS
330
9
102
}
330
9
100
AcDbDictionary
281
     1
  3
STANDARD
350
27
  0
DICTIONARY
  5
25
102
{ACAD_REACTORS
330
9
102
}
330
9
100
AcDbDictionary
281
     1
  0
ACDBDICTIONARYWDFLT
  5
8
102
{ACAD_REACTORS
330
9
102
}
330
9
100
AcDbDictionary
281
     1
  3
Normal
350
7
100
AcDbDictionaryWithDefault
340
7
  0
DICTIONARY
  5
3F1
102
{ACAD_REACTORS
330
9
102
}
330
9
100
AcDbDictionary
281
     1
  3
COLORDICT
350
3F3
  3
MATERIALDICT
350
3F5
  0
DICTIONARY
  5
E8
102
{ACAD_REACTORS
330
9
102
}
330
9
100
AcDbDictionary
281
     1
  3
HIDETEXT
350
3F0
  0
LAYOUT
  5
13
102
{ACAD_REACTORS
330
D
102
}
102
{ACAD_XDICTIONARY
360
3F6
102
}
330
D
100
AcDbPlotSettings
  1

  2
HP LaserJet 2100 Series PS
  4

  6

 40
0.0
 41
0.0
 42
0.0
 43
0.0
 44
0.0
 45
0.0
 46
0.0
 47
0.0
 48
0.0
 49
0.0
140
0.0
141
0.0
142
1.0
143
1.0
 70
   688
 72
     0
 73
     0
 74
     5
  7

 75
    16
147
1.0
148
0.0
149
0.0
100
AcDbLayout
  1
Layout1
 70
     0
 71
     1
 10
0.0
 20
0.0
 11
12.0
 21
9.0
 12
0.0
 22
0.0
 32
0.0
 14
1.000000000000000E+20
 24
1.000000000000000E+20
 34
1.000000000000000E+20
 15
-1.000000000000000E+20
 25
-1.000000000000000E+20
 35
-1.000000000000000E+20
146
0.0
 13
0.0
 23
0.0
 33
0.0
 16
1.0
 26
0.0
 36
0.0
 17
0.0
 27
1.0
 37
0.0
 76
     0
330
E
  0
LAYOUT
  5
C
102
{ACAD_REACTORS
330
D
102
}
102
{ACAD_XDICTIONARY
360
3F8
102
}
330
D
100
AcDbPlotSettings
  1

  2
HP LaserJet 2100 Series PS
  4
Letter
  6

 40
5.365749835968018
 41
5.408084392547607
 42
5.4080810546875
 43
5.365753173828125
 44
215.8999938964844
 45
279.3999938964844
 46
0.0
 47
0.0
 48
0.0
 49
0.0
140
0.0
141
0.0
142
1.0
143
1.0
 70
 11952
 72
     0
 73
     1
 74
     0
  7

 75
     0
147
1.0
148
-337.5132176879018
149
24.59964501664816
100
AcDbLayout
  1
Model
 70
     1
 71
     0
 10
0.0
 20
0.0
 11
12.0
 21
9.0
 12
0.0
 22
0.0
 32
0.0
 14
0.0
 24
0.0
 34
0.0
 15
0.0
 25
0.0
 35
0.0
146
0.0
 13
0.0
 23
0.0
 33
0.0
 16
1.0
 26
0.0
 36
0.0
 17
0.0
 27
1.0
 37
0.0
 76
     0
330
2
  0
MLINESTYLE
  5
27
102
{ACAD_REACTORS
330
24
102
}
330
24
100
AcDbMlineStyle
  2
STANDARD
 70
     0
  3

 62
   256
 51
90.0
 52
90.0
 71
     2
 49
0.5
 62
   256
  6
BYLAYER
 49
-0.5
 62
   256
  6
BYLAYER
  0
ACDBPLACEHOLDER
  5
7
102
{ACAD_REACTORS
330
8
102
}
330
8
  0
XRECORD
  5
3F3
102
{ACAD_REACTORS
330
3F1
102
}
330
3F1
100
AcDbXrecord
340
3F2
  0
XRECORD
  5
3F5
102
{ACAD_REACTORS
330
3F1
102
}
330
3F1
100
AcDbXrecord
340
3F4
  0
DICTIONARYVAR
  5
3F0
102
{ACAD_REACTORS
330
E8
102
}
330
E8
100
DictionaryVariables
280
     0
  1
0
  0
DICTIONARY
  5
3F6
330
13
100
AcDbDictionary
280
     1
281
     1
  3
ACAD_XREC_ROUNDTRIP
360
3F7
  0
DICTIONARY
  5
3F8
330
C
100
AcDbDictionary
280
     1
281
     1
  3
ACAD_XREC_ROUNDTRIP
360
3F9
  0
XRECORD
  5
3F7
102
{ACAD_REACTORS
330
3F6
102
}
330
3F6
100
AcDbXrecord
102
SHADEPLOT
 70
     0
102
SHADEPLOTRESLEVEL
 70
     2
102
SHADEPLOTCUSTOMDPI
 70
   300
  0
XRECORD
  5
3F9
102
{ACAD_REACTORS
330
3F8
102
}
330
3F8
100
AcDbXrecord
102
SHADEPLOT
 70
-11696
102
SHADEPLOTRESLEVEL
 70
  8768
102
SHADEPLOTCUSTOMDPI
 70
 23728
  0
ENDSEC
  0
EOF
