  0
SECTION
  2
HEADER
  9
$ACADVER
  1
AC1015
  9
$ACADMAINTVER
 70
     6
  9
$DWGCODEPAGE
  3
ANSI_1252
  9
$INSBASE
 10
0.0
 20
0.0
 30
0.0
  9
$EXTMIN
 10
-13.90969445773106
 20
-0.0273430569616266
 30
-0.0000000000112498
  9
$EXTMAX
 10
13.90951177938864
 20
18.19811028365552
 30
0.0000000000002956
  9
$LIMMIN
 10
0.0
 20
0.0
  9
$LIMMAX
 10
42.0
 20
32.0
  9
$ORTHOMODE
 70
     1
  9
$REGENMODE
 70
     1
  9
$FILLMODE
 70
     1
  9
$QTEXTMODE
 70
     0
  9
$MIRRTEXT
 70
     1
  9
$LTSCALE
 40
1.0
  9
$ATTMODE
 70
     1
  9
$TEXTSIZE
 40
0.36
  9
$TRACEWID
 40
0.05
  9
$TEXTSTYLE
  7
STANDARD
  9
$CLAYER
  8
0
  9
$CELTYPE
  6
BYLAYER
  9
$CECOLOR
 62
   256
  9
$CELTSCALE
 40
1.0
  9
$DISPSILH
 70
     0
  9
$DIMSCALE
 40
4.0
  9
$DIMASZ
 40
0.125
  9
$DIMEXO
 40
0.062
  9
$DIMDLI
 40
0.375
  9
$DIMRND
 40
0.0
  9
$DIMDLE
 40
0.0
  9
$DIMEXE
 40
0.08
  9
$DIMTP
 40
0.0
  9
$DIMTM
 40
0.0
  9
$DIMTXT
 40
0.09
  9
$DIMCEN
 40
-0.03125
  9
$DIMTSZ
 40
0.0
  9
$DIMTOL
 70
     0
  9
$DIMLIM
 70
     0
  9
$DIMTIH
 70
     1
  9
$DIMTOH
 70
     1
  9
$DIMSE1
 70
     0
  9
$DIMSE2
 70
     0
  9
$DIMTAD
 70
     0
  9
$DIMZIN
 70
     0
  9
$DIMBLK
  1

  9
$DIMASO
 70
     0
  9
$DIMSHO
 70
     0
  9
$DIMPOST
  1

  9
$DIMAPOST
  1

  9
$DIMALT
 70
     0
  9
$DIMALTD
 70
     2
  9
$DIMALTF
 40
25.4
  9
$DIMLFAC
 40
1.0
  9
$DIMTOFL
 70
     0
  9
$DIMTVP
 40
0.0
  9
$DIMTIX
 70
     0
  9
$DIMSOXD
 70
     0
  9
$DIMSAH
 70
     0
  9
$DIMBLK1
  1

  9
$DIMBLK2
  1

  9
$DIMSTYLE
  2
STANDARD
  9
$DIMCLRD
 70
     0
  9
$DIMCLRE
 70
     0
  9
$DIMCLRT
 70
     0
  9
$DIMTFAC
 40
1.0
  9
$DIMGAP
 40
0.09
  9
$DIMJUST
 70
     0
  9
$DIMSD1
 70
     0
  9
$DIMSD2
 70
     0
  9
$DIMTOLJ
 70
     1
  9
$DIMTZIN
 70
     0
  9
$DIMALTZ
 70
     0
  9
$DIMALTTZ
 70
     0
  9
$DIMUPT
 70
     0
  9
$DIMDEC
 70
     5
  9
$DIMTDEC
 70
     4
  9
$DIMALTU
 70
     2
  9
$DIMALTTD
 70
     2
  9
$DIMTXSTY
  7
STANDARD
  9
$DIMAUNIT
 70
     0
  9
$DIMADEC
 70
     0
  9
$DIMALTRND
 40
0.0
  9
$DIMAZIN
 70
     0
  9
$DIMDSEP
 70
    46
  9
$DIMATFIT
 70
     3
  9
$DIMFRAC
 70
     2
  9
$DIMLDRBLK
  1

  9
$DIMLUNIT
 70
     5
  9
$DIMLWD
 70
    -2
  9
$DIMLWE
 70
    -2
  9
$DIMTMOVE
 70
     2
  9
$LUNITS
 70
     2
  9
$LUPREC
 70
     4
  9
$SKETCHINC
 40
0.1
  9
$FILLETRAD
 40
0.0
  9
$AUNITS
 70
     0
  9
$AUPREC
 70
     0
  9
$MENU
  1
G:\ACADSST\QA
  9
$ELEVATION
 40
0.0
  9
$PELEVATION
 40
0.0
  9
$THICKNESS
 40
0.0
  9
$LIMCHECK
 70
     0
  9
$CHAMFERA
 40
0.0
  9
$CHAMFERB
 40
0.0
  9
$CHAMFERC
 40
0.0
  9
$CHAMFERD
 40
0.0
  9
$SKPOLY
 70
     0
  9
$TDCREATE
 40
2447378.869211574
  9
$TDUCREATE
 40
2447379.202544908
  9
$TDUPDATE
 40
2454165.988665151
  9
$TDUUPDATE
 40
2454166.321998484
  9
$TDINDWG
 40
0.1862067245
  9
$TDUSRTIMER
 40
0.1862067245
  9
$USRTIMER
 70
     1
  9
$ANGBASE
 50
0.0
  9
$ANGDIR
 70
     0
  9
$PDMODE
 70
     0
  9
$PDSIZE
 40
0.0
  9
$PLINEWID
 40
0.0
  9
$SPLFRAME
 70
     0
  9
$SPLINETYPE
 70
     6
  9
$SPLINESEGS
 70
     8
  9
$HANDSEED
  5
4AB
  9
$SURFTAB1
 70
     6
  9
$SURFTAB2
 70
     6
  9
$SURFTYPE
 70
     6
  9
$SURFU
 70
     6
  9
$SURFV
 70
     6
  9
$UCSBASE
  2

  9
$UCSNAME
  2

  9
$UCSORG
 10
0.0
 20
0.0
 30
0.0
  9
$UCSXDIR
 10
1.0
 20
0.0
 30
0.0
  9
$UCSYDIR
 10
0.0
 20
1.0
 30
0.0
  9
$UCSORTHOREF
  2

  9
$UCSORTHOVIEW
 70
     0
  9
$UCSORGTOP
 10
0.0
 20
0.0
 30
0.0
  9
$UCSORGBOTTOM
 10
0.0
 20
0.0
 30
0.0
  9
$UCSORGLEFT
 10
0.0
 20
0.0
 30
0.0
  9
$UCSORGRIGHT
 10
0.0
 20
0.0
 30
0.0
  9
$UCSORGFRONT
 10
0.0
 20
0.0
 30
0.0
  9
$UCSORGBACK
 10
0.0
 20
0.0
 30
0.0
  9
$PUCSBASE
  2

  9
$PUCSNAME
  2

  9
$PUCSORG
 10
0.0
 20
0.0
 30
0.0
  9
$PUCSXDIR
 10
1.0
 20
0.0
 30
0.0
  9
$PUCSYDIR
 10
0.0
 20
1.0
 30
0.0
  9
$PUCSORTHOREF
  2

  9
$PUCSORTHOVIEW
 70
     0
  9
$PUCSORGTOP
 10
0.0
 20
0.0
 30
0.0
  9
$PUCSORGBOTTOM
 10
0.0
 20
0.0
 30
0.0
  9
$PUCSORGLEFT
 10
0.0
 20
0.0
 30
0.0
  9
$PUCSORGRIGHT
 10
0.0
 20
0.0
 30
0.0
  9
$PUCSORGFRONT
 10
0.0
 20
0.0
 30
0.0
  9
$PUCSORGBACK
 10
0.0
 20
0.0
 30
0.0
  9
$USERI1
 70
     0
  9
$USERI2
 70
     0
  9
$USERI3
 70
     0
  9
$USERI4
 70
     0
  9
$USERI5
 70
     0
  9
$USERR1
 40
0.0
  9
$USERR2
 40
0.0
  9
$USERR3
 40
0.0
  9
$USERR4
 40
0.0
  9
$USERR5
 40
0.0
  9
$WORLDVIEW
 70
     1
  9
$SHADEDGE
 70
     3
  9
$SHADEDIF
 70
    70
  9
$TILEMODE
 70
     1
  9
$MAXACTVP
 70
    16
  9
$PINSBASE
 10
0.0
 20
0.0
 30
0.0
  9
$PLIMCHECK
 70
     0
  9
$PEXTMIN
 10
1.000000000000000E+20
 20
1.000000000000000E+20
 30
1.000000000000000E+20
  9
$PEXTMAX
 10
-1.000000000000000E+20
 20
-1.000000000000000E+20
 30
-1.000000000000000E+20
  9
$PLIMMIN
 10
0.0
 20
0.0
  9
$PLIMMAX
 10
12.0
 20
9.0
  9
$UNITMODE
 70
     0
  9
$VISRETAIN
 70
     0
  9
$PLINEGEN
 70
     1
  9
$PSLTSCALE
 70
     0
  9
$TREEDEPTH
 70
  3020
  9
$CMLSTYLE
  2
STANDARD
  9
$CMLJUST
 70
     0
  9
$CMLSCALE
 40
1.0
  9
$PROXYGRAPHICS
 70
     1
  9
$MEASUREMENT
 70
     0
  9
$CELWEIGHT
370
    -1
  9
$ENDCAPS
280
     0
  9
$JOINSTYLE
280
     0
  9
$LWDISPLAY
290
     0
  9
$INSUNITS
 70
     0
  9
$HYPERLINKBASE
  1

  9
$STYLESHEET
  1

  9
$XEDIT
290
     1
  9
$CEPSNTYPE
380
     0
  9
$PSTYLEMODE
290
     1
  9
$FINGERPRINTGUID
  2
{5F49145D-BE07-41FE-AA11-9F73F442A493}
  9
$VERSIONGUID
  2
{706335F6-2D5C-4C58-A19E-279326AF6341}
  9
$EXTNAMES
290
     1
  9
$PSVPSCALE
 40
0.0
  9
$OLESTARTUP
290
     0
  0
ENDSEC
  0
SECTION
  2
CLASSES
  0
CLASS
  1
DICTIONARYVAR
  2
AcDbDictionaryVar
  3
AutoCAD 2000
 90
        0
280
     0
281
     0
  0
CLASS
  1
LWPOLYLINE
  2
AcDbPolyline
  3
AutoCAD 2000
 90
        0
280
     0
281
     1
  0
CLASS
  1
ACDBDICTIONARYWDFLT
  2
AcDbDictionaryWithDefault
  3
AutoCAD 2000
 90
        0
280
     0
281
     0
  0
CLASS
  1
ACDBPLACEHOLDER
  2
AcDbPlaceHolder
  3
ObjectDBX Classes
 90
        0
280
     0
281
     0
  0
CLASS
  1
LAYOUT
  2
AcDbLayout
  3
ObjectDBX Classes
 90
        0
280
     0
281
     0
  0
CLASS
  1
LONG_TRANSACTION
  2
AcDbLongTransaction
  3
ObjectDBX Classes
 90
   -65536
280
     1
281
     0
  0
CLASS
  1
LWPOLYLINE
  2
AcDbPolyline
  3
AutoCAD 2000
 90
        0
280
     0
281
     1
  0
CLASS
  1
HATCH
  2
AcDbHatch
  3
AutoCAD 2000
 90
        0
280
     0
281
     1
  0
CLASS
  1
XRECORD
  2
AcDbXrecord
  3
AutoCAD 2000
 90
        0
280
     0
281
     0
  0
CLASS
  1
LONG_TRANSACTION
  2
AcDbLongTransaction
  3
ObjectDBX Classes
 90
   -65536
280
     1
281
     0
  0
CLASS
  1
LWPOLYLINE
  2
AcDbPolyline
  3
AutoCAD 2000
 90
        0
280
     0
281
     1
  0
CLASS
  1
HATCH
  2
AcDbHatch
  3
AutoCAD 2000
 90
        0
280
     0
281
     1
  0
CLASS
  1
XRECORD
  2
AcDbXrecord
  3
AutoCAD 2000
 90
        0
280
     0
281
     0
  0
CLASS
  1
TABLESTYLE
  2
AcDbTableStyle
  3
ObjectDBX Classes
 90
     2047
280
     1
281
     0
  0
ENDSEC
  0
SECTION
  2
TABLES
  0
TABLE
  2
VPORT
  5
1D
330
0
100
AcDbSymbolTable
 70
     5
  0
VPORT
  5
49B
330
1D
100
AcDbSymbolTableRecord
100
AcDbViewportTableRecord
  2
*Active
 70
     0
 10
0.0
 20
0.0
 11
1.0
 21
1.0
 12
8.775789219452335
 22
13.82453830258224
 13
0.0
 23
0.0
 14
0.03125
 24
0.03125
 15
0.03125
 25
0.03125
 16
0.0
 26
0.0
 36
1.0
 17
0.0
 27
0.0
 37
0.0
 40
32.42685255154812
 41
1.814583333333333
 42
50.0
 43
0.0
 44
0.0
 50
0.0
 51
0.0
 71
     0
 72
   100
 73
     1
 74
     0
 75
     0
 76
     0
 77
     0
 78
     0
281
     0
 65
     1
110
0.0
120
0.0
130
0.0
111
1.0
121
0.0
131
0.0
112
0.0
122
1.0
132
0.0
 79
     0
146
0.0
  0
ENDTAB
  0
TABLE
  2
LTYPE
  5
18
330
0
100
AcDbSymbolTable
 70
     2
  0
LTYPE
  5
19
330
18
100
AcDbSymbolTableRecord
100
AcDbLinetypeTableRecord
  2
BYBLOCK
 70
     0
  3

 72
    65
 73
     0
 40
0.0
  0
LTYPE
  5
1A
330
18
100
AcDbSymbolTableRecord
100
AcDbLinetypeTableRecord
  2
BYLAYER
 70
     0
  3

 72
    65
 73
     0
 40
0.0
  0
LTYPE
  5
A
330
18
100
AcDbSymbolTableRecord
100
AcDbLinetypeTableRecord
  2
CONTINUOUS
 70
     0
  3
Solid line
 72
    65
 73
     0
 40
0.0
  0
LTYPE
  5
48A
330
18
100
AcDbSymbolTableRecord
100
AcDbLinetypeTableRecord
  2
HIDDEN
 70
     0
  3
Hidden __ __ __ __ __ __ __ __ __ __ __ __ __ _
 72
    65
 73
     2
 40
0.375
 49
0.25
 74
     0
 49
-0.125
 74
     0
  0
ENDTAB
  0
TABLE
  2
LAYER
  5
14
330
0
100
AcDbSymbolTable
 70
     2
  0
LAYER
  5
6
330
14
100
AcDbSymbolTableRecord
100
AcDbLayerTableRecord
  2
0
 70
     0
 62
     7
  6
CONTINUOUS
370
    -3
390
7
  0
ENDTAB
  0
TABLE
  2
STYLE
  5
15
330
0
100
AcDbSymbolTable
 70
     2
  0
STYLE
  5
16
330
15
100
AcDbSymbolTableRecord
100
AcDbTextStyleTableRecord
  2
STANDARD
 70
     0
 40
0.0
 41
1.0
 50
0.0
 71
     0
 42
0.36
  3
TXT
  4

  0
STYLE
  5
489
330
15
100
AcDbSymbolTableRecord
100
AcDbTextStyleTableRecord
  2

 70
     1
 40
0.0
 41
1.0
 50
0.0
 71
     0
 42
0.36
  3
ltypeshp.shx
  4

  0
ENDTAB
  0
TABLE
  2
VIEW
  5
1B
330
0
100
AcDbSymbolTable
 70
     0
  0
ENDTAB
  0
TABLE
  2
UCS
  5
1C
330
0
100
AcDbSymbolTable
 70
     0
  0
ENDTAB
  0
TABLE
  2
APPID
  5
1F
330
0
100
AcDbSymbolTable
 70
     1
  0
APPID
  5
20
330
1F
100
AcDbSymbolTableRecord
100
AcDbRegAppTableRecord
  2
ACAD
 70
     0
  0
ENDTAB
  0
TABLE
  2
DIMSTYLE
  5
21
330
0
100
AcDbSymbolTable
 70
     1
100
AcDbDimStyleTable
  0
DIMSTYLE
105
28
330
21
100
AcDbSymbolTableRecord
100
AcDbDimStyleTableRecord
  2
STANDARD
 70
     0
  3

  4

340
16
  0
ENDTAB
  0
TABLE
  2
BLOCK_RECORD
  5
1
330
0
100
AcDbSymbolTable
 70
     1
  0
BLOCK_RECORD
  5
2
330
1
100
AcDbSymbolTableRecord
100
AcDbBlockTableRecord
  2
*MODEL_SPACE
340
C
  0
BLOCK_RECORD
  5
E
330
1
100
AcDbSymbolTableRecord
100
AcDbBlockTableRecord
  2
*PAPER_SPACE
340
13
  0
ENDTAB
  0
ENDSEC
  0
SECTION
  2
BLOCKS
  0
BLOCK
  5
5
330
2
100
AcDbEntity
  8
0
100
AcDbBlockBegin
  2
*MODEL_SPACE
 70
     0
 10
0.0
 20
0.0
 30
0.0
  3
*MODEL_SPACE
  1

  4

  0
ENDBLK
  5
B
330
2
100
AcDbEntity
  8
0
100
AcDbBlockEnd
  0
BLOCK
  5
11
330
E
100
AcDbEntity
 67
     1
  8
0
100
AcDbBlockBegin
  2
*PAPER_SPACE
 70
     0
 10
0.0
 20
0.0
 30
0.0
  3
*PAPER_SPACE
  1

  4

  0
ENDBLK
  5
12
330
E
100
AcDbEntity
 67
     1
  8
0
100
AcDbBlockEnd
  0
ENDSEC
  0
SECTION
  2
ENTITIES
  0
LINE
  5
165
330
2
100
AcDbEntity
  8
0
100
AcDbLine
 10
2.687500000000002
 20
0.0624999999999982
 30
0.0
 11
-2.687499999999998
 21
0.0625000000000018
 31
0.0
  0
LINE
  5
166
330
2
100
AcDbEntity
  8
0
100
AcDbLine
 10
2.687499999999998
 20
-0.0000000000000018
 30
0.0
 11
-2.687499999999998
 21
-0.0000000000000053
 31
0.0
  0
LINE
  5
167
330
2
100
AcDbEntity
  8
0
100
AcDbLine
 10
-4.812499999999998
 20
8.378523959581719
 30
0.0
 11
-4.812499999999998
 21
9.066023959581715
 31
0.0
  0
LINE
  5
168
330
2
100
AcDbEntity
  8
0
100
AcDbLine
 10
-2.812499999999998
 20
0.1249999999999947
 30
0.0
 11
-2.812499999999998
 21
9.066023959581715
 31
0.0
  0
LINE
  5
169
330
2
100
AcDbEntity
  8
0
100
AcDbLine
 10
-2.749999999999998
 20
0.1250000000000018
 30
0.0
 11
-2.749999999999998
 21
9.066023959581719
 31
0.0
  0
LINE
  5
16A
330
2
100
AcDbEntity
  8
0
100
AcDbLine
 10
-4.499999999999998
 20
2.240601157564234
 30
0.0
 11
-4.499999999999998
 21
4.191023959581719
 31
0.0
  0
ARC
  5
16B
330
2
100
AcDbEntity
  8
0
100
AcDbCircle
 10
-2.687499999999998
 20
0.1250000000000018
 30
0.0
 40
0.0625
100
AcDbArc
 50
180.0
 51
269.9999999999998
  0
ARC
  5
16C
330
2
100
AcDbEntity
  8
0
100
AcDbCircle
 10
-2.687499999999998
 20
0.1249999999999947
 30
0.0
 40
0.125
100
AcDbArc
 50
180.0
 51
269.9999999999999
  0
LINE
  5
16D
330
2
100
AcDbEntity
  8
0
100
AcDbLine
 10
-2.812499999999998
 20
0.7314237593828228
 30
0.0
 11
-2.812499999999998
 21
1.008098759382827
 31
0.0
  0
LINE
  5
16F
330
2
100
AcDbEntity
  8
0
100
AcDbLine
 10
-4.194594513699565
 20
1.521199696946821
 30
0.0
 11
-2.812499999999998
 21
0.1867636147541329
 31
0.0
  0
ARC
  5
171
330
2
100
AcDbEntity
  8
0
100
AcDbCircle
 10
-3.499999999999998
 20
2.240601157564234
 30
0.0
 40
1.0
100
AcDbArc
 50
180.0
 51
226.0050860052541
  0
CIRCLE
  5
172
330
2
100
AcDbEntity
  8
0
100
AcDbCircle
 10
-3.312499999999998
 20
1.247234566302216
 30
0.0
 40
0.085937500000002
  0
ARC
  5
173
330
2
100
AcDbEntity
  8
0
100
AcDbCircle
 10
-2.812499999999998
 20
1.870533367718201
 30
0.0
 40
0.1875000000000025
100
AcDbArc
 50
90.0
 51
270.0
  0
CIRCLE
  5
174
330
2
100
AcDbEntity
  8
0
100
AcDbCircle
 10
-4.124999999999998
 20
2.37857395958172
 30
0.0
 40
0.085937500000002
  0
LINE
  5
175
330
2
100
AcDbEntity
  8
0
100
AcDbLine
 10
-2.812499999999998
 20
2.731423759382848
 30
0.0
 11
-2.812499999999998
 21
3.008098759382852
 31
0.0
  0
CIRCLE
  5
178
330
2
100
AcDbEntity
  8
0
100
AcDbCircle
 10
-3.312499999999998
 20
2.746989561292685
 30
0.0
 40
0.085937500000002
  0
LINE
  5
179
330
2
100
AcDbEntity
  8
0
100
AcDbLine
 10
-2.812500000000014
 20
5.918923759382823
 30
0.0
 11
-2.812500000000014
 21
6.195598759382827
 31
0.0
  0
LINE
  5
17B
330
2
100
AcDbEntity
  8
0
100
AcDbLine
 10
-4.499999999999998
 20
5.566023959581719
 30
0.0
 11
-4.499999999999998
 21
6.066023959581719
 31
0.0
  0
LINE
  5
17C
330
2
100
AcDbEntity
  8
0
100
AcDbLine
 10
-4.812499999999998
 20
4.503523959581719
 30
0.0
 11
-4.812499999999998
 21
5.253523959581719
 31
0.0
  0
CIRCLE
  5
17D
330
2
100
AcDbEntity
  8
0
100
AcDbCircle
 10
-3.312499999999998
 20
4.743370235971673
 30
0.0
 40
0.085937500000002
  0
CIRCLE
  5
17E
330
2
100
AcDbEntity
  8
0
100
AcDbCircle
 10
-4.124999999999998
 20
3.87857395958172
 30
0.0
 40
0.085937500000002
  0
LINE
  5
17F
330
2
100
AcDbEntity
  8
0
100
AcDbLine
 10
-4.656249999999998
 20
4.347273959581719
 30
0.0
 11
-4.656249999999998
 21
4.347273959581719
 31
0.0
  0
ARC
  5
180
330
2
100
AcDbEntity
  8
0
100
AcDbCircle
 10
-4.656249999999998
 20
4.503523959581719
 30
0.0
 40
0.15625
100
AcDbArc
 50
180.0
 51
269.9999999999999
  0
ARC
  5
181
330
2
100
AcDbEntity
  8
0
100
AcDbCircle
 10
-4.656249999999998
 20
4.191023959581719
 30
0.0
 40
0.15625
100
AcDbArc
 50
0.0
 51
90.0
  0
CIRCLE
  5
182
330
2
100
AcDbEntity
  8
0
100
AcDbCircle
 10
-3.312499999999998
 20
3.745179898632179
 30
0.0
 40
0.085937500000002
  0
LINE
  5
183
330
2
100
AcDbEntity
  8
0
100
AcDbLine
 10
-2.812499999999998
 20
3.731423759382848
 30
0.0
 11
-2.812499999999998
 21
4.008098759382852
 31
0.0
  0
ARC
  5
186
330
2
100
AcDbEntity
  8
0
100
AcDbCircle
 10
-4.656249999999998
 20
5.253523959581719
 30
0.0
 40
0.15625
100
AcDbArc
 50
90.0
 51
180.0
  0
CIRCLE
  5
187
330
2
100
AcDbEntity
  8
0
100
AcDbCircle
 10
-4.499999999999998
 20
5.034823959581717
 30
0.0
 40
0.085937500000002
  0
LINE
  5
188
330
2
100
AcDbEntity
  8
0
100
AcDbLine
 10
-4.656249999999998
 20
5.918586659780617
 30
0.0
 11
-4.656249999999998
 21
5.918586659780617
 31
0.0
  0
LINE
  5
189
330
2
100
AcDbEntity
  8
0
100
AcDbLine
 10
-4.656249999999998
 20
5.409773959581719
 30
0.0
 11
-4.656249999999998
 21
5.409773959581719
 31
0.0
  0
ARC
  5
18A
330
2
100
AcDbEntity
  8
0
100
AcDbCircle
 10
-4.656249999999998
 20
5.566023959581719
 30
0.0
 40
0.15625
100
AcDbArc
 50
270.0
 51
359.9999999999999
  0
CIRCLE
  5
18B
330
2
100
AcDbEntity
  8
0
100
AcDbCircle
 10
-4.124999999999998
 20
5.878573959581717
 30
0.0
 40
0.085937500000002
  0
CIRCLE
  5
18C
330
2
100
AcDbEntity
  8
0
100
AcDbCircle
 10
-3.312499999999998
 20
5.746855786612846
 30
0.0
 40
0.085937500000002
  0
ARC
  5
18D
330
2
100
AcDbEntity
  8
0
100
AcDbCircle
 10
-4.656249999999998
 20
7.128523959581719
 30
0.0
 40
0.15625
100
AcDbArc
 50
90.0
 51
180.0
  0
LINE
  5
18E
330
2
100
AcDbEntity
  8
0
100
AcDbLine
 10
-4.812499999999998
 20
6.378523959581719
 30
0.0
 11
-4.812499999999998
 21
7.128523959581719
 31
0.0
  0
ARC
  5
18F
330
2
100
AcDbEntity
  8
0
100
AcDbCircle
 10
-4.656249999999998
 20
6.378523959581719
 30
0.0
 40
0.15625
100
AcDbArc
 50
180.0
 51
269.9999999999999
  0
ARC
  5
190
330
2
100
AcDbEntity
  8
0
100
AcDbCircle
 10
-4.656249999999998
 20
6.066023959581719
 30
0.0
 40
0.15625
100
AcDbArc
 50
0.0
 51
90.0
  0
CIRCLE
  5
191
330
2
100
AcDbEntity
  8
0
100
AcDbCircle
 10
-4.499999999999998
 20
6.878573959581717
 30
0.0
 40
0.085937500000002
  0
CIRCLE
  5
193
330
2
100
AcDbEntity
  8
0
100
AcDbCircle
 10
-3.312499999999998
 20
6.743370152929151
 30
0.0
 40
0.085937500000002
  0
CIRCLE
  5
194
330
2
100
AcDbEntity
  8
0
100
AcDbCircle
 10
-4.124999999999998
 20
7.878573959581717
 30
0.0
 40
0.085937500000002
  0
LINE
  5
195
330
2
100
AcDbEntity
  8
0
100
AcDbLine
 10
-4.499999999999998
 20
7.441023959581719
 30
0.0
 11
-4.499999999999998
 21
8.066023959581719
 31
0.0
  0
LINE
  5
196
330
2
100
AcDbEntity
  8
0
100
AcDbLine
 10
-4.656249999999998
 20
7.284773959581719
 30
0.0
 11
-4.656249999999998
 21
7.284773959581719
 31
0.0
  0
ARC
  5
197
330
2
100
AcDbEntity
  8
0
100
AcDbCircle
 10
-4.656249999999998
 20
7.441023959581719
 30
0.0
 40
0.15625
100
AcDbArc
 50
270.0
 51
359.9999999999999
  0
LINE
  5
198
330
2
100
AcDbEntity
  8
0
100
AcDbLine
 10
-4.656249999999998
 20
8.222273959581719
 30
0.0
 11
-4.656249999999998
 21
8.222273959581719
 31
0.0
  0
ARC
  5
199
330
2
100
AcDbEntity
  8
0
100
AcDbCircle
 10
-4.656249999999998
 20
8.378523959581719
 30
0.0
 40
0.15625
100
AcDbArc
 50
180.0
 51
269.9999999999999
  0
ARC
  5
19A
330
2
100
AcDbEntity
  8
0
100
AcDbCircle
 10
-4.656249999999998
 20
8.066023959581719
 30
0.0
 40
0.15625
100
AcDbArc
 50
0.0
 51
90.0
  0
LINE
  5
19B
330
2
100
AcDbEntity
  8
0
100
AcDbLine
 10
-2.812500000000014
 20
7.793749904400839
 30
0.0
 11
-2.812500000000014
 21
8.070424904400843
 31
0.0
  0
CIRCLE
  5
19D
330
2
100
AcDbEntity
  8
0
100
AcDbCircle
 10
-3.312499999999998
 20
7.621989561292685
 30
0.0
 40
0.085937500000002
  0
LINE
  5
19F
330
2
100
AcDbEntity
  8
0
100
AcDbLine
 10
-4.812499999999998
 20
9.066023959581715
 30
0.0
 11
-2.749999999999998
 21
9.066023959581719
 31
0.0
  0
CIRCLE
  5
1A0
330
2
100
AcDbEntity
  8
0
100
AcDbCircle
 10
-4.499999999999998
 20
8.753573959581717
 30
0.0
 40
0.085937500000002
  0
CIRCLE
  5
1A1
330
2
100
AcDbEntity
  8
0
100
AcDbCircle
 10
-3.312499999999998
 20
8.619761259382818
 30
0.0
 40
0.085937500000002
  0
LINE
  5
1A2
330
2
100
AcDbEntity
  8
0
100
AcDbLine
 10
4.812500000000002
 20
8.378523959581715
 30
0.0
 11
4.812500000000002
 21
9.066023959581715
 31
0.0
  0
LINE
  5
1A3
330
2
100
AcDbEntity
  8
0
100
AcDbLine
 10
2.812500000000002
 20
9.066023959581711
 30
0.0
 11
2.812499999999998
 21
0.1249999999999982
 31
0.0
  0
LINE
  5
1A4
330
2
100
AcDbEntity
  8
0
100
AcDbLine
 10
2.750000000000002
 20
9.066023959581711
 30
0.0
 11
2.750000000000002
 21
0.1249999999999982
 31
0.0
  0
LINE
  5
1A5
330
2
100
AcDbEntity
  8
0
100
AcDbLine
 10
4.500000000000002
 20
2.240601157564226
 30
0.0
 11
4.500000000000002
 21
4.191023959581715
 31
0.0
  0
LINE
  5
1A6
330
2
100
AcDbEntity
  8
0
100
AcDbLine
 10
2.812500000000076
 20
3.362469223638909
 30
0.0
 11
2.812500000000076
 21
3.639144223638914
 31
0.0
  0
LINE
  5
1A9
330
2
100
AcDbEntity
  8
0
100
AcDbLine
 10
4.194594513699565
 20
1.521199696946818
 30
0.0
 11
2.812500000000002
 21
0.1867636147541329
 31
0.0
  0
ARC
  5
1AA
330
2
100
AcDbEntity
  8
0
100
AcDbCircle
 10
2.687500000000002
 20
0.1249999999999982
 30
0.0
 40
0.0625
100
AcDbArc
 50
269.9999999999998
 51
0.0
  0
ARC
  5
1AB
330
2
100
AcDbEntity
  8
0
100
AcDbCircle
 10
2.687499999999998
 20
0.1249999999999982
 30
0.0
 40
0.125
100
AcDbArc
 50
270.0000000000001
 51
0.0
  0
LINE
  5
1AC
330
2
100
AcDbEntity
  8
0
100
AcDbLine
 10
2.812500000000076
 20
0.4185168353892106
 30
0.0
 11
2.812500000000076
 21
0.695191835389215
 31
0.0
  0
CIRCLE
  5
1AF
330
2
100
AcDbEntity
  8
0
100
AcDbCircle
 10
4.125000000000002
 20
2.37857395958172
 30
0.0
 40
0.085937500000002
  0
ARC
  5
1B0
330
2
100
AcDbEntity
  8
0
100
AcDbCircle
 10
2.812500000000002
 20
1.870533367718197
 30
0.0
 40
0.1875000000000025
100
AcDbArc
 50
270.0
 51
90.0
  0
CIRCLE
  5
1B1
330
2
100
AcDbEntity
  8
0
100
AcDbCircle
 10
3.312500000000002
 20
1.244761259382822
 30
0.0
 40
0.085937500000002
  0
LINE
  5
1B2
330
2
100
AcDbEntity
  8
0
100
AcDbLine
 10
2.812500000000076
 20
2.22462263758136
 30
0.0
 11
2.812500000000076
 21
2.501297637581365
 31
0.0
  0
CIRCLE
  5
1B5
330
2
100
AcDbEntity
  8
0
100
AcDbCircle
 10
3.312500000000002
 20
2.744761259382822
 30
0.0
 40
0.085937500000002
  0
ARC
  5
1B6
330
2
100
AcDbEntity
  8
0
100
AcDbCircle
 10
3.500000000000002
 20
2.240601157564226
 30
0.0
 40
1.0
100
AcDbArc
 50
313.9949139947457
 51
0.0
  0
LINE
  5
1B7
330
2
100
AcDbEntity
  8
0
100
AcDbLine
 10
4.500000000000002
 20
5.566023959581715
 30
0.0
 11
4.500000000000002
 21
6.066023959581715
 31
0.0
  0
CIRCLE
  5
1B8
330
2
100
AcDbEntity
  8
0
100
AcDbCircle
 10
4.125000000000002
 20
5.878573959581717
 30
0.0
 40
0.085937500000002
  0
CIRCLE
  5
1B9
330
2
100
AcDbEntity
  8
0
100
AcDbCircle
 10
4.125000000000002
 20
3.87857395958172
 30
0.0
 40
0.085937500000002
  0
CIRCLE
  5
1BA
330
2
100
AcDbEntity
  8
0
100
AcDbCircle
 10
3.312500000000002
 20
4.744761259382818
 30
0.0
 40
0.085937500000002
  0
CIRCLE
  5
1BB
330
2
100
AcDbEntity
  8
0
100
AcDbCircle
 10
3.312500000000002
 20
3.744761259382822
 30
0.0
 40
0.085937500000002
  0
LINE
  5
1BC
330
2
100
AcDbEntity
  8
0
100
AcDbLine
 10
2.812500000000076
 20
5.673983084951443
 30
0.0
 11
2.812500000000076
 21
5.950658084951447
 31
0.0
  0
CIRCLE
  5
1BF
330
2
100
AcDbEntity
  8
0
100
AcDbCircle
 10
3.312500000000002
 20
5.744761259382822
 30
0.0
 40
0.085937500000002
  0
LINE
  5
1C0
330
2
100
AcDbEntity
  8
0
100
AcDbLine
 10
4.812500000000002
 20
4.503523959581715
 30
0.0
 11
4.812500000000002
 21
5.253523959581715
 31
0.0
  0
ARC
  5
1C1
330
2
100
AcDbEntity
  8
0
100
AcDbCircle
 10
4.656250000000002
 20
4.191023959581715
 30
0.0
 40
0.15625
100
AcDbArc
 50
89.99999999999999
 51
180.0
  0
LINE
  5
1C2
330
2
100
AcDbEntity
  8
0
100
AcDbLine
 10
4.656250000000002
 20
4.347273959581715
 30
0.0
 11
4.656250000000002
 21
4.347273959581715
 31
0.0
  0
ARC
  5
1C3
330
2
100
AcDbEntity
  8
0
100
AcDbCircle
 10
4.656250000000002
 20
4.503523959581715
 30
0.0
 40
0.15625
100
AcDbArc
 50
270.0000000000001
 51
0.0
  0
ARC
  5
1C4
330
2
100
AcDbEntity
  8
0
100
AcDbCircle
 10
4.656250000000002
 20
5.253523959581715
 30
0.0
 40
0.15625
100
AcDbArc
 50
0.0
 51
89.99999999999999
  0
CIRCLE
  5
1C5
330
2
100
AcDbEntity
  8
0
100
AcDbCircle
 10
4.500000000000002
 20
5.034823959581717
 30
0.0
 40
0.085937500000002
  0
ARC
  5
1C6
330
2
100
AcDbEntity
  8
0
100
AcDbCircle
 10
4.656250000000002
 20
5.566023959581715
 30
0.0
 40
0.15625
100
AcDbArc
 50
180.0000000000001
 51
270.0
  0
LINE
  5
1C7
330
2
100
AcDbEntity
  8
0
100
AcDbLine
 10
4.656250000000002
 20
5.409773959581715
 30
0.0
 11
4.656250000000002
 21
5.409773959581715
 31
0.0
  0
CIRCLE
  5
1C8
330
2
100
AcDbEntity
  8
0
100
AcDbCircle
 10
4.125000000000002
 20
7.878573959581717
 30
0.0
 40
0.085937500000002
  0
CIRCLE
  5
1C9
330
2
100
AcDbEntity
  8
0
100
AcDbCircle
 10
3.312500000000002
 20
6.744761259382818
 30
0.0
 40
0.085937500000002
  0
LINE
  5
1CA
330
2
100
AcDbEntity
  8
0
100
AcDbLine
 10
2.812500000000076
 20
7.668923759382819
 30
0.0
 11
2.812500000000076
 21
7.945598759382824
 31
0.0
  0
CIRCLE
  5
1CD
330
2
100
AcDbEntity
  8
0
100
AcDbCircle
 10
3.312500000000002
 20
7.619761259382818
 30
0.0
 40
0.085937500000002
  0
ARC
  5
1CE
330
2
100
AcDbEntity
  8
0
100
AcDbCircle
 10
4.656250000000002
 20
7.128523959581715
 30
0.0
 40
0.15625
100
AcDbArc
 50
0.0
 51
89.99999999999999
  0
LINE
  5
1CF
330
2
100
AcDbEntity
  8
0
100
AcDbLine
 10
4.812500000000002
 20
6.378523959581715
 30
0.0
 11
4.812500000000002
 21
7.128523959581715
 31
0.0
  0
ARC
  5
1D0
330
2
100
AcDbEntity
  8
0
100
AcDbCircle
 10
4.656250000000002
 20
6.066023959581715
 30
0.0
 40
0.15625
100
AcDbArc
 50
89.99999999999999
 51
180.0
  0
LINE
  5
1D1
330
2
100
AcDbEntity
  8
0
100
AcDbLine
 10
4.656250000000002
 20
6.347273959581715
 30
0.0
 11
4.656250000000002
 21
6.347273959581715
 31
0.0
  0
ARC
  5
1D2
330
2
100
AcDbEntity
  8
0
100
AcDbCircle
 10
4.656250000000002
 20
6.378523959581715
 30
0.0
 40
0.15625
100
AcDbArc
 50
270.0000000000001
 51
0.0
  0
CIRCLE
  5
1D3
330
2
100
AcDbEntity
  8
0
100
AcDbCircle
 10
4.500000000000002
 20
6.878573959581717
 30
0.0
 40
0.085937500000002
  0
LINE
  5
1D4
330
2
100
AcDbEntity
  8
0
100
AcDbLine
 10
4.500000000000002
 20
7.441023959581715
 30
0.0
 11
4.500000000000002
 21
8.066023959581715
 31
0.0
  0
ARC
  5
1D5
330
2
100
AcDbEntity
  8
0
100
AcDbCircle
 10
4.656250000000002
 20
7.441023959581715
 30
0.0
 40
0.15625
100
AcDbArc
 50
180.0000000000001
 51
270.0
  0
LINE
  5
1D6
330
2
100
AcDbEntity
  8
0
100
AcDbLine
 10
4.656250000000002
 20
7.284773959581715
 30
0.0
 11
4.656250000000002
 21
7.284773959581715
 31
0.0
  0
ARC
  5
1D7
330
2
100
AcDbEntity
  8
0
100
AcDbCircle
 10
4.656250000000002
 20
8.066023959581715
 30
0.0
 40
0.15625
100
AcDbArc
 50
89.99999999999999
 51
180.0
  0
LINE
  5
1D8
330
2
100
AcDbEntity
  8
0
100
AcDbLine
 10
4.656250000000002
 20
8.222273959581715
 30
0.0
 11
4.656250000000002
 21
8.222273959581715
 31
0.0
  0
ARC
  5
1D9
330
2
100
AcDbEntity
  8
0
100
AcDbCircle
 10
4.656250000000002
 20
8.378523959581715
 30
0.0
 40
0.15625
100
AcDbArc
 50
270.0000000000001
 51
0.0
  0
LINE
  5
1DA
330
2
100
AcDbEntity
  8
0
100
AcDbLine
 10
4.812500000000002
 20
9.066023959581715
 30
0.0
 11
2.750000000000002
 21
9.066023959581715
 31
0.0
  0
CIRCLE
  5
1DB
330
2
100
AcDbEntity
  8
0
100
AcDbCircle
 10
3.312500000000002
 20
8.619761259382818
 30
0.0
 40
0.085937500000002
  0
CIRCLE
  5
1DC
330
2
100
AcDbEntity
  8
0
100
AcDbCircle
 10
4.500000000000002
 20
8.753573959581717
 30
0.0
 40
0.085937500000002
  0
ARC
  5
204
330
2
100
AcDbEntity
  8
0
100
AcDbCircle
 10
-2.812499999999994
 20
0.8075575324495556
 30
0.0
 40
0.0468087730667328
100
AcDbArc
 50
237.3920789847987
 51
269.9999999999945
  0
ARC
  5
205
330
2
100
AcDbEntity
  8
0
100
AcDbCircle
 10
-2.793457495708217
 20
0.8373243991936388
 30
0.0
 40
0.0821454866301413
100
AcDbArc
 50
212.9226719024481
 51
237.3920789848042
  0
ARC
  5
206
330
2
100
AcDbEntity
  8
0
100
AcDbCircle
 10
-2.76319958439517
 20
0.8569161081899122
 30
0.0
 40
0.1181923486076133
100
AcDbArc
 50
195.0133710020014
 51
212.9226719024539
  0
ARC
  5
207
330
2
100
AcDbEntity
  8
0
100
AcDbCircle
 10
-2.715305538061833
 20
0.8697612593828179
 30
0.0
 40
0.1677790160026745
100
AcDbArc
 50
179.9999999999964
 51
195.0133710019935
  0
ARC
  5
208
330
2
100
AcDbEntity
  8
0
100
AcDbCircle
 10
-2.715305538061864
 20
0.8697612593828321
 30
0.0
 40
0.167779016002644
100
AcDbArc
 50
164.9866289980037
 51
180.0000000000013
  0
ARC
  5
209
330
2
100
AcDbEntity
  8
0
100
AcDbCircle
 10
-2.763199584395174
 20
0.8826064105757379
 30
0.0
 40
0.1181923486076092
100
AcDbArc
 50
147.077328097545
 51
164.986628997998
  0
ARC
  5
20A
330
2
100
AcDbEntity
  8
0
100
AcDbCircle
 10
-2.793457495708215
 20
0.9021981195720077
 30
0.0
 40
0.0821454866301453
100
AcDbArc
 50
122.6079210151955
 51
147.0773280975505
  0
ARC
  5
20B
330
2
100
AcDbEntity
  8
0
100
AcDbCircle
 10
-2.812499999999994
 20
0.9319649863160944
 30
0.0
 40
0.0468087730667332
100
AcDbArc
 50
90.00000000000543
 51
122.6079210152013
  0
ARC
  5
20C
330
2
100
AcDbEntity
  8
0
100
AcDbCircle
 10
-2.812499999999995
 20
0.8221270100059126
 30
0.0
 40
0.0320532506230897
100
AcDbArc
 50
236.4891770443244
 51
269.9999999999936
  0
ARC
  5
20D
330
2
100
AcDbEntity
  8
0
100
AcDbCircle
 10
-2.797424981436208
 20
0.8448935336205405
 30
0.0
 40
0.0593583926698527
100
AcDbArc
 50
212.0281066666074
 51
236.4891770443289
  0
ARC
  5
20E
330
2
100
AcDbEntity
  8
0
100
AcDbCircle
 10
-2.773421555912525
 20
0.8599089162423379
 30
0.0
 40
0.0876713959042323
100
AcDbArc
 50
194.5265478168115
 51
212.0281066666223
  0
ARC
  5
20F
330
2
100
AcDbEntity
  8
0
100
AcDbCircle
 10
-2.735398060736391
 20
0.8697612593828037
 30
0.0
 40
0.1269505869698208
100
AcDbArc
 50
179.9999999999888
 51
194.5265478167859
  0
ARC
  5
210
330
2
100
AcDbEntity
  8
0
100
AcDbCircle
 10
-2.735398060736419
 20
0.8697612593828534
 30
0.0
 40
0.1269505869697927
100
AcDbArc
 50
165.4734521832141
 51
180.0000000000112
  0
ARC
  5
211
330
2
100
AcDbEntity
  8
0
100
AcDbCircle
 10
-2.77342155591253
 20
0.8796136025233121
 30
0.0
 40
0.0876713959042278
100
AcDbArc
 50
147.9718933333758
 51
165.4734521831877
  0
ARC
  5
212
330
2
100
AcDbEntity
  8
0
100
AcDbCircle
 10
-2.797424981436208
 20
0.8946289851451095
 30
0.0
 40
0.0593583926698527
100
AcDbArc
 50
123.5108229556711
 51
147.9718933333926
  0
ARC
  5
213
330
2
100
AcDbEntity
  8
0
100
AcDbCircle
 10
-2.812499999999995
 20
0.9173955087597374
 30
0.0
 40
0.0320532506230895
100
AcDbArc
 50
90.00000000000637
 51
123.5108229556756
  0
ARC
  5
214
330
2
100
AcDbEntity
  8
0
100
AcDbCircle
 10
-2.812499999999995
 20
2.822127010005934
 30
0.0
 40
0.0320532506230862
100
AcDbArc
 50
236.4891770443209
 51
269.9999999999936
  0
ARC
  5
215
330
2
100
AcDbEntity
  8
0
100
AcDbCircle
 10
-2.797424981436208
 20
2.844893533620565
 30
0.0
 40
0.0593583926698527
100
AcDbArc
 50
212.0281066666074
 51
236.4891770443289
  0
ARC
  5
216
330
2
100
AcDbEntity
  8
0
100
AcDbCircle
 10
-2.773421555912525
 20
2.859908916242366
 30
0.0
 40
0.0876713959042342
100
AcDbArc
 50
194.5265478168137
 51
212.0281066666243
  0
ARC
  5
217
330
2
100
AcDbEntity
  8
0
100
AcDbCircle
 10
-2.735398060736391
 20
2.869761259382825
 30
0.0
 40
0.1269505869698199
100
AcDbArc
 50
179.9999999999872
 51
194.5265478167843
  0
ARC
  5
218
330
2
100
AcDbEntity
  8
0
100
AcDbCircle
 10
-2.735398060736419
 20
2.869761259382875
 30
0.0
 40
0.1269505869697927
100
AcDbArc
 50
165.4734521832125
 51
180.0000000000096
  0
ARC
  5
219
330
2
100
AcDbEntity
  8
0
100
AcDbCircle
 10
-2.77342155591253
 20
2.879613602523337
 30
0.0
 40
0.0876713959042278
100
AcDbArc
 50
147.9718933333758
 51
165.4734521831877
  0
ARC
  5
21A
330
2
100
AcDbEntity
  8
0
100
AcDbCircle
 10
-2.797424981436208
 20
2.894628985145134
 30
0.0
 40
0.0593583926698527
100
AcDbArc
 50
123.5108229556711
 51
147.9718933333926
  0
ARC
  5
21B
330
2
100
AcDbEntity
  8
0
100
AcDbCircle
 10
-2.812499999999995
 20
2.917395508759762
 30
0.0
 40
0.0320532506230895
100
AcDbArc
 50
90.00000000000637
 51
123.5108229556756
  0
ARC
  5
21C
330
2
100
AcDbEntity
  8
0
100
AcDbCircle
 10
-2.812499999999994
 20
2.807557532449584
 30
0.0
 40
0.0468087730667364
100
AcDbArc
 50
237.3920789848011
 51
269.9999999999945
  0
ARC
  5
21D
330
2
100
AcDbEntity
  8
0
100
AcDbCircle
 10
-2.793457495708217
 20
2.837324399193667
 30
0.0
 40
0.0821454866301443
100
AcDbArc
 50
212.9226719024502
 51
237.3920789848056
  0
ARC
  5
21E
330
2
100
AcDbEntity
  8
0
100
AcDbCircle
 10
-2.76319958439517
 20
2.856916108189937
 30
0.0
 40
0.1181923486076133
100
AcDbArc
 50
195.0133710020014
 51
212.9226719024539
  0
ARC
  5
21F
330
2
100
AcDbEntity
  8
0
100
AcDbCircle
 10
-2.715305538061833
 20
2.869761259382846
 30
0.0
 40
0.1677790160026754
100
AcDbArc
 50
179.9999999999976
 51
195.0133710019947
  0
ARC
  5
220
330
2
100
AcDbEntity
  8
0
100
AcDbCircle
 10
-2.715305538061864
 20
2.869761259382861
 30
0.0
 40
0.167779016002644
100
AcDbArc
 50
164.9866289980049
 51
180.0000000000024
  0
ARC
  5
221
330
2
100
AcDbEntity
  8
0
100
AcDbCircle
 10
-2.763199584395174
 20
2.882606410575766
 30
0.0
 40
0.1181923486076083
100
AcDbArc
 50
147.0773280975464
 51
164.9866289979997
  0
ARC
  5
222
330
2
100
AcDbEntity
  8
0
100
AcDbCircle
 10
-2.793457495708215
 20
2.902198119572033
 30
0.0
 40
0.0821454866301453
100
AcDbArc
 50
122.6079210151955
 51
147.0773280975505
  0
ARC
  5
223
330
2
100
AcDbEntity
  8
0
100
AcDbCircle
 10
-2.812499999999994
 20
2.931964986316116
 30
0.0
 40
0.0468087730667362
100
AcDbArc
 50
90.00000000000543
 51
122.6079210151989
  0
ARC
  5
224
330
2
100
AcDbEntity
  8
0
100
AcDbCircle
 10
-2.81250000000001
 20
5.995057532449556
 30
0.0
 40
0.0468087730667328
100
AcDbArc
 50
237.3920789847987
 51
269.9999999999945
  0
ARC
  5
225
330
2
100
AcDbEntity
  8
0
100
AcDbCircle
 10
-2.793457495708233
 20
6.024824399193639
 30
0.0
 40
0.0821454866301413
100
AcDbArc
 50
212.9226719024481
 51
237.3920789848042
  0
ARC
  5
226
330
2
100
AcDbEntity
  8
0
100
AcDbCircle
 10
-2.763199584395186
 20
6.044416108189912
 30
0.0
 40
0.1181923486076133
100
AcDbArc
 50
195.0133710020014
 51
212.9226719024539
  0
ARC
  5
227
330
2
100
AcDbEntity
  8
0
100
AcDbCircle
 10
-2.715305538061849
 20
6.057261259382818
 30
0.0
 40
0.1677790160026745
100
AcDbArc
 50
179.9999999999964
 51
195.0133710019935
  0
ARC
  5
228
330
2
100
AcDbEntity
  8
0
100
AcDbCircle
 10
-2.71530553806188
 20
6.057261259382832
 30
0.0
 40
0.167779016002644
100
AcDbArc
 50
164.9866289980037
 51
180.0000000000013
  0
ARC
  5
229
330
2
100
AcDbEntity
  8
0
100
AcDbCircle
 10
-2.76319958439519
 20
6.070106410575738
 30
0.0
 40
0.1181923486076092
100
AcDbArc
 50
147.077328097545
 51
164.986628997998
  0
ARC
  5
22A
330
2
100
AcDbEntity
  8
0
100
AcDbCircle
 10
-2.793457495708231
 20
6.089698119572008
 30
0.0
 40
0.0821454866301453
100
AcDbArc
 50
122.6079210151955
 51
147.0773280975505
  0
ARC
  5
22B
330
2
100
AcDbEntity
  8
0
100
AcDbCircle
 10
-2.81250000000001
 20
6.119464986316094
 30
0.0
 40
0.0468087730667332
100
AcDbArc
 50
90.00000000000543
 51
122.6079210152013
  0
ARC
  5
22C
330
2
100
AcDbEntity
  8
0
100
AcDbCircle
 10
-2.812499999999995
 20
3.822127010005934
 30
0.0
 40
0.0320532506230862
100
AcDbArc
 50
236.4891770443209
 51
269.9999999999936
  0
ARC
  5
22D
330
2
100
AcDbEntity
  8
0
100
AcDbCircle
 10
-2.797424981436208
 20
3.844893533620565
 30
0.0
 40
0.0593583926698527
100
AcDbArc
 50
212.0281066666074
 51
236.4891770443289
  0
ARC
  5
22E
330
2
100
AcDbEntity
  8
0
100
AcDbCircle
 10
-2.773421555912525
 20
3.859908916242366
 30
0.0
 40
0.0876713959042342
100
AcDbArc
 50
194.5265478168137
 51
212.0281066666243
  0
ARC
  5
22F
330
2
100
AcDbEntity
  8
0
100
AcDbCircle
 10
-2.735398060736391
 20
3.869761259382825
 30
0.0
 40
0.1269505869698199
100
AcDbArc
 50
179.9999999999872
 51
194.5265478167843
  0
ARC
  5
230
330
2
100
AcDbEntity
  8
0
100
AcDbCircle
 10
-2.735398060736419
 20
3.869761259382875
 30
0.0
 40
0.1269505869697927
100
AcDbArc
 50
165.4734521832125
 51
180.0000000000096
  0
ARC
  5
231
330
2
100
AcDbEntity
  8
0
100
AcDbCircle
 10
-2.77342155591253
 20
3.879613602523337
 30
0.0
 40
0.0876713959042278
100
AcDbArc
 50
147.9718933333758
 51
165.4734521831877
  0
ARC
  5
232
330
2
100
AcDbEntity
  8
0
100
AcDbCircle
 10
-2.797424981436208
 20
3.894628985145134
 30
0.0
 40
0.0593583926698527
100
AcDbArc
 50
123.5108229556711
 51
147.9718933333926
  0
ARC
  5
233
330
2
100
AcDbEntity
  8
0
100
AcDbCircle
 10
-2.812499999999995
 20
3.917395508759762
 30
0.0
 40
0.0320532506230895
100
AcDbArc
 50
90.00000000000637
 51
123.5108229556756
  0
ARC
  5
234
330
2
100
AcDbEntity
  8
0
100
AcDbCircle
 10
-2.812499999999994
 20
3.807557532449584
 30
0.0
 40
0.0468087730667364
100
AcDbArc
 50
237.3920789848011
 51
269.9999999999945
  0
ARC
  5
235
330
2
100
AcDbEntity
  8
0
100
AcDbCircle
 10
-2.793457495708217
 20
3.837324399193667
 30
0.0
 40
0.0821454866301443
100
AcDbArc
 50
212.9226719024502
 51
237.3920789848056
  0
ARC
  5
236
330
2
100
AcDbEntity
  8
0
100
AcDbCircle
 10
-2.76319958439517
 20
3.856916108189937
 30
0.0
 40
0.1181923486076133
100
AcDbArc
 50
195.0133710020014
 51
212.9226719024539
  0
ARC
  5
237
330
2
100
AcDbEntity
  8
0
100
AcDbCircle
 10
-2.715305538061833
 20
3.869761259382846
 30
0.0
 40
0.1677790160026754
100
AcDbArc
 50
179.9999999999976
 51
195.0133710019947
  0
ARC
  5
238
330
2
100
AcDbEntity
  8
0
100
AcDbCircle
 10
-2.715305538061864
 20
3.869761259382861
 30
0.0
 40
0.167779016002644
100
AcDbArc
 50
164.9866289980049
 51
180.0000000000024
  0
ARC
  5
239
330
2
100
AcDbEntity
  8
0
100
AcDbCircle
 10
-2.763199584395174
 20
3.882606410575766
 30
0.0
 40
0.1181923486076083
100
AcDbArc
 50
147.0773280975464
 51
164.9866289979997
  0
ARC
  5
23A
330
2
100
AcDbEntity
  8
0
100
AcDbCircle
 10
-2.793457495708215
 20
3.902198119572033
 30
0.0
 40
0.0821454866301453
100
AcDbArc
 50
122.6079210151955
 51
147.0773280975505
  0
ARC
  5
23B
330
2
100
AcDbEntity
  8
0
100
AcDbCircle
 10
-2.812499999999994
 20
3.931964986316116
 30
0.0
 40
0.0468087730667362
100
AcDbArc
 50
90.00000000000543
 51
122.6079210151989
  0
ARC
  5
23C
330
2
100
AcDbEntity
  8
0
100
AcDbCircle
 10
-2.812500000000011
 20
7.884453155023925
 30
0.0
 40
0.0320532506230862
100
AcDbArc
 50
236.4891770443209
 51
269.9999999999936
  0
ARC
  5
23D
330
2
100
AcDbEntity
  8
0
100
AcDbCircle
 10
-2.797424981436224
 20
7.907219678638557
 30
0.0
 40
0.0593583926698527
100
AcDbArc
 50
212.0281066666074
 51
236.4891770443289
  0
ARC
  5
23E
330
2
100
AcDbEntity
  8
0
100
AcDbCircle
 10
-2.773421555912541
 20
7.922235061260357
 30
0.0
 40
0.0876713959042342
100
AcDbArc
 50
194.5265478168137
 51
212.0281066666243
  0
ARC
  5
23F
330
2
100
AcDbEntity
  8
0
100
AcDbCircle
 10
-2.735398060736407
 20
7.932087404400816
 30
0.0
 40
0.1269505869698199
100
AcDbArc
 50
179.9999999999872
 51
194.5265478167843
  0
ARC
  5
240
330
2
100
AcDbEntity
  8
0
100
AcDbCircle
 10
-2.735398060736435
 20
7.932087404400866
 30
0.0
 40
0.1269505869697927
100
AcDbArc
 50
165.4734521832125
 51
180.0000000000096
  0
ARC
  5
241
330
2
100
AcDbEntity
  8
0
100
AcDbCircle
 10
-2.773421555912546
 20
7.941939747541328
 30
0.0
 40
0.0876713959042278
100
AcDbArc
 50
147.9718933333758
 51
165.4734521831877
  0
ARC
  5
242
330
2
100
AcDbEntity
  8
0
100
AcDbCircle
 10
-2.797424981436224
 20
7.956955130163125
 30
0.0
 40
0.0593583926698527
100
AcDbArc
 50
123.5108229556711
 51
147.9718933333926
  0
ARC
  5
243
330
2
100
AcDbEntity
  8
0
100
AcDbCircle
 10
-2.812500000000011
 20
7.979721653777753
 30
0.0
 40
0.0320532506230895
100
AcDbArc
 50
90.00000000000637
 51
123.5108229556756
  0
ARC
  5
244
330
2
100
AcDbEntity
  8
0
100
AcDbCircle
 10
-2.81250000000001
 20
7.869883677467575
 30
0.0
 40
0.0468087730667364
100
AcDbArc
 50
237.3920789848011
 51
269.9999999999945
  0
ARC
  5
245
330
2
100
AcDbEntity
  8
0
100
AcDbCircle
 10
-2.793457495708233
 20
7.899650544211658
 30
0.0
 40
0.0821454866301443
100
AcDbArc
 50
212.9226719024502
 51
237.3920789848056
  0
ARC
  5
246
330
2
100
AcDbEntity
  8
0
100
AcDbCircle
 10
-2.763199584395186
 20
7.919242253207928
 30
0.0
 40
0.1181923486076133
100
AcDbArc
 50
195.0133710020014
 51
212.9226719024539
  0
ARC
  5
247
330
2
100
AcDbEntity
  8
0
100
AcDbCircle
 10
-2.715305538061849
 20
7.932087404400837
 30
0.0
 40
0.1677790160026754
100
AcDbArc
 50
179.9999999999976
 51
195.0133710019947
  0
ARC
  5
248
330
2
100
AcDbEntity
  8
0
100
AcDbCircle
 10
-2.71530553806188
 20
7.932087404400852
 30
0.0
 40
0.167779016002644
100
AcDbArc
 50
164.9866289980049
 51
180.0000000000024
  0
ARC
  5
249
330
2
100
AcDbEntity
  8
0
100
AcDbCircle
 10
-2.76319958439519
 20
7.944932555593757
 30
0.0
 40
0.1181923486076083
100
AcDbArc
 50
147.0773280975464
 51
164.9866289979997
  0
ARC
  5
24A
330
2
100
AcDbEntity
  8
0
100
AcDbCircle
 10
-2.793457495708231
 20
7.964524264590024
 30
0.0
 40
0.0821454866301453
100
AcDbArc
 50
122.6079210151955
 51
147.0773280975505
  0
ARC
  5
24B
330
2
100
AcDbEntity
  8
0
100
AcDbCircle
 10
-2.81250000000001
 20
7.994291131334107
 30
0.0
 40
0.0468087730667362
100
AcDbArc
 50
90.00000000000543
 51
122.6079210151989
  0
ARC
  5
24C
330
2
100
AcDbEntity
  8
0
100
AcDbCircle
 10
-2.812500000000011
 20
6.009627010005913
 30
0.0
 40
0.0320532506230897
100
AcDbArc
 50
236.4891770443244
 51
269.9999999999936
  0
ARC
  5
24D
330
2
100
AcDbEntity
  8
0
100
AcDbCircle
 10
-2.797424981436224
 20
6.032393533620541
 30
0.0
 40
0.0593583926698527
100
AcDbArc
 50
212.0281066666074
 51
236.4891770443289
  0
ARC
  5
24E
330
2
100
AcDbEntity
  8
0
100
AcDbCircle
 10
-2.773421555912541
 20
6.047408916242338
 30
0.0
 40
0.0876713959042323
100
AcDbArc
 50
194.5265478168115
 51
212.0281066666223
  0
ARC
  5
24F
330
2
100
AcDbEntity
  8
0
100
AcDbCircle
 10
-2.735398060736407
 20
6.057261259382804
 30
0.0
 40
0.1269505869698208
100
AcDbArc
 50
179.9999999999888
 51
194.5265478167859
  0
ARC
  5
250
330
2
100
AcDbEntity
  8
0
100
AcDbCircle
 10
-2.735398060736435
 20
6.057261259382853
 30
0.0
 40
0.1269505869697927
100
AcDbArc
 50
165.4734521832141
 51
180.0000000000112
  0
ARC
  5
251
330
2
100
AcDbEntity
  8
0
100
AcDbCircle
 10
-2.773421555912546
 20
6.067113602523312
 30
0.0
 40
0.0876713959042278
100
AcDbArc
 50
147.9718933333758
 51
165.4734521831877
  0
ARC
  5
252
330
2
100
AcDbEntity
  8
0
100
AcDbCircle
 10
-2.797424981436224
 20
6.08212898514511
 30
0.0
 40
0.0593583926698527
100
AcDbArc
 50
123.5108229556711
 51
147.9718933333926
  0
ARC
  5
253
330
2
100
AcDbEntity
  8
0
100
AcDbCircle
 10
-2.812500000000011
 20
6.104895508759737
 30
0.0
 40
0.0320532506230895
100
AcDbArc
 50
90.00000000000637
 51
123.5108229556756
  0
ARC
  5
254
330
2
100
AcDbEntity
  8
0
100
AcDbCircle
 10
2.812500000000073
 20
3.453172474261995
 30
0.0
 40
0.0320532506230862
100
AcDbArc
 50
270.0000000000064
 51
303.5108229556791
  0
ARC
  5
255
330
2
100
AcDbEntity
  8
0
100
AcDbCircle
 10
2.797424981436286
 20
3.475938997876627
 30
0.0
 40
0.0593583926698527
100
AcDbArc
 50
303.5108229556711
 51
327.9718933333926
  0
ARC
  5
256
330
2
100
AcDbEntity
  8
0
100
AcDbCircle
 10
2.773421555912604
 20
3.490954380498428
 30
0.0
 40
0.0876713959042334
100
AcDbArc
 50
327.9718933333754
 51
345.4734521831862
  0
ARC
  5
257
330
2
100
AcDbEntity
  8
0
100
AcDbCircle
 10
2.73539806073647
 20
3.500806723638887
 30
0.0
 40
0.126950586969819
100
AcDbArc
 50
345.4734521832155
 51
0.0000000000128274
  0
ARC
  5
258
330
2
100
AcDbEntity
  8
0
100
AcDbCircle
 10
2.735398060736497
 20
3.500806723638936
 30
0.0
 40
0.1269505869697927
100
AcDbArc
 50
359.9999999999904
 51
14.52654781678748
  0
ARC
  5
259
330
2
100
AcDbEntity
  8
0
100
AcDbCircle
 10
2.773421555912609
 20
3.510659066779398
 30
0.0
 40
0.087671395904227
100
AcDbArc
 50
14.52654781681249
 51
32.0281066666245
  0
ARC
  5
25A
330
2
100
AcDbEntity
  8
0
100
AcDbCircle
 10
2.797424981436286
 20
3.525674449401196
 30
0.0
 40
0.0593583926698527
100
AcDbArc
 50
32.02810666660741
 51
56.48917704432887
  0
ARC
  5
25B
330
2
100
AcDbEntity
  8
0
100
AcDbCircle
 10
2.812500000000073
 20
3.548440973015824
 30
0.0
 40
0.0320532506230895
100
AcDbArc
 50
56.48917704432444
 51
89.99999999999365
  0
ARC
  5
25C
330
2
100
AcDbEntity
  8
0
100
AcDbCircle
 10
2.812500000000073
 20
3.438602996705646
 30
0.0
 40
0.0468087730667364
100
AcDbArc
 50
270.0000000000044
 51
302.607921015198
  0
ARC
  5
25D
330
2
100
AcDbEntity
  8
0
100
AcDbCircle
 10
2.793457495708296
 20
3.468369863449729
 30
0.0
 40
0.0821454866301438
100
AcDbArc
 50
302.6079210151939
 51
327.0773280975494
  0
ARC
  5
25E
330
2
100
AcDbEntity
  8
0
100
AcDbCircle
 10
2.763199584395249
 20
3.487961572445999
 30
0.0
 40
0.1181923486076126
100
AcDbArc
 50
327.0773280975459
 51
344.9866289979984
  0
ARC
  5
25F
330
2
100
AcDbEntity
  8
0
100
AcDbCircle
 10
2.715305538061912
 20
3.500806723638908
 30
0.0
 40
0.1677790160026746
100
AcDbArc
 50
344.9866289980052
 51
0.0000000000024265
  0
ARC
  5
260
330
2
100
AcDbEntity
  8
0
100
AcDbCircle
 10
2.715305538061942
 20
3.500806723638922
 30
0.0
 40
0.167779016002644
100
AcDbArc
 50
359.9999999999976
 51
15.0133710019951
  0
ARC
  5
261
330
2
100
AcDbEntity
  8
0
100
AcDbCircle
 10
2.763199584395252
 20
3.513651874831828
 30
0.0
 40
0.1181923486076083
100
AcDbArc
 50
15.01337100200033
 51
32.9226719024536
  0
ARC
  5
262
330
2
100
AcDbEntity
  8
0
100
AcDbCircle
 10
2.793457495708294
 20
3.533243583828094
 30
0.0
 40
0.0821454866301446
100
AcDbArc
 50
32.92267190244989
 51
57.39207898480503
  0
ARC
  5
263
330
2
100
AcDbEntity
  8
0
100
AcDbCircle
 10
2.812500000000073
 20
3.563010450572177
 30
0.0
 40
0.0468087730667357
100
AcDbArc
 50
57.39207898480197
 51
89.99999999999565
  0
ARC
  5
264
330
2
100
AcDbEntity
  8
0
100
AcDbCircle
 10
2.812500000000073
 20
0.494650608455947
 30
0.0
 40
0.0468087730667364
100
AcDbArc
 50
270.0000000000044
 51
302.607921015198
  0
ARC
  5
265
330
2
100
AcDbEntity
  8
0
100
AcDbCircle
 10
2.793457495708296
 20
0.5244174752000301
 30
0.0
 40
0.0821454866301438
100
AcDbArc
 50
302.6079210151939
 51
327.0773280975494
  0
ARC
  5
266
330
2
100
AcDbEntity
  8
0
100
AcDbCircle
 10
2.763199584395249
 20
0.5440091841963
 30
0.0
 40
0.1181923486076126
100
AcDbArc
 50
327.0773280975459
 51
344.9866289979984
  0
ARC
  5
267
330
2
100
AcDbEntity
  8
0
100
AcDbCircle
 10
2.715305538061912
 20
0.5568543353892093
 30
0.0
 40
0.1677790160026746
100
AcDbArc
 50
344.9866289980052
 51
0.0000000000024265
  0
ARC
  5
268
330
2
100
AcDbEntity
  8
0
100
AcDbCircle
 10
2.715305538061942
 20
0.5568543353892235
 30
0.0
 40
0.167779016002644
100
AcDbArc
 50
359.9999999999976
 51
15.0133710019951
  0
ARC
  5
269
330
2
100
AcDbEntity
  8
0
100
AcDbCircle
 10
2.763199584395252
 20
0.5696994865821292
 30
0.0
 40
0.1181923486076083
100
AcDbArc
 50
15.01337100200033
 51
32.9226719024536
  0
ARC
  5
26A
330
2
100
AcDbEntity
  8
0
100
AcDbCircle
 10
2.793457495708294
 20
0.5892911955783955
 30
0.0
 40
0.0821454866301446
100
AcDbArc
 50
32.92267190244989
 51
57.39207898480503
  0
ARC
  5
26B
330
2
100
AcDbEntity
  8
0
100
AcDbCircle
 10
2.812500000000073
 20
0.6190580623224786
 30
0.0
 40
0.0468087730667357
100
AcDbArc
 50
57.39207898480197
 51
89.99999999999565
  0
ARC
  5
26C
330
2
100
AcDbEntity
  8
0
100
AcDbCircle
 10
2.812500000000073
 20
0.5092200860122969
 30
0.0
 40
0.0320532506230862
100
AcDbArc
 50
270.0000000000064
 51
303.5108229556791
  0
ARC
  5
26D
330
2
100
AcDbEntity
  8
0
100
AcDbCircle
 10
2.797424981436286
 20
0.5319866096269283
 30
0.0
 40
0.0593583926698527
100
AcDbArc
 50
303.5108229556711
 51
327.9718933333926
  0
ARC
  5
26E
330
2
100
AcDbEntity
  8
0
100
AcDbCircle
 10
2.773421555912604
 20
0.5470019922487293
 30
0.0
 40
0.0876713959042334
100
AcDbArc
 50
327.9718933333754
 51
345.4734521831862
  0
ARC
  5
26F
330
2
100
AcDbEntity
  8
0
100
AcDbCircle
 10
2.73539806073647
 20
0.5568543353891879
 30
0.0
 40
0.126950586969819
100
AcDbArc
 50
345.4734521832155
 51
0.0000000000128274
  0
ARC
  5
270
330
2
100
AcDbEntity
  8
0
100
AcDbCircle
 10
2.735398060736497
 20
0.5568543353892377
 30
0.0
 40
0.1269505869697927
100
AcDbArc
 50
359.9999999999904
 51
14.52654781678748
  0
ARC
  5
271
330
2
100
AcDbEntity
  8
0
100
AcDbCircle
 10
2.773421555912609
 20
0.5667066785296999
 30
0.0
 40
0.087671395904227
100
AcDbArc
 50
14.52654781681249
 51
32.0281066666245
  0
ARC
  5
272
330
2
100
AcDbEntity
  8
0
100
AcDbCircle
 10
2.797424981436286
 20
0.5817220611514973
 30
0.0
 40
0.0593583926698527
100
AcDbArc
 50
32.02810666660741
 51
56.48917704432887
  0
ARC
  5
273
330
2
100
AcDbEntity
  8
0
100
AcDbCircle
 10
2.812500000000073
 20
0.6044885847661252
 30
0.0
 40
0.0320532506230895
100
AcDbArc
 50
56.48917704432444
 51
89.99999999999365
  0
ARC
  5
274
330
2
100
AcDbEntity
  8
0
100
AcDbCircle
 10
2.812500000000073
 20
2.300756410648097
 30
0.0
 40
0.0468087730667364
100
AcDbArc
 50
270.0000000000044
 51
302.607921015198
  0
ARC
  5
275
330
2
100
AcDbEntity
  8
0
100
AcDbCircle
 10
2.793457495708296
 20
2.33052327739218
 30
0.0
 40
0.0821454866301438
100
AcDbArc
 50
302.6079210151939
 51
327.0773280975494
  0
ARC
  5
276
330
2
100
AcDbEntity
  8
0
100
AcDbCircle
 10
2.763199584395249
 20
2.35011498638845
 30
0.0
 40
0.1181923486076126
100
AcDbArc
 50
327.0773280975459
 51
344.9866289979984
  0
ARC
  5
277
330
2
100
AcDbEntity
  8
0
100
AcDbCircle
 10
2.715305538061912
 20
2.362960137581359
 30
0.0
 40
0.1677790160026746
100
AcDbArc
 50
344.9866289980052
 51
0.0000000000024265
  0
ARC
  5
278
330
2
100
AcDbEntity
  8
0
100
AcDbCircle
 10
2.715305538061942
 20
2.362960137581373
 30
0.0
 40
0.167779016002644
100
AcDbArc
 50
359.9999999999976
 51
15.0133710019951
  0
ARC
  5
279
330
2
100
AcDbEntity
  8
0
100
AcDbCircle
 10
2.763199584395252
 20
2.375805288774279
 30
0.0
 40
0.1181923486076083
100
AcDbArc
 50
15.01337100200033
 51
32.9226719024536
  0
ARC
  5
27A
330
2
100
AcDbEntity
  8
0
100
AcDbCircle
 10
2.793457495708294
 20
2.395396997770545
 30
0.0
 40
0.0821454866301446
100
AcDbArc
 50
32.92267190244989
 51
57.39207898480503
  0
ARC
  5
27B
330
2
100
AcDbEntity
  8
0
100
AcDbCircle
 10
2.812500000000073
 20
2.425163864514628
 30
0.0
 40
0.0468087730667357
100
AcDbArc
 50
57.39207898480197
 51
89.99999999999565
  0
ARC
  5
27C
330
2
100
AcDbEntity
  8
0
100
AcDbCircle
 10
2.812500000000073
 20
2.315325888204447
 30
0.0
 40
0.0320532506230862
100
AcDbArc
 50
270.0000000000064
 51
303.5108229556791
  0
ARC
  5
27D
330
2
100
AcDbEntity
  8
0
100
AcDbCircle
 10
2.797424981436286
 20
2.338092411819078
 30
0.0
 40
0.0593583926698527
100
AcDbArc
 50
303.5108229556711
 51
327.9718933333926
  0
ARC
  5
27E
330
2
100
AcDbEntity
  8
0
100
AcDbCircle
 10
2.773421555912604
 20
2.353107794440879
 30
0.0
 40
0.0876713959042334
100
AcDbArc
 50
327.9718933333754
 51
345.4734521831862
  0
ARC
  5
27F
330
2
100
AcDbEntity
  8
0
100
AcDbCircle
 10
2.73539806073647
 20
2.362960137581338
 30
0.0
 40
0.126950586969819
100
AcDbArc
 50
345.4734521832155
 51
0.0000000000128274
  0
ARC
  5
280
330
2
100
AcDbEntity
  8
0
100
AcDbCircle
 10
2.735398060736497
 20
2.362960137581387
 30
0.0
 40
0.1269505869697927
100
AcDbArc
 50
359.9999999999904
 51
14.52654781678748
  0
ARC
  5
281
330
2
100
AcDbEntity
  8
0
100
AcDbCircle
 10
2.773421555912609
 20
2.37281248072185
 30
0.0
 40
0.087671395904227
100
AcDbArc
 50
14.52654781681249
 51
32.0281066666245
  0
ARC
  5
282
330
2
100
AcDbEntity
  8
0
100
AcDbCircle
 10
2.797424981436286
 20
2.387827863343647
 30
0.0
 40
0.0593583926698527
100
AcDbArc
 50
32.02810666660741
 51
56.48917704432887
  0
ARC
  5
283
330
2
100
AcDbEntity
  8
0
100
AcDbCircle
 10
2.812500000000073
 20
2.410594386958275
 30
0.0
 40
0.0320532506230895
100
AcDbArc
 50
56.48917704432444
 51
89.99999999999365
  0
ARC
  5
284
330
2
100
AcDbEntity
  8
0
100
AcDbCircle
 10
2.812500000000073
 20
5.750116858018179
 30
0.0
 40
0.0468087730667364
100
AcDbArc
 50
270.0000000000044
 51
302.607921015198
  0
ARC
  5
285
330
2
100
AcDbEntity
  8
0
100
AcDbCircle
 10
2.793457495708296
 20
5.779883724762263
 30
0.0
 40
0.0821454866301438
100
AcDbArc
 50
302.6079210151939
 51
327.0773280975494
  0
ARC
  5
286
330
2
100
AcDbEntity
  8
0
100
AcDbCircle
 10
2.763199584395249
 20
5.799475433758532
 30
0.0
 40
0.1181923486076126
100
AcDbArc
 50
327.0773280975459
 51
344.9866289979984
  0
ARC
  5
287
330
2
100
AcDbEntity
  8
0
100
AcDbCircle
 10
2.715305538061912
 20
5.812320584951442
 30
0.0
 40
0.1677790160026746
100
AcDbArc
 50
344.9866289980052
 51
0.0000000000024265
  0
ARC
  5
288
330
2
100
AcDbEntity
  8
0
100
AcDbCircle
 10
2.715305538061942
 20
5.812320584951456
 30
0.0
 40
0.167779016002644
100
AcDbArc
 50
359.9999999999976
 51
15.0133710019951
  0
ARC
  5
289
330
2
100
AcDbEntity
  8
0
100
AcDbCircle
 10
2.763199584395252
 20
5.825165736144362
 30
0.0
 40
0.1181923486076083
100
AcDbArc
 50
15.01337100200033
 51
32.9226719024536
  0
ARC
  5
28A
330
2
100
AcDbEntity
  8
0
100
AcDbCircle
 10
2.793457495708294
 20
5.844757445140628
 30
0.0
 40
0.0821454866301446
100
AcDbArc
 50
32.92267190244989
 51
57.39207898480503
  0
ARC
  5
28B
330
2
100
AcDbEntity
  8
0
100
AcDbCircle
 10
2.812500000000073
 20
5.874524311884711
 30
0.0
 40
0.0468087730667357
100
AcDbArc
 50
57.39207898480197
 51
89.99999999999565
  0
ARC
  5
28C
330
2
100
AcDbEntity
  8
0
100
AcDbCircle
 10
2.812500000000073
 20
5.764686335574529
 30
0.0
 40
0.0320532506230862
100
AcDbArc
 50
270.0000000000064
 51
303.5108229556791
  0
ARC
  5
28D
330
2
100
AcDbEntity
  8
0
100
AcDbCircle
 10
2.797424981436286
 20
5.787452859189161
 30
0.0
 40
0.0593583926698527
100
AcDbArc
 50
303.5108229556711
 51
327.9718933333926
  0
ARC
  5
28E
330
2
100
AcDbEntity
  8
0
100
AcDbCircle
 10
2.773421555912604
 20
5.802468241810962
 30
0.0
 40
0.0876713959042334
100
AcDbArc
 50
327.9718933333754
 51
345.4734521831862
  0
ARC
  5
28F
330
2
100
AcDbEntity
  8
0
100
AcDbCircle
 10
2.73539806073647
 20
5.81232058495142
 30
0.0
 40
0.126950586969819
100
AcDbArc
 50
345.4734521832155
 51
0.0000000000128274
  0
ARC
  5
290
330
2
100
AcDbEntity
  8
0
100
AcDbCircle
 10
2.735398060736497
 20
5.81232058495147
 30
0.0
 40
0.1269505869697927
100
AcDbArc
 50
359.9999999999904
 51
14.52654781678748
  0
ARC
  5
291
330
2
100
AcDbEntity
  8
0
100
AcDbCircle
 10
2.773421555912609
 20
5.822172928091932
 30
0.0
 40
0.087671395904227
100
AcDbArc
 50
14.52654781681249
 51
32.0281066666245
  0
ARC
  5
292
330
2
100
AcDbEntity
  8
0
100
AcDbCircle
 10
2.797424981436286
 20
5.83718831071373
 30
0.0
 40
0.0593583926698527
100
AcDbArc
 50
32.02810666660741
 51
56.48917704432887
  0
ARC
  5
293
330
2
100
AcDbEntity
  8
0
100
AcDbCircle
 10
2.812500000000073
 20
5.859954834328358
 30
0.0
 40
0.0320532506230895
100
AcDbArc
 50
56.48917704432444
 51
89.99999999999365
  0
ARC
  5
294
330
2
100
AcDbEntity
  8
0
100
AcDbCircle
 10
2.812500000000073
 20
7.745057532449556
 30
0.0
 40
0.0468087730667364
100
AcDbArc
 50
270.0000000000044
 51
302.607921015198
  0
ARC
  5
295
330
2
100
AcDbEntity
  8
0
100
AcDbCircle
 10
2.793457495708296
 20
7.774824399193639
 30
0.0
 40
0.0821454866301438
100
AcDbArc
 50
302.6079210151939
 51
327.0773280975494
  0
ARC
  5
296
330
2
100
AcDbEntity
  8
0
100
AcDbCircle
 10
2.763199584395249
 20
7.794416108189909
 30
0.0
 40
0.1181923486076126
100
AcDbArc
 50
327.0773280975459
 51
344.9866289979984
  0
ARC
  5
297
330
2
100
AcDbEntity
  8
0
100
AcDbCircle
 10
2.715305538061912
 20
7.807261259382818
 30
0.0
 40
0.1677790160026746
100
AcDbArc
 50
344.9866289980052
 51
0.0000000000024265
  0
ARC
  5
298
330
2
100
AcDbEntity
  8
0
100
AcDbCircle
 10
2.715305538061942
 20
7.807261259382832
 30
0.0
 40
0.167779016002644
100
AcDbArc
 50
359.9999999999976
 51
15.0133710019951
  0
ARC
  5
299
330
2
100
AcDbEntity
  8
0
100
AcDbCircle
 10
2.763199584395252
 20
7.820106410575738
 30
0.0
 40
0.1181923486076083
100
AcDbArc
 50
15.01337100200033
 51
32.9226719024536
  0
ARC
  5
29A
330
2
100
AcDbEntity
  8
0
100
AcDbCircle
 10
2.793457495708294
 20
7.839698119572004
 30
0.0
 40
0.0821454866301446
100
AcDbArc
 50
32.92267190244989
 51
57.39207898480503
  0
ARC
  5
29B
330
2
100
AcDbEntity
  8
0
100
AcDbCircle
 10
2.812500000000073
 20
7.869464986316087
 30
0.0
 40
0.0468087730667357
100
AcDbArc
 50
57.39207898480197
 51
89.99999999999565
  0
ARC
  5
29C
330
2
100
AcDbEntity
  8
0
100
AcDbCircle
 10
2.812500000000073
 20
7.759627010005906
 30
0.0
 40
0.0320532506230862
100
AcDbArc
 50
270.0000000000064
 51
303.5108229556791
  0
ARC
  5
29D
330
2
100
AcDbEntity
  8
0
100
AcDbCircle
 10
2.797424981436286
 20
7.782393533620537
 30
0.0
 40
0.0593583926698527
100
AcDbArc
 50
303.5108229556711
 51
327.9718933333926
  0
ARC
  5
29E
330
2
100
AcDbEntity
  8
0
100
AcDbCircle
 10
2.773421555912604
 20
7.797408916242338
 30
0.0
 40
0.0876713959042334
100
AcDbArc
 50
327.9718933333754
 51
345.4734521831862
  0
ARC
  5
29F
330
2
100
AcDbEntity
  8
0
100
AcDbCircle
 10
2.73539806073647
 20
7.807261259382797
 30
0.0
 40
0.126950586969819
100
AcDbArc
 50
345.4734521832155
 51
0.0000000000128274
  0
ARC
  5
2A0
330
2
100
AcDbEntity
  8
0
100
AcDbCircle
 10
2.735398060736497
 20
7.807261259382846
 30
0.0
 40
0.1269505869697927
100
AcDbArc
 50
359.9999999999904
 51
14.52654781678748
  0
ARC
  5
2A1
330
2
100
AcDbEntity
  8
0
100
AcDbCircle
 10
2.773421555912609
 20
7.817113602523309
 30
0.0
 40
0.087671395904227
100
AcDbArc
 50
14.52654781681249
 51
32.0281066666245
  0
ARC
  5
2A2
330
2
100
AcDbEntity
  8
0
100
AcDbCircle
 10
2.797424981436286
 20
7.832128985145106
 30
0.0
 40
0.0593583926698527
100
AcDbArc
 50
32.02810666660741
 51
56.48917704432887
  0
ARC
  5
2A3
330
2
100
AcDbEntity
  8
0
100
AcDbCircle
 10
2.812500000000073
 20
7.854895508759734
 30
0.0
 40
0.0320532506230895
100
AcDbArc
 50
56.48917704432444
 51
89.99999999999365
  0
ENDSEC
  0
SECTION
  2
OBJECTS
  0
DICTIONARY
  5
9
330
0
100
AcDbDictionary
281
     1
  3
ACAD_COLOR
350
47B
  3
ACAD_GROUP
350
23
  3
ACAD_LAYOUT
350
D
  3
ACAD_MATERIAL
350
47A
  3
ACAD_MLINESTYLE
350
24
  3
ACAD_PLOTSETTINGS
350
25
  3
ACAD_PLOTSTYLENAME
350
8
  3
ACAD_TABLESTYLE
350
47C
  3
ACDBHEADERROUNDTRIPXREC
350
4A4
  3
AcDbVariableDictionary
350
124
  0
DICTIONARY
  5
47B
102
{ACAD_REACTORS
330
9
102
}
330
9
100
AcDbDictionary
281
     1
  0
DICTIONARY
  5
23
102
{ACAD_REACTORS
330
9
102
}
330
9
100
AcDbDictionary
281
     1
  0
DICTIONARY
  5
D
102
{ACAD_REACTORS
330
9
102
}
330
9
100
AcDbDictionary
281
     1
  3
Layout1
350
13
  3
Model
350
C
  0
DICTIONARY
  5
47A
102
{ACAD_REACTORS
330
9
102
}
330
9
100
AcDbDictionary
281
     1
  0
DICTIONARY
  5
24
102
{ACAD_REACTORS
330
9
102
}
330
9
100
AcDbDictionary
281
     1
  3
STANDARD
350
27
  0
DICTIONARY
  5
25
102
{ACAD_REACTORS
330
9
102
}
330
9
100
AcDbDictionary
281
     1
  0
ACDBDICTIONARYWDFLT
  5
8
102
{ACAD_REACTORS
330
9
102
}
330
9
100
AcDbDictionary
281
     1
  3
Normal
350
7
100
AcDbDictionaryWithDefault
340
7
  0
DICTIONARY
  5
47C
102
{ACAD_REACTORS
330
9
102
}
330
9
100
AcDbDictionary
281
     1
  3
Standard
350
47D
  0
DICTIONARY
  5
4A4
102
{ACAD_REACTORS
330
9
102
}
330
9
100
AcDbDictionary
281
     1
  3
COLORDICT
350
4A5
  3
MATERIALDICT
350
4A6
  0
DICTIONARY
  5
124
102
{ACAD_REACTORS
330
9
102
}
330
9
100
AcDbDictionary
281
     1
  3
CTABLESTYLE
350
4A1
  3
HIDETEXT
350
4A3
  0
LAYOUT
  5
13
102
{ACAD_REACTORS
330
D
102
}
102
{ACAD_XDICTIONARY
360
4A7
102
}
330
D
100
AcDbPlotSettings
  1

  2
C:\ACAD2000\plotters\HP LaserJet 2100 Series PS.pc3
  4

  6

 40
0.0
 41
0.0
 42
0.0
 43
0.0
 44
0.0
 45
0.0
 46
0.0
 47
0.0
 48
0.0
 49
0.0
140
0.0
141
0.0
142
1.0
143
1.0
 70
   688
 72
     0
 73
     0
 74
     5
  7

 75
    16
147
1.0
148
0.0
149
0.0
100
AcDbLayout
  1
Layout1
 70
     0
 71
     1
 10
0.0
 20
0.0
 11
12.0
 21
9.0
 12
0.0
 22
0.0
 32
0.0
 14
1.000000000000000E+20
 24
1.000000000000000E+20
 34
1.000000000000000E+20
 15
-1.000000000000000E+20
 25
-1.000000000000000E+20
 35
-1.000000000000000E+20
146
0.0
 13
0.0
 23
0.0
 33
0.0
 16
1.0
 26
0.0
 36
0.0
 17
0.0
 27
1.0
 37
0.0
 76
     0
330
E
  0
LAYOUT
  5
C
102
{ACAD_REACTORS
330
D
102
}
102
{ACAD_XDICTIONARY
360
4A9
102
}
330
D
100
AcDbPlotSettings
  1

  2
HP LaserJet 2100 Series PS
  4
Letter
  6

 40
5.365749835968018
 41
5.408073902130127
 42
5.132904052734375
 43
5.090576171875
 44
215.8999938964844
 45
279.3999938964844
 46
0.0
 47
0.0
 48
0.0
 49
0.0
140
0.0
141
0.0
142
1.0
143
5.193734373688032
 70
 28336
 72
     0
 73
     1
 74
     2
  7

 75
     0
147
0.1925396887961961
148
0.0
149
0.0
100
AcDbLayout
  1
Model
 70
     1
 71
     0
 10
0.0
 20
0.0
 11
12.0
 21
9.0
 12
0.0
 22
0.0
 32
0.0
 14
0.0
 24
0.0
 34
0.0
 15
0.0
 25
0.0
 35
0.0
146
0.0
 13
0.0
 23
0.0
 33
0.0
 16
1.0
 26
0.0
 36
0.0
 17
0.0
 27
1.0
 37
0.0
 76
     0
330
2
  0
MLINESTYLE
  5
27
102
{ACAD_REACTORS
330
24
102
}
330
24
100
AcDbMlineStyle
  2
STANDARD
 70
     0
  3

 62
   256
 51
90.0
 52
90.0
 71
     2
 49
0.5
 62
   256
  6
BYLAYER
 49
-0.5
 62
   256
  6
BYLAYER
  0
ACDBPLACEHOLDER
  5
7
102
{ACAD_REACTORS
330
8
102
}
330
8
  0
ACAD_PROXY_OBJECT
  5
47D
102
{ACAD_REACTORS
330
47C
102
}
330
47C
100
AcDbProxyObject
 90
      499
 91
      513
 95
   983063
 70
     0
 93
     1841
310
4214DD185B99185C9928B81E85EB51B8AE3F2E07A17AD46E2B8FC02B5E8DC0F42B1CFD028000000C1008070000C3001FDFF8000000C1003FBFF000000182007F7FE00000030400FEFFC00000060801FDFF8000000C1003FBFF00000018200000000000000681FA0B0000001820100E000186003FBFF000000182007F7FE000
310
00030400FEFFC00000060801FDFF8000000C1003FBFF000000182007F7FE000000304000AD7A3703D0AC73F4160000003040201C00030C007F7FE00000030400FEFFC00000060801FDFF8000000C1003FBFF000000182007F7FE00000030400FEFFC000000608000
340
16
340
16
340
16
 94
        0
  0
XRECORD
  5
4A5
102
{ACAD_REACTORS
330
4A4
102
}
330
4A4
100
AcDbXrecord
340
47B
  0
XRECORD
  5
4A6
102
{ACAD_REACTORS
330
4A4
102
}
330
4A4
100
AcDbXrecord
340
47A
  0
DICTIONARYVAR
  5
4A1
102
{ACAD_REACTORS
330
124
102
}
330
124
100
DictionaryVariables
280
     0
  1
STANDARD
  0
DICTIONARYVAR
  5
4A3
102
{ACAD_REACTORS
330
124
102
}
330
124
100
DictionaryVariables
280
     0
  1
0
  0
DICTIONARY
  5
4A7
330
13
100
AcDbDictionary
280
     1
281
     1
  3
ACAD_XREC_ROUNDTRIP
360
4A8
  0
DICTIONARY
  5
4A9
330
C
100
AcDbDictionary
280
     1
281
     1
  3
ACAD_XREC_ROUNDTRIP
360
4AA
  0
XRECORD
  5
4A8
102
{ACAD_REACTORS
330
4A7
102
}
330
4A7
100
AcDbXrecord
102
SHADEPLOT
 70
     0
102
SHADEPLOTRESLEVEL
 70
     2
102
SHADEPLOTCUSTOMDPI
 70
   300
  0
XRECORD
  5
4AA
102
{ACAD_REACTORS
330
4A9
102
}
330
4A9
100
AcDbXrecord
102
SHADEPLOT
 70
     0
102
SHADEPLOTRESLEVEL
 70
     2
102
SHADEPLOTCUSTOMDPI
 70
   300
  0
ENDSEC
  0
EOF
