  0
SECTION
  2
HEADER
  9
$ACADVER
  1
AC1015
  9
$ACADMAINTVER
 70
     6
  9
$DWGCODEPAGE
  3
ANSI_1252
  9
$INSBASE
 10
0.0
 20
0.0
 30
0.0
  9
$EXTMIN
 10
-13.9066288275429
 20
-0.0258883476483237
 30
0.0
  9
$EXTMAX
 10
13.9066288275429
 20
18.1960749707015
 30
0.0
  9
$LIMMIN
 10
0.0
 20
0.0
  9
$LIMMAX
 10
42.0
 20
32.0
  9
$ORTHOMODE
 70
     1
  9
$REGENMODE
 70
     1
  9
$FILLMODE
 70
     1
  9
$QTEXTMODE
 70
     0
  9
$MIRRTEXT
 70
     1
  9
$LTSCALE
 40
1.0
  9
$ATTMODE
 70
     1
  9
$TEXTSIZE
 40
0.36
  9
$TRACEWID
 40
0.05
  9
$TEXTSTYLE
  7
STANDARD
  9
$CLAYER
  8
0
  9
$CELTYPE
  6
BYLAYER
  9
$CECOLOR
 62
   256
  9
$CELTSCALE
 40
1.0
  9
$DISPSILH
 70
     0
  9
$DIMSCALE
 40
4.0
  9
$DIMASZ
 40
0.125
  9
$DIMEXO
 40
0.062
  9
$DIMDLI
 40
0.375
  9
$DIMRND
 40
0.0
  9
$DIMDLE
 40
0.0
  9
$DIMEXE
 40
0.08
  9
$DIMTP
 40
0.0
  9
$DIMTM
 40
0.0
  9
$DIMTXT
 40
0.09
  9
$DIMCEN
 40
-0.03125
  9
$DIMTSZ
 40
0.0
  9
$DIMTOL
 70
     0
  9
$DIMLIM
 70
     0
  9
$DIMTIH
 70
     1
  9
$DIMTOH
 70
     1
  9
$DIMSE1
 70
     0
  9
$DIMSE2
 70
     0
  9
$DIMTAD
 70
     0
  9
$DIMZIN
 70
     0
  9
$DIMBLK
  1

  9
$DIMASO
 70
     0
  9
$DIMSHO
 70
     0
  9
$DIMPOST
  1

  9
$DIMAPOST
  1

  9
$DIMALT
 70
     0
  9
$DIMALTD
 70
     2
  9
$DIMALTF
 40
25.4
  9
$DIMLFAC
 40
1.0
  9
$DIMTOFL
 70
     0
  9
$DIMTVP
 40
0.0
  9
$DIMTIX
 70
     0
  9
$DIMSOXD
 70
     0
  9
$DIMSAH
 70
     0
  9
$DIMBLK1
  1

  9
$DIMBLK2
  1

  9
$DIMSTYLE
  2
STANDARD
  9
$DIMCLRD
 70
     0
  9
$DIMCLRE
 70
     0
  9
$DIMCLRT
 70
     0
  9
$DIMTFAC
 40
1.0
  9
$DIMGAP
 40
0.09
  9
$DIMJUST
 70
     0
  9
$DIMSD1
 70
     0
  9
$DIMSD2
 70
     0
  9
$DIMTOLJ
 70
     1
  9
$DIMTZIN
 70
     0
  9
$DIMALTZ
 70
     0
  9
$DIMALTTZ
 70
     0
  9
$DIMUPT
 70
     0
  9
$DIMDEC
 70
     5
  9
$DIMTDEC
 70
     4
  9
$DIMALTU
 70
     2
  9
$DIMALTTD
 70
     2
  9
$DIMTXSTY
  7
STANDARD
  9
$DIMAUNIT
 70
     0
  9
$DIMADEC
 70
     0
  9
$DIMALTRND
 40
0.0
  9
$DIMAZIN
 70
     0
  9
$DIMDSEP
 70
    46
  9
$DIMATFIT
 70
     3
  9
$DIMFRAC
 70
     2
  9
$DIMLDRBLK
  1

  9
$DIMLUNIT
 70
     5
  9
$DIMLWD
 70
    -2
  9
$DIMLWE
 70
    -2
  9
$DIMTMOVE
 70
     2
  9
$LUNITS
 70
     2
  9
$LUPREC
 70
     4
  9
$SKETCHINC
 40
0.1
  9
$FILLETRAD
 40
0.0
  9
$AUNITS
 70
     0
  9
$AUPREC
 70
     0
  9
$MENU
  1
G:\ACADSST\QA
  9
$ELEVATION
 40
0.0
  9
$PELEVATION
 40
0.0
  9
$THICKNESS
 40
0.0
  9
$LIMCHECK
 70
     0
  9
$CHAMFERA
 40
0.0
  9
$CHAMFERB
 40
0.0
  9
$CHAMFERC
 40
0.0
  9
$CHAMFERD
 40
0.0
  9
$SKPOLY
 70
     0
  9
$TDCREATE
 40
2447378.869211574
  9
$TDUCREATE
 40
2447379.202544908
  9
$TDUPDATE
 40
2454165.989119618
  9
$TDUUPDATE
 40
2454166.322452951
  9
$TDINDWG
 40
0.1861906366
  9
$TDUSRTIMER
 40
0.1861906366
  9
$USRTIMER
 70
     1
  9
$ANGBASE
 50
0.0
  9
$ANGDIR
 70
     0
  9
$PDMODE
 70
     0
  9
$PDSIZE
 40
0.0
  9
$PLINEWID
 40
0.0
  9
$SPLFRAME
 70
     0
  9
$SPLINETYPE
 70
     6
  9
$SPLINESEGS
 70
     8
  9
$HANDSEED
  5
4AB
  9
$SURFTAB1
 70
     6
  9
$SURFTAB2
 70
     6
  9
$SURFTYPE
 70
     6
  9
$SURFU
 70
     6
  9
$SURFV
 70
     6
  9
$UCSBASE
  2

  9
$UCSNAME
  2

  9
$UCSORG
 10
0.0
 20
0.0
 30
0.0
  9
$UCSXDIR
 10
1.0
 20
0.0
 30
0.0
  9
$UCSYDIR
 10
0.0
 20
1.0
 30
0.0
  9
$UCSORTHOREF
  2

  9
$UCSORTHOVIEW
 70
     0
  9
$UCSORGTOP
 10
0.0
 20
0.0
 30
0.0
  9
$UCSORGBOTTOM
 10
0.0
 20
0.0
 30
0.0
  9
$UCSORGLEFT
 10
0.0
 20
0.0
 30
0.0
  9
$UCSORGRIGHT
 10
0.0
 20
0.0
 30
0.0
  9
$UCSORGFRONT
 10
0.0
 20
0.0
 30
0.0
  9
$UCSORGBACK
 10
0.0
 20
0.0
 30
0.0
  9
$PUCSBASE
  2

  9
$PUCSNAME
  2

  9
$PUCSORG
 10
0.0
 20
0.0
 30
0.0
  9
$PUCSXDIR
 10
1.0
 20
0.0
 30
0.0
  9
$PUCSYDIR
 10
0.0
 20
1.0
 30
0.0
  9
$PUCSORTHOREF
  2

  9
$PUCSORTHOVIEW
 70
     0
  9
$PUCSORGTOP
 10
0.0
 20
0.0
 30
0.0
  9
$PUCSORGBOTTOM
 10
0.0
 20
0.0
 30
0.0
  9
$PUCSORGLEFT
 10
0.0
 20
0.0
 30
0.0
  9
$PUCSORGRIGHT
 10
0.0
 20
0.0
 30
0.0
  9
$PUCSORGFRONT
 10
0.0
 20
0.0
 30
0.0
  9
$PUCSORGBACK
 10
0.0
 20
0.0
 30
0.0
  9
$USERI1
 70
     0
  9
$USERI2
 70
     0
  9
$USERI3
 70
     0
  9
$USERI4
 70
     0
  9
$USERI5
 70
     0
  9
$USERR1
 40
0.0
  9
$USERR2
 40
0.0
  9
$USERR3
 40
0.0
  9
$USERR4
 40
0.0
  9
$USERR5
 40
0.0
  9
$WORLDVIEW
 70
     1
  9
$SHADEDGE
 70
     3
  9
$SHADEDIF
 70
    70
  9
$TILEMODE
 70
     1
  9
$MAXACTVP
 70
    16
  9
$PINSBASE
 10
0.0
 20
0.0
 30
0.0
  9
$PLIMCHECK
 70
     0
  9
$PEXTMIN
 10
1.000000000000000E+20
 20
1.000000000000000E+20
 30
1.000000000000000E+20
  9
$PEXTMAX
 10
-1.000000000000000E+20
 20
-1.000000000000000E+20
 30
-1.000000000000000E+20
  9
$PLIMMIN
 10
0.0
 20
0.0
  9
$PLIMMAX
 10
12.0
 20
9.0
  9
$UNITMODE
 70
     0
  9
$VISRETAIN
 70
     0
  9
$PLINEGEN
 70
     1
  9
$PSLTSCALE
 70
     0
  9
$TREEDEPTH
 70
  3020
  9
$CMLSTYLE
  2
STANDARD
  9
$CMLJUST
 70
     0
  9
$CMLSCALE
 40
1.0
  9
$PROXYGRAPHICS
 70
     1
  9
$MEASUREMENT
 70
     0
  9
$CELWEIGHT
370
    -1
  9
$ENDCAPS
280
     0
  9
$JOINSTYLE
280
     0
  9
$LWDISPLAY
290
     0
  9
$INSUNITS
 70
     0
  9
$HYPERLINKBASE
  1

  9
$STYLESHEET
  1

  9
$XEDIT
290
     1
  9
$CEPSNTYPE
380
     0
  9
$PSTYLEMODE
290
     1
  9
$FINGERPRINTGUID
  2
{5F49145D-BE07-41FE-AA11-9F73F442A493}
  9
$VERSIONGUID
  2
{F0FA84C0-5DDB-4317-A98D-3F8102903007}
  9
$EXTNAMES
290
     1
  9
$PSVPSCALE
 40
0.0
  9
$OLESTARTUP
290
     0
  0
ENDSEC
  0
SECTION
  2
CLASSES
  0
CLASS
  1
DICTIONARYVAR
  2
AcDbDictionaryVar
  3
AutoCAD 2000
 90
        0
280
     0
281
     0
  0
CLASS
  1
LWPOLYLINE
  2
AcDbPolyline
  3
AutoCAD 2000
 90
        0
280
     0
281
     1
  0
CLASS
  1
ACDBDICTIONARYWDFLT
  2
AcDbDictionaryWithDefault
  3
AutoCAD 2000
 90
        0
280
     0
281
     0
  0
CLASS
  1
ACDBPLACEHOLDER
  2
AcDbPlaceHolder
  3
ObjectDBX Classes
 90
        0
280
     0
281
     0
  0
CLASS
  1
LAYOUT
  2
AcDbLayout
  3
ObjectDBX Classes
 90
        0
280
     0
281
     0
  0
CLASS
  1
LONG_TRANSACTION
  2
AcDbLongTransaction
  3
ObjectDBX Classes
 90
   -65536
280
     1
281
     0
  0
CLASS
  1
LWPOLYLINE
  2
AcDbPolyline
  3
AutoCAD 2000
 90
        0
280
     0
281
     1
  0
CLASS
  1
HATCH
  2
AcDbHatch
  3
AutoCAD 2000
 90
        0
280
     0
281
     1
  0
CLASS
  1
XRECORD
  2
AcDbXrecord
  3
AutoCAD 2000
 90
        0
280
     0
281
     0
  0
CLASS
  1
LONG_TRANSACTION
  2
AcDbLongTransaction
  3
ObjectDBX Classes
 90
   -65536
280
     1
281
     0
  0
CLASS
  1
LWPOLYLINE
  2
AcDbPolyline
  3
AutoCAD 2000
 90
        0
280
     0
281
     1
  0
CLASS
  1
HATCH
  2
AcDbHatch
  3
AutoCAD 2000
 90
        0
280
     0
281
     1
  0
CLASS
  1
XRECORD
  2
AcDbXrecord
  3
AutoCAD 2000
 90
        0
280
     0
281
     0
  0
CLASS
  1
TABLESTYLE
  2
AcDbTableStyle
  3
ObjectDBX Classes
 90
     2047
280
     1
281
     0
  0
ENDSEC
  0
SECTION
  2
TABLES
  0
TABLE
  2
VPORT
  5
1D
330
0
100
AcDbSymbolTable
 70
     3
  0
VPORT
  5
49D
330
1D
100
AcDbSymbolTableRecord
100
AcDbViewportTableRecord
  2
*Active
 70
     0
 10
0.0
 20
0.0
 11
1.0
 21
1.0
 12
11.47802697552448
 22
12.74364321210284
 13
0.0
 23
0.0
 14
0.03125
 24
0.03125
 15
0.03125
 25
0.03125
 16
0.0
 26
0.0
 36
1.0
 17
0.0
 27
0.0
 37
0.0
 40
32.42685251866381
 41
1.814583333333333
 42
50.0
 43
0.0
 44
0.0
 50
0.0
 51
0.0
 71
     0
 72
   100
 73
     1
 74
     0
 75
     0
 76
     0
 77
     0
 78
     0
281
     0
 65
     1
110
0.0
120
0.0
130
0.0
111
1.0
121
0.0
131
0.0
112
0.0
122
1.0
132
0.0
 79
     0
146
0.0
  0
ENDTAB
  0
TABLE
  2
LTYPE
  5
18
330
0
100
AcDbSymbolTable
 70
     2
  0
LTYPE
  5
19
330
18
100
AcDbSymbolTableRecord
100
AcDbLinetypeTableRecord
  2
BYBLOCK
 70
     0
  3

 72
    65
 73
     0
 40
0.0
  0
LTYPE
  5
1A
330
18
100
AcDbSymbolTableRecord
100
AcDbLinetypeTableRecord
  2
BYLAYER
 70
     0
  3

 72
    65
 73
     0
 40
0.0
  0
LTYPE
  5
A
330
18
100
AcDbSymbolTableRecord
100
AcDbLinetypeTableRecord
  2
CONTINUOUS
 70
     0
  3
Solid line
 72
    65
 73
     0
 40
0.0
  0
LTYPE
  5
48A
330
18
100
AcDbSymbolTableRecord
100
AcDbLinetypeTableRecord
  2
HIDDEN
 70
     0
  3
Hidden __ __ __ __ __ __ __ __ __ __ __ __ __ _
 72
    65
 73
     2
 40
0.375
 49
0.25
 74
     0
 49
-0.125
 74
     0
  0
ENDTAB
  0
TABLE
  2
LAYER
  5
14
330
0
100
AcDbSymbolTable
 70
     1
  0
LAYER
  5
6
330
14
100
AcDbSymbolTableRecord
100
AcDbLayerTableRecord
  2
0
 70
     0
 62
     7
  6
CONTINUOUS
370
    -3
390
7
  0
ENDTAB
  0
TABLE
  2
STYLE
  5
15
330
0
100
AcDbSymbolTable
 70
     2
  0
STYLE
  5
16
330
15
100
AcDbSymbolTableRecord
100
AcDbTextStyleTableRecord
  2
STANDARD
 70
     0
 40
0.0
 41
1.0
 50
0.0
 71
     0
 42
0.36
  3
TXT
  4

  0
STYLE
  5
489
330
15
100
AcDbSymbolTableRecord
100
AcDbTextStyleTableRecord
  2

 70
     1
 40
0.0
 41
1.0
 50
0.0
 71
     0
 42
0.36
  3
ltypeshp.shx
  4

  0
ENDTAB
  0
TABLE
  2
VIEW
  5
1B
330
0
100
AcDbSymbolTable
 70
     0
  0
ENDTAB
  0
TABLE
  2
UCS
  5
1C
330
0
100
AcDbSymbolTable
 70
     0
  0
ENDTAB
  0
TABLE
  2
APPID
  5
1F
330
0
100
AcDbSymbolTable
 70
     1
  0
APPID
  5
20
330
1F
100
AcDbSymbolTableRecord
100
AcDbRegAppTableRecord
  2
ACAD
 70
     0
  0
ENDTAB
  0
TABLE
  2
DIMSTYLE
  5
21
330
0
100
AcDbSymbolTable
 70
     1
100
AcDbDimStyleTable
  0
DIMSTYLE
105
28
330
21
100
AcDbSymbolTableRecord
100
AcDbDimStyleTableRecord
  2
STANDARD
 70
     0
  3

  4

340
16
  0
ENDTAB
  0
TABLE
  2
BLOCK_RECORD
  5
1
330
0
100
AcDbSymbolTable
 70
     0
  0
BLOCK_RECORD
  5
2
330
1
100
AcDbSymbolTableRecord
100
AcDbBlockTableRecord
  2
*MODEL_SPACE
340
C
  0
BLOCK_RECORD
  5
E
330
1
100
AcDbSymbolTableRecord
100
AcDbBlockTableRecord
  2
*PAPER_SPACE
340
13
  0
ENDTAB
  0
ENDSEC
  0
SECTION
  2
BLOCKS
  0
BLOCK
  5
5
330
2
100
AcDbEntity
  8
0
100
AcDbBlockBegin
  2
*MODEL_SPACE
 70
     0
 10
0.0
 20
0.0
 30
0.0
  3
*MODEL_SPACE
  1

  4

  0
ENDBLK
  5
B
330
2
100
AcDbEntity
  8
0
100
AcDbBlockEnd
  0
BLOCK
  5
11
330
E
100
AcDbEntity
 67
     1
  8
0
100
AcDbBlockBegin
  2
*PAPER_SPACE
 70
     0
 10
0.0
 20
0.0
 30
0.0
  3
*PAPER_SPACE
  1

  4

  0
ENDBLK
  5
12
330
E
100
AcDbEntity
 67
     1
  8
0
100
AcDbBlockEnd
  0
ENDSEC
  0
SECTION
  2
ENTITIES
  0
LINE
  5
3D7
330
2
100
AcDbEntity
  8
0
100
AcDbLine
 10
-2.777659657905929
 20
9.074469732454423
 30
0.0
 11
-2.777659657905971
 21
0.2707357309112322
 31
0.0
  0
LINE
  5
3D8
330
2
100
AcDbEntity
  8
0
100
AcDbLine
 10
-2.840159657905922
 20
9.074469732454423
 30
0.0
 11
-2.840159657905929
 21
0.2707357309112322
 31
0.0
  0
LINE
  5
3D9
330
2
100
AcDbEntity
  8
0
100
AcDbLine
 10
-1.727386970409057
 20
5.939472762946449
 30
0.0
 11
-1.727386970409057
 21
6.216147762946454
 31
0.0
  0
ARC
  5
3DA
330
2
100
AcDbEntity
  8
0
100
AcDbCircle
 10
-1.748328954495605
 20
6.153086715246518
 30
0.0
 40
0.2106649640867779
100
AcDbArc
 50
235.2517244545713
 51
253.9689634222627
  0
ARC
  5
3DB
330
2
100
AcDbEntity
  8
0
100
AcDbCircle
 10
-1.708344466117275
 20
6.045373402757269
 30
0.0
 40
0.0821454866301448
100
AcDbArc
 50
212.9226719024499
 51
237.392078984805
  0
LINE
  5
3DC
330
2
100
AcDbEntity
  8
0
100
AcDbLine
 10
-1.465159657905929
 20
5.824469732454423
 30
0.0
 11
-1.465159657905929
 21
6.324469732454423
 31
0.0
  0
LINE
  5
3DD
330
2
100
AcDbEntity
  8
0
100
AcDbLine
 10
-1.159754171605492
 20
1.607406153384465
 30
0.0
 11
0.1946375989438565
 21
0.299717547336817
 31
0.0
  0
LINE
  5
3DE
330
2
100
AcDbEntity
  8
0
  6
HIDDEN
100
AcDbLine
 10
0.300059655905855
 20
0.1522554160193703
 30
0.0
 11
-2.699940344094117
 21
0.1522554160193703
 31
0.0
  0
LINE
  5
3DF
330
2
100
AcDbEntity
  8
0
100
AcDbLine
 10
0.300059655905855
 20
0.0897554160193703
 30
0.0
 11
-2.699940344094117
 21
0.0897554160193703
 31
0.0
  0
ARC
  5
3E0
330
2
100
AcDbEntity
  8
0
100
AcDbCircle
 10
-0.1526596579059216
 20
-0.0599831829718855
 30
0.0
 40
0.5
100
AcDbArc
 50
25.11757623782306
 51
46.00508600525413
  0
LINE
  5
3E1
330
2
100
AcDbEntity
  8
0
100
AcDbLine
 10
0.300059655905855
 20
0.1522554160193703
 30
0.0
 11
0.300059655905855
 21
0.0897554160193703
 31
0.0
  0
LINE
  5
3E2
330
2
100
AcDbEntity
  8
0
100
AcDbLine
 10
-1.727386970409057
 20
0.6214565133842154
 30
0.0
 11
-1.727386970409057
 21
0.8981315133842198
 31
0.0
  0
ARC
  5
3E3
330
2
100
AcDbEntity
  8
0
100
AcDbCircle
 10
-1.727386970409043
 20
0.907954813621382
 30
0.0
 40
0.2864983002371666
100
AcDbArc
 50
253.9689634222553
 51
269.9999999999972
  0
ARC
  5
3E4
330
2
100
AcDbEntity
  8
0
100
AcDbCircle
 10
-1.748328954495605
 20
0.835070465684284
 30
0.0
 40
0.2106649640867779
100
AcDbArc
 50
235.2517244545713
 51
253.9689634222627
  0
ARC
  5
3E5
330
2
100
AcDbEntity
  8
0
100
AcDbCircle
 10
-1.780325211265279
 20
0.7889450879802329
 30
0.0
 40
0.1545284259354786
100
AcDbArc
 50
210.84247098871
 51
235.2517244545641
  0
ARC
  5
3E6
330
2
100
AcDbEntity
  8
0
100
AcDbCircle
 10
-1.82914428015507
 20
0.7597940133842212
 30
0.0
 40
0.0976681881821232
100
AcDbArc
 50
180.0000000000042
 51
210.8424709887172
  0
ARC
  5
3E7
330
2
100
AcDbEntity
  8
0
100
AcDbCircle
 10
-1.829144280155056
 20
0.7597940133842105
 30
0.0
 40
0.0976681881821371
100
AcDbArc
 50
149.1575290112853
 51
179.9999999999979
  0
ARC
  5
3E8
330
2
100
AcDbEntity
  8
0
100
AcDbCircle
 10
-1.7803252112653
 20
0.7306429387881988
 30
0.0
 40
0.1545284259354653
100
AcDbArc
 50
124.7482755454312
 51
149.1575290112855
  0
ARC
  5
3E9
330
2
100
AcDbEntity
  8
0
100
AcDbCircle
 10
-1.748328954495584
 20
0.6845175610841476
 30
0.0
 40
0.2106649640867889
100
AcDbArc
 50
106.0310365777435
 51
124.7482755454349
  0
ARC
  5
3EA
330
2
100
AcDbEntity
  8
0
100
AcDbCircle
 10
-1.727386970409043
 20
0.6116332131470568
 30
0.0
 40
0.2864983002371627
100
AcDbArc
 50
90.00000000000284
 51
106.0310365777449
  0
ARC
  5
3EB
330
2
100
AcDbEntity
  8
0
100
AcDbCircle
 10
-1.727386970409057
 20
0.6975902864509518
 30
0.0
 40
0.0468087730667364
100
AcDbArc
 50
237.392078984802
 51
269.9999999999956
  0
ARC
  5
3EC
330
2
100
AcDbEntity
  8
0
100
AcDbCircle
 10
-1.708344466117275
 20
0.7273571531950349
 30
0.0
 40
0.0821454866301448
100
AcDbArc
 50
212.9226719024499
 51
237.392078984805
  0
ARC
  5
3ED
330
2
100
AcDbEntity
  8
0
100
AcDbCircle
 10
-1.678086554804231
 20
0.7469488621913047
 30
0.0
 40
0.1181923486076141
100
AcDbArc
 50
195.0133710020014
 51
212.9226719024537
  0
ARC
  5
3EE
330
2
100
AcDbEntity
  8
0
100
AcDbCircle
 10
-1.630192508470891
 20
0.759794013384214
 30
0.0
 40
0.1677790160026763
100
AcDbArc
 50
179.9999999999976
 51
195.0133710019946
  0
ARC
  5
3EF
330
2
100
AcDbEntity
  8
0
100
AcDbCircle
 10
-1.630192508470927
 20
0.7597940133842283
 30
0.0
 40
0.167779016002644
100
AcDbArc
 50
164.9866289980049
 51
180.0000000000025
  0
ARC
  5
3F0
330
2
100
AcDbEntity
  8
0
100
AcDbCircle
 10
-1.678086554804231
 20
0.772639164577134
 30
0.0
 40
0.11819234860761
100
AcDbArc
 50
147.0773280975469
 51
164.9866289979999
  0
ARC
  5
3F1
330
2
100
AcDbEntity
  8
0
100
AcDbCircle
 10
-1.708344466117275
 20
0.7922308735734003
 30
0.0
 40
0.0821454866301446
100
AcDbArc
 50
122.607921015195
 51
147.0773280975501
  0
ARC
  5
3F2
330
2
100
AcDbEntity
  8
0
100
AcDbCircle
 10
-1.727386970409057
 20
0.8219977403174834
 30
0.0
 40
0.0468087730667357
100
AcDbArc
 50
90.00000000000435
 51
122.607921015198
  0
ARC
  5
3F3
330
2
100
AcDbEntity
  8
0
100
AcDbCircle
 10
-1.727386970409057
 20
0.7121597640073016
 30
0.0
 40
0.0320532506230862
100
AcDbArc
 50
236.4891770443209
 51
269.9999999999936
  0
ARC
  5
3F4
330
2
100
AcDbEntity
  8
0
100
AcDbCircle
 10
-1.712311951845265
 20
0.7349262876219331
 30
0.0
 40
0.0593583926698537
100
AcDbArc
 50
212.0281066666065
 51
236.4891770443275
  0
ARC
  5
3F5
330
2
100
AcDbEntity
  8
0
100
AcDbCircle
 10
-1.688308526321585
 20
0.749941670243734
 30
0.0
 40
0.0876713959042334
100
AcDbArc
 50
194.5265478168138
 51
212.0281066666247
  0
ARC
  5
3F6
330
2
100
AcDbEntity
  8
0
100
AcDbCircle
 10
-1.650285031145451
 20
0.7597940133841927
 30
0.0
 40
0.126950586969819
100
AcDbArc
 50
179.9999999999872
 51
194.5265478167845
  0
ARC
  5
3F7
330
2
100
AcDbEntity
  8
0
100
AcDbCircle
 10
-1.650285031145479
 20
0.7597940133842425
 30
0.0
 40
0.1269505869697944
100
AcDbArc
 50
165.4734521832127
 51
180.0000000000096
  0
ARC
  5
3F8
330
2
100
AcDbEntity
  8
0
100
AcDbCircle
 10
-1.688308526321592
 20
0.7696463565247047
 30
0.0
 40
0.0876713959042287
100
AcDbArc
 50
147.9718933333761
 51
165.4734521831878
  0
ARC
  5
3F9
330
2
100
AcDbEntity
  8
0
100
AcDbCircle
 10
-1.712311951845265
 20
0.7846617391465021
 30
0.0
 40
0.0593583926698542
100
AcDbArc
 50
123.5108229556726
 51
147.9718933333935
  0
ARC
  5
3FA
330
2
100
AcDbEntity
  8
0
100
AcDbCircle
 10
-1.727386970409057
 20
0.80742826276113
 30
0.0
 40
0.0320532506230895
100
AcDbArc
 50
90.00000000000637
 51
123.5108229556756
  0
LINE
  5
3FB
330
2
100
AcDbEntity
  8
0
100
AcDbLine
 10
-2.840159657905929
 20
0.2707357309112322
 30
0.0
 11
-2.777659657905929
 21
0.2707357309112322
 31
0.0
  0
ARC
  5
3FC
330
2
100
AcDbEntity
  8
0
100
AcDbCircle
 10
-3.152659657905922
 20
-0.0599831829718855
 30
0.0
 40
0.5
100
AcDbArc
 50
25.11757623782321
 51
41.40962210927817
  0
LINE
  5
3FD
330
2
100
AcDbEntity
  8
0
100
AcDbLine
 10
-2.699940344094117
 20
0.1522554160193703
 30
0.0
 11
-2.699940344094117
 21
0.0897554160193703
 31
0.0
  0
LINE
  5
3FE
330
2
100
AcDbEntity
  8
0
100
AcDbLine
 10
-1.465159657905922
 20
2.326807614001877
 30
0.0
 11
-1.465159657905929
 21
4.199469732454423
 31
0.0
  0
ARC
  5
3FF
330
2
100
AcDbEntity
  8
0
100
AcDbCircle
 10
-0.4651596579059216
 20
2.326807614001877
 30
0.0
 40
1.0
100
AcDbArc
 50
180.0
 51
226.0050860052541
  0
LINE
  5
400
330
2
100
AcDbEntity
  8
0
100
AcDbLine
 10
-1.727386970409057
 20
2.240112315576367
 30
0.0
 11
-1.727386970409057
 21
2.516787315576371
 31
0.0
  0
ARC
  5
401
330
2
100
AcDbEntity
  8
0
100
AcDbCircle
 10
-1.727386970409043
 20
2.526610615813533
 30
0.0
 40
0.2864983002371666
100
AcDbArc
 50
253.9689634222553
 51
269.9999999999972
  0
ARC
  5
402
330
2
100
AcDbEntity
  8
0
100
AcDbCircle
 10
-1.748328954495605
 20
2.453726267876435
 30
0.0
 40
0.2106649640867779
100
AcDbArc
 50
235.2517244545713
 51
253.9689634222627
  0
ARC
  5
403
330
2
100
AcDbEntity
  8
0
100
AcDbCircle
 10
-1.780325211265279
 20
2.407600890172384
 30
0.0
 40
0.1545284259354786
100
AcDbArc
 50
210.84247098871
 51
235.2517244545641
  0
ARC
  5
404
330
2
100
AcDbEntity
  8
0
100
AcDbCircle
 10
-1.82914428015507
 20
2.378449815576373
 30
0.0
 40
0.0976681881821232
100
AcDbArc
 50
180.0000000000042
 51
210.8424709887172
  0
ARC
  5
405
330
2
100
AcDbEntity
  8
0
100
AcDbCircle
 10
-1.829144280155056
 20
2.378449815576362
 30
0.0
 40
0.0976681881821371
100
AcDbArc
 50
149.1575290112853
 51
179.9999999999979
  0
ARC
  5
406
330
2
100
AcDbEntity
  8
0
100
AcDbCircle
 10
-1.7803252112653
 20
2.34929874098035
 30
0.0
 40
0.1545284259354653
100
AcDbArc
 50
124.7482755454312
 51
149.1575290112855
  0
ARC
  5
407
330
2
100
AcDbEntity
  8
0
100
AcDbCircle
 10
-1.748328954495584
 20
2.303173363276299
 30
0.0
 40
0.2106649640867889
100
AcDbArc
 50
106.0310365777435
 51
124.7482755454349
  0
ARC
  5
408
330
2
100
AcDbEntity
  8
0
100
AcDbCircle
 10
-1.727386970409043
 20
2.230289015339208
 30
0.0
 40
0.2864983002371627
100
AcDbArc
 50
90.00000000000284
 51
106.0310365777449
  0
ARC
  5
409
330
2
100
AcDbEntity
  8
0
100
AcDbCircle
 10
-1.727386970409057
 20
2.316246088643103
 30
0.0
 40
0.0468087730667364
100
AcDbArc
 50
237.392078984802
 51
269.9999999999956
  0
ARC
  5
40A
330
2
100
AcDbEntity
  8
0
100
AcDbCircle
 10
-1.708344466117275
 20
2.346012955387186
 30
0.0
 40
0.0821454866301448
100
AcDbArc
 50
212.9226719024499
 51
237.392078984805
  0
ARC
  5
40B
330
2
100
AcDbEntity
  8
0
100
AcDbCircle
 10
-1.678086554804231
 20
2.365604664383456
 30
0.0
 40
0.1181923486076141
100
AcDbArc
 50
195.0133710020014
 51
212.9226719024537
  0
ARC
  5
40C
330
2
100
AcDbEntity
  8
0
100
AcDbCircle
 10
-1.630192508470891
 20
2.378449815576365
 30
0.0
 40
0.1677790160026763
100
AcDbArc
 50
179.9999999999976
 51
195.0133710019946
  0
ARC
  5
40D
330
2
100
AcDbEntity
  8
0
100
AcDbCircle
 10
-1.630192508470927
 20
2.37844981557638
 30
0.0
 40
0.167779016002644
100
AcDbArc
 50
164.9866289980049
 51
180.0000000000025
  0
ARC
  5
40E
330
2
100
AcDbEntity
  8
0
100
AcDbCircle
 10
-1.678086554804231
 20
2.391294966769285
 30
0.0
 40
0.11819234860761
100
AcDbArc
 50
147.0773280975469
 51
164.9866289979999
  0
ARC
  5
40F
330
2
100
AcDbEntity
  8
0
100
AcDbCircle
 10
-1.708344466117275
 20
2.410886675765552
 30
0.0
 40
0.0821454866301446
100
AcDbArc
 50
122.607921015195
 51
147.0773280975501
  0
ARC
  5
410
330
2
100
AcDbEntity
  8
0
100
AcDbCircle
 10
-1.727386970409057
 20
2.440653542509635
 30
0.0
 40
0.0468087730667357
100
AcDbArc
 50
90.00000000000435
 51
122.607921015198
  0
ARC
  5
411
330
2
100
AcDbEntity
  8
0
100
AcDbCircle
 10
-1.727386970409057
 20
2.330815566199453
 30
0.0
 40
0.0320532506230862
100
AcDbArc
 50
236.4891770443209
 51
269.9999999999936
  0
ARC
  5
412
330
2
100
AcDbEntity
  8
0
100
AcDbCircle
 10
-1.712311951845265
 20
2.353582089814085
 30
0.0
 40
0.0593583926698537
100
AcDbArc
 50
212.0281066666065
 51
236.4891770443275
  0
ARC
  5
413
330
2
100
AcDbEntity
  8
0
100
AcDbCircle
 10
-1.688308526321585
 20
2.368597472435885
 30
0.0
 40
0.0876713959042334
100
AcDbArc
 50
194.5265478168138
 51
212.0281066666247
  0
ARC
  5
414
330
2
100
AcDbEntity
  8
0
100
AcDbCircle
 10
-1.650285031145451
 20
2.378449815576344
 30
0.0
 40
0.126950586969819
100
AcDbArc
 50
179.9999999999872
 51
194.5265478167845
  0
ARC
  5
415
330
2
100
AcDbEntity
  8
0
100
AcDbCircle
 10
-1.650285031145479
 20
2.378449815576394
 30
0.0
 40
0.1269505869697944
100
AcDbArc
 50
165.4734521832127
 51
180.0000000000096
  0
ARC
  5
416
330
2
100
AcDbEntity
  8
0
100
AcDbCircle
 10
-1.688308526321592
 20
2.388302158716856
 30
0.0
 40
0.0876713959042287
100
AcDbArc
 50
147.9718933333761
 51
165.4734521831878
  0
ARC
  5
417
330
2
100
AcDbEntity
  8
0
100
AcDbCircle
 10
-1.712311951845265
 20
2.403317541338653
 30
0.0
 40
0.0593583926698542
100
AcDbArc
 50
123.5108229556726
 51
147.9718933333935
  0
ARC
  5
418
330
2
100
AcDbEntity
  8
0
100
AcDbCircle
 10
-1.727386970409057
 20
2.426084064953281
 30
0.0
 40
0.0320532506230895
100
AcDbArc
 50
90.00000000000637
 51
123.5108229556756
  0
ARC
  5
419
330
2
100
AcDbEntity
  8
0
100
AcDbCircle
 10
-2.777659657905922
 20
2.02725541601937
 30
0.0
 40
0.1875000000000025
100
AcDbArc
 50
270.0
 51
90.0
  0
LINE
  5
41A
330
2
100
AcDbEntity
  8
0
100
AcDbLine
 10
-1.777659657905929
 20
4.511969732454423
 30
0.0
 11
-1.777659657905929
 21
5.511969732454423
 31
0.0
  0
LINE
  5
41B
330
2
100
AcDbEntity
  8
0
100
AcDbLine
 10
-1.727386970409057
 20
3.502958901633916
 30
0.0
 11
-1.727386970409057
 21
3.77963390163392
 31
0.0
  0
ARC
  5
41C
330
2
100
AcDbEntity
  8
0
100
AcDbCircle
 10
-1.727386970409043
 20
3.789457201871082
 30
0.0
 40
0.2864983002371666
100
AcDbArc
 50
253.9689634222553
 51
269.9999999999972
  0
ARC
  5
41D
330
2
100
AcDbEntity
  8
0
100
AcDbCircle
 10
-1.748328954495605
 20
3.716572853933984
 30
0.0
 40
0.2106649640867779
100
AcDbArc
 50
235.2517244545713
 51
253.9689634222627
  0
ARC
  5
41E
330
2
100
AcDbEntity
  8
0
100
AcDbCircle
 10
-1.780325211265279
 20
3.670447476229933
 30
0.0
 40
0.1545284259354786
100
AcDbArc
 50
210.84247098871
 51
235.2517244545641
  0
ARC
  5
41F
330
2
100
AcDbEntity
  8
0
100
AcDbCircle
 10
-1.82914428015507
 20
3.641296401633921
 30
0.0
 40
0.0976681881821232
100
AcDbArc
 50
180.0000000000042
 51
210.8424709887172
  0
ARC
  5
420
330
2
100
AcDbEntity
  8
0
100
AcDbCircle
 10
-1.829144280155056
 20
3.641296401633911
 30
0.0
 40
0.0976681881821371
100
AcDbArc
 50
149.1575290112853
 51
179.9999999999979
  0
ARC
  5
421
330
2
100
AcDbEntity
  8
0
100
AcDbCircle
 10
-1.7803252112653
 20
3.612145327037899
 30
0.0
 40
0.1545284259354653
100
AcDbArc
 50
124.7482755454312
 51
149.1575290112855
  0
ARC
  5
422
330
2
100
AcDbEntity
  8
0
100
AcDbCircle
 10
-1.748328954495584
 20
3.566019949333848
 30
0.0
 40
0.2106649640867889
100
AcDbArc
 50
106.0310365777435
 51
124.7482755454349
  0
ARC
  5
423
330
2
100
AcDbEntity
  8
0
100
AcDbCircle
 10
-1.727386970409043
 20
3.493135601396757
 30
0.0
 40
0.2864983002371627
100
AcDbArc
 50
90.00000000000284
 51
106.0310365777449
  0
ARC
  5
424
330
2
100
AcDbEntity
  8
0
100
AcDbCircle
 10
-1.727386970409057
 20
3.579092674700652
 30
0.0
 40
0.0468087730667364
100
AcDbArc
 50
237.392078984802
 51
269.9999999999956
  0
ARC
  5
425
330
2
100
AcDbEntity
  8
0
100
AcDbCircle
 10
-1.708344466117275
 20
3.608859541444735
 30
0.0
 40
0.0821454866301448
100
AcDbArc
 50
212.9226719024499
 51
237.392078984805
  0
ARC
  5
426
330
2
100
AcDbEntity
  8
0
100
AcDbCircle
 10
-1.678086554804231
 20
3.628451250441005
 30
0.0
 40
0.1181923486076141
100
AcDbArc
 50
195.0133710020014
 51
212.9226719024537
  0
ARC
  5
427
330
2
100
AcDbEntity
  8
0
100
AcDbCircle
 10
-1.630192508470891
 20
3.641296401633914
 30
0.0
 40
0.1677790160026763
100
AcDbArc
 50
179.9999999999976
 51
195.0133710019946
  0
ARC
  5
428
330
2
100
AcDbEntity
  8
0
100
AcDbCircle
 10
-1.630192508470927
 20
3.641296401633928
 30
0.0
 40
0.167779016002644
100
AcDbArc
 50
164.9866289980049
 51
180.0000000000025
  0
ARC
  5
429
330
2
100
AcDbEntity
  8
0
100
AcDbCircle
 10
-1.678086554804231
 20
3.654141552826834
 30
0.0
 40
0.11819234860761
100
AcDbArc
 50
147.0773280975469
 51
164.9866289979999
  0
ARC
  5
42A
330
2
100
AcDbEntity
  8
0
100
AcDbCircle
 10
-1.708344466117275
 20
3.6737332618231
 30
0.0
 40
0.0821454866301446
100
AcDbArc
 50
122.607921015195
 51
147.0773280975501
  0
ARC
  5
42B
330
2
100
AcDbEntity
  8
0
100
AcDbCircle
 10
-1.727386970409057
 20
3.703500128567184
 30
0.0
 40
0.0468087730667357
100
AcDbArc
 50
90.00000000000435
 51
122.607921015198
  0
ARC
  5
42C
330
2
100
AcDbEntity
  8
0
100
AcDbCircle
 10
-1.727386970409057
 20
3.593662152257002
 30
0.0
 40
0.0320532506230862
100
AcDbArc
 50
236.4891770443209
 51
269.9999999999936
  0
ARC
  5
42D
330
2
100
AcDbEntity
  8
0
100
AcDbCircle
 10
-1.712311951845265
 20
3.616428675871633
 30
0.0
 40
0.0593583926698537
100
AcDbArc
 50
212.0281066666065
 51
236.4891770443275
  0
ARC
  5
42E
330
2
100
AcDbEntity
  8
0
100
AcDbCircle
 10
-1.688308526321585
 20
3.631444058493434
 30
0.0
 40
0.0876713959042334
100
AcDbArc
 50
194.5265478168138
 51
212.0281066666247
  0
ARC
  5
42F
330
2
100
AcDbEntity
  8
0
100
AcDbCircle
 10
-1.650285031145451
 20
3.641296401633893
 30
0.0
 40
0.126950586969819
100
AcDbArc
 50
179.9999999999872
 51
194.5265478167845
  0
ARC
  5
430
330
2
100
AcDbEntity
  8
0
100
AcDbCircle
 10
-1.650285031145479
 20
3.641296401633943
 30
0.0
 40
0.1269505869697944
100
AcDbArc
 50
165.4734521832127
 51
180.0000000000096
  0
ARC
  5
431
330
2
100
AcDbEntity
  8
0
100
AcDbCircle
 10
-1.688308526321592
 20
3.651148744774405
 30
0.0
 40
0.0876713959042287
100
AcDbArc
 50
147.9718933333761
 51
165.4734521831878
  0
ARC
  5
432
330
2
100
AcDbEntity
  8
0
100
AcDbCircle
 10
-1.712311951845265
 20
3.666164127396202
 30
0.0
 40
0.0593583926698542
100
AcDbArc
 50
123.5108229556726
 51
147.9718933333935
  0
ARC
  5
433
330
2
100
AcDbEntity
  8
0
100
AcDbCircle
 10
-1.727386970409057
 20
3.68893065101083
 30
0.0
 40
0.0320532506230895
100
AcDbArc
 50
90.00000000000637
 51
123.5108229556756
  0
ARC
  5
434
330
2
100
AcDbEntity
  8
0
100
AcDbCircle
 10
-1.621409657905922
 20
4.199469732454423
 30
0.0
 40
0.15625
100
AcDbArc
 50
0.000000000000007
 51
90.0
  0
ARC
  5
435
330
2
100
AcDbEntity
  8
0
100
AcDbCircle
 10
-1.621409657905922
 20
4.511969732454423
 30
0.0
 40
0.15625
100
AcDbArc
 50
180.0
 51
269.9999999999999
  0
LINE
  5
436
330
2
100
AcDbEntity
  8
0
100
AcDbLine
 10
-1.621409657905929
 20
4.355719732454423
 30
0.0
 11
-1.621409657905929
 21
4.355719732454423
 31
0.0
  0
ARC
  5
437
330
2
100
AcDbEntity
  8
0
100
AcDbCircle
 10
-1.621409657905922
 20
5.824469732454423
 30
0.0
 40
0.15625
100
AcDbArc
 50
270.0
 51
359.9999999999999
  0
ARC
  5
438
330
2
100
AcDbEntity
  8
0
100
AcDbCircle
 10
-1.621409657905922
 20
5.511969732454423
 30
0.0
 40
0.15625
100
AcDbArc
 50
90.0
 51
180.0
  0
LINE
  5
439
330
2
100
AcDbEntity
  8
0
100
AcDbLine
 10
-1.621409657905929
 20
5.668219732454423
 30
0.0
 11
-1.621409657905929
 21
5.668219732454423
 31
0.0
  0
ARC
  5
43A
330
2
100
AcDbEntity
  8
0
100
AcDbCircle
 10
-1.727386970409043
 20
6.225971063183616
 30
0.0
 40
0.2864983002371666
100
AcDbArc
 50
253.9689634222553
 51
269.9999999999972
  0
ARC
  5
43B
330
2
100
AcDbEntity
  8
0
100
AcDbCircle
 10
-1.727386970409057
 20
6.015606536013186
 30
0.0
 40
0.0468087730667364
100
AcDbArc
 50
237.392078984802
 51
269.9999999999956
  0
ARC
  5
43C
330
2
100
AcDbEntity
  8
0
100
AcDbCircle
 10
-1.621409657905922
 20
8.511969732454423
 30
0.0
 40
0.15625
100
AcDbArc
 50
180.0
 51
269.9999999999999
  0
LINE
  5
43D
330
2
100
AcDbEntity
  8
0
100
AcDbLine
 10
-1.777659657905929
 20
6.636969732454423
 30
0.0
 11
-1.777659657905929
 21
7.261969732454423
 31
0.0
  0
ARC
  5
43E
330
2
100
AcDbEntity
  8
0
100
AcDbCircle
 10
-1.621409657905922
 20
6.636969732454423
 30
0.0
 40
0.15625
100
AcDbArc
 50
180.0
 51
269.9999999999999
  0
ARC
  5
43F
330
2
100
AcDbEntity
  8
0
100
AcDbCircle
 10
-1.621409657905922
 20
6.324469732454423
 30
0.0
 40
0.15625
100
AcDbArc
 50
0.000000000000007
 51
90.0
  0
LINE
  5
440
330
2
100
AcDbEntity
  8
0
100
AcDbLine
 10
-1.621409657905929
 20
6.480719732454423
 30
0.0
 11
-1.621409657905929
 21
6.480719732454423
 31
0.0
  0
ARC
  5
441
330
2
100
AcDbEntity
  8
0
100
AcDbCircle
 10
-1.780325211265279
 20
6.106961337542467
 30
0.0
 40
0.1545284259354786
100
AcDbArc
 50
210.84247098871
 51
235.2517244545641
  0
ARC
  5
442
330
2
100
AcDbEntity
  8
0
100
AcDbCircle
 10
-1.82914428015507
 20
6.077810262946455
 30
0.0
 40
0.0976681881821232
100
AcDbArc
 50
180.0000000000042
 51
210.8424709887172
  0
ARC
  5
443
330
2
100
AcDbEntity
  8
0
100
AcDbCircle
 10
-1.829144280155056
 20
6.077810262946445
 30
0.0
 40
0.0976681881821371
100
AcDbArc
 50
149.1575290112853
 51
179.9999999999979
  0
ARC
  5
444
330
2
100
AcDbEntity
  8
0
100
AcDbCircle
 10
-1.7803252112653
 20
6.048659188350433
 30
0.0
 40
0.1545284259354653
100
AcDbArc
 50
124.7482755454312
 51
149.1575290112855
  0
ARC
  5
445
330
2
100
AcDbEntity
  8
0
100
AcDbCircle
 10
-1.748328954495584
 20
6.002533810646382
 30
0.0
 40
0.2106649640867889
100
AcDbArc
 50
106.0310365777435
 51
124.7482755454349
  0
ARC
  5
446
330
2
100
AcDbEntity
  8
0
100
AcDbCircle
 10
-1.727386970409043
 20
5.929649462709291
 30
0.0
 40
0.2864983002371627
100
AcDbArc
 50
90.00000000000284
 51
106.0310365777449
  0
ARC
  5
447
330
2
100
AcDbEntity
  8
0
100
AcDbCircle
 10
-1.678086554804231
 20
6.064965111753539
 30
0.0
 40
0.1181923486076141
100
AcDbArc
 50
195.0133710020014
 51
212.9226719024537
  0
ARC
  5
448
330
2
100
AcDbEntity
  8
0
100
AcDbCircle
 10
-1.630192508470891
 20
6.077810262946448
 30
0.0
 40
0.1677790160026763
100
AcDbArc
 50
179.9999999999976
 51
195.0133710019946
  0
ARC
  5
449
330
2
100
AcDbEntity
  8
0
100
AcDbCircle
 10
-1.630192508470927
 20
6.077810262946462
 30
0.0
 40
0.167779016002644
100
AcDbArc
 50
164.9866289980049
 51
180.0000000000025
  0
ARC
  5
44A
330
2
100
AcDbEntity
  8
0
100
AcDbCircle
 10
-1.678086554804231
 20
6.090655414139368
 30
0.0
 40
0.11819234860761
100
AcDbArc
 50
147.0773280975469
 51
164.9866289979999
  0
ARC
  5
44B
330
2
100
AcDbEntity
  8
0
100
AcDbCircle
 10
-1.708344466117275
 20
6.110247123135634
 30
0.0
 40
0.0821454866301446
100
AcDbArc
 50
122.607921015195
 51
147.0773280975501
  0
ARC
  5
44C
330
2
100
AcDbEntity
  8
0
100
AcDbCircle
 10
-1.727386970409057
 20
6.140013989879718
 30
0.0
 40
0.0468087730667357
100
AcDbArc
 50
90.00000000000435
 51
122.607921015198
  0
ARC
  5
44D
330
2
100
AcDbEntity
  8
0
100
AcDbCircle
 10
-1.727386970409057
 20
6.030176013569536
 30
0.0
 40
0.0320532506230862
100
AcDbArc
 50
236.4891770443209
 51
269.9999999999936
  0
ARC
  5
44E
330
2
100
AcDbEntity
  8
0
100
AcDbCircle
 10
-1.712311951845265
 20
6.052942537184167
 30
0.0
 40
0.0593583926698537
100
AcDbArc
 50
212.0281066666065
 51
236.4891770443275
  0
ARC
  5
44F
330
2
100
AcDbEntity
  8
0
100
AcDbCircle
 10
-1.688308526321585
 20
6.067957919805968
 30
0.0
 40
0.0876713959042334
100
AcDbArc
 50
194.5265478168138
 51
212.0281066666247
  0
ARC
  5
450
330
2
100
AcDbEntity
  8
0
100
AcDbCircle
 10
-1.650285031145451
 20
6.077810262946427
 30
0.0
 40
0.126950586969819
100
AcDbArc
 50
179.9999999999872
 51
194.5265478167845
  0
ARC
  5
451
330
2
100
AcDbEntity
  8
0
100
AcDbCircle
 10
-1.650285031145479
 20
6.077810262946477
 30
0.0
 40
0.1269505869697944
100
AcDbArc
 50
165.4734521832127
 51
180.0000000000096
  0
ARC
  5
452
330
2
100
AcDbEntity
  8
0
100
AcDbCircle
 10
-1.688308526321592
 20
6.087662606086939
 30
0.0
 40
0.0876713959042287
100
AcDbArc
 50
147.9718933333761
 51
165.4734521831878
  0
ARC
  5
453
330
2
100
AcDbEntity
  8
0
100
AcDbCircle
 10
-1.712311951845265
 20
6.102677988708736
 30
0.0
 40
0.0593583926698542
100
AcDbArc
 50
123.5108229556726
 51
147.9718933333935
  0
ARC
  5
454
330
2
100
AcDbEntity
  8
0
100
AcDbCircle
 10
-1.727386970409057
 20
6.125444512323364
 30
0.0
 40
0.0320532506230895
100
AcDbArc
 50
90.00000000000637
 51
123.5108229556756
  0
LINE
  5
455
330
2
100
AcDbEntity
  8
0
100
AcDbLine
 10
-1.727386970409057
 20
7.809413437377826
 30
0.0
 11
-1.727386970409057
 21
8.08608843737783
 31
0.0
  0
ARC
  5
456
330
2
100
AcDbEntity
  8
0
100
AcDbCircle
 10
-1.780325211265279
 20
7.976902011973843
 30
0.0
 40
0.1545284259354786
100
AcDbArc
 50
210.84247098871
 51
235.2517244545641
  0
ARC
  5
457
330
2
100
AcDbEntity
  8
0
100
AcDbCircle
 10
-1.708344466117275
 20
7.915314077188645
 30
0.0
 40
0.0821454866301448
100
AcDbArc
 50
212.9226719024499
 51
237.392078984805
  0
LINE
  5
458
330
2
100
AcDbEntity
  8
0
100
AcDbLine
 10
-1.465159657905929
 20
7.574469732454423
 30
0.0
 11
-1.465159657905929
 21
8.199469732454423
 31
0.0
  0
ARC
  5
459
330
2
100
AcDbEntity
  8
0
100
AcDbCircle
 10
-1.621409657905922
 20
7.574469732454423
 30
0.0
 40
0.15625
100
AcDbArc
 50
270.0
 51
359.9999999999999
  0
ARC
  5
45A
330
2
100
AcDbEntity
  8
0
100
AcDbCircle
 10
-1.621409657905922
 20
7.261969732454423
 30
0.0
 40
0.15625
100
AcDbArc
 50
90.0
 51
180.0
  0
LINE
  5
45B
330
2
100
AcDbEntity
  8
0
100
AcDbLine
 10
-1.621409657905929
 20
7.418219732454423
 30
0.0
 11
-1.621409657905929
 21
7.418219732454423
 31
0.0
  0
ARC
  5
45C
330
2
100
AcDbEntity
  8
0
100
AcDbCircle
 10
-1.727386970409043
 20
8.095911737614992
 30
0.0
 40
0.2864983002371666
100
AcDbArc
 50
253.9689634222553
 51
269.9999999999972
  0
ARC
  5
45D
330
2
100
AcDbEntity
  8
0
100
AcDbCircle
 10
-1.748328954495605
 20
8.023027389677894
 30
0.0
 40
0.2106649640867779
100
AcDbArc
 50
235.2517244545713
 51
253.9689634222627
  0
ARC
  5
45E
330
2
100
AcDbEntity
  8
0
100
AcDbCircle
 10
-1.727386970409057
 20
7.885547210444562
 30
0.0
 40
0.0468087730667364
100
AcDbArc
 50
237.392078984802
 51
269.9999999999956
  0
ARC
  5
45F
330
2
100
AcDbEntity
  8
0
100
AcDbCircle
 10
-1.621409657905922
 20
8.199469732454423
 30
0.0
 40
0.15625
100
AcDbArc
 50
0.000000000000007
 51
90.0
  0
LINE
  5
460
330
2
100
AcDbEntity
  8
0
100
AcDbLine
 10
-1.621409657905929
 20
8.355719732454423
 30
0.0
 11
-1.621409657905929
 21
8.355719732454423
 31
0.0
  0
ARC
  5
461
330
2
100
AcDbEntity
  8
0
100
AcDbCircle
 10
-1.82914428015507
 20
7.947750937377831
 30
0.0
 40
0.0976681881821232
100
AcDbArc
 50
180.0000000000042
 51
210.8424709887172
  0
ARC
  5
462
330
2
100
AcDbEntity
  8
0
100
AcDbCircle
 10
-1.829144280155056
 20
7.947750937377821
 30
0.0
 40
0.0976681881821371
100
AcDbArc
 50
149.1575290112853
 51
179.9999999999979
  0
ARC
  5
463
330
2
100
AcDbEntity
  8
0
100
AcDbCircle
 10
-1.7803252112653
 20
7.918599862781809
 30
0.0
 40
0.1545284259354653
100
AcDbArc
 50
124.7482755454312
 51
149.1575290112855
  0
ARC
  5
464
330
2
100
AcDbEntity
  8
0
100
AcDbCircle
 10
-1.748328954495584
 20
7.872474485077758
 30
0.0
 40
0.2106649640867889
100
AcDbArc
 50
106.0310365777435
 51
124.7482755454349
  0
ARC
  5
465
330
2
100
AcDbEntity
  8
0
100
AcDbCircle
 10
-1.727386970409043
 20
7.799590137140667
 30
0.0
 40
0.2864983002371627
100
AcDbArc
 50
90.00000000000284
 51
106.0310365777449
  0
ARC
  5
466
330
2
100
AcDbEntity
  8
0
100
AcDbCircle
 10
-1.678086554804231
 20
7.934905786184915
 30
0.0
 40
0.1181923486076141
100
AcDbArc
 50
195.0133710020014
 51
212.9226719024537
  0
ARC
  5
467
330
2
100
AcDbEntity
  8
0
100
AcDbCircle
 10
-1.630192508470891
 20
7.947750937377824
 30
0.0
 40
0.1677790160026763
100
AcDbArc
 50
179.9999999999976
 51
195.0133710019946
  0
ARC
  5
468
330
2
100
AcDbEntity
  8
0
100
AcDbCircle
 10
-1.630192508470927
 20
7.947750937377839
 30
0.0
 40
0.167779016002644
100
AcDbArc
 50
164.9866289980049
 51
180.0000000000025
  0
ARC
  5
469
330
2
100
AcDbEntity
  8
0
100
AcDbCircle
 10
-1.678086554804231
 20
7.960596088570744
 30
0.0
 40
0.11819234860761
100
AcDbArc
 50
147.0773280975469
 51
164.9866289979999
  0
ARC
  5
46A
330
2
100
AcDbEntity
  8
0
100
AcDbCircle
 10
-1.708344466117275
 20
7.980187797567011
 30
0.0
 40
0.0821454866301446
100
AcDbArc
 50
122.607921015195
 51
147.0773280975501
  0
ARC
  5
46B
330
2
100
AcDbEntity
  8
0
100
AcDbCircle
 10
-1.727386970409057
 20
8.009954664311094
 30
0.0
 40
0.0468087730667357
100
AcDbArc
 50
90.00000000000435
 51
122.607921015198
  0
ARC
  5
46C
330
2
100
AcDbEntity
  8
0
100
AcDbCircle
 10
-1.727386970409057
 20
7.900116688000912
 30
0.0
 40
0.0320532506230862
100
AcDbArc
 50
236.4891770443209
 51
269.9999999999936
  0
ARC
  5
46D
330
2
100
AcDbEntity
  8
0
100
AcDbCircle
 10
-1.712311951845265
 20
7.922883211615543
 30
0.0
 40
0.0593583926698537
100
AcDbArc
 50
212.0281066666065
 51
236.4891770443275
  0
ARC
  5
46E
330
2
100
AcDbEntity
  8
0
100
AcDbCircle
 10
-1.688308526321585
 20
7.937898594237344
 30
0.0
 40
0.0876713959042334
100
AcDbArc
 50
194.5265478168138
 51
212.0281066666247
  0
ARC
  5
46F
330
2
100
AcDbEntity
  8
0
100
AcDbCircle
 10
-1.650285031145451
 20
7.947750937377803
 30
0.0
 40
0.126950586969819
100
AcDbArc
 50
179.9999999999872
 51
194.5265478167845
  0
ARC
  5
470
330
2
100
AcDbEntity
  8
0
100
AcDbCircle
 10
-1.650285031145479
 20
7.947750937377853
 30
0.0
 40
0.1269505869697944
100
AcDbArc
 50
165.4734521832127
 51
180.0000000000096
  0
ARC
  5
471
330
2
100
AcDbEntity
  8
0
100
AcDbCircle
 10
-1.688308526321592
 20
7.957603280518315
 30
0.0
 40
0.0876713959042287
100
AcDbArc
 50
147.9718933333761
 51
165.4734521831878
  0
ARC
  5
472
330
2
100
AcDbEntity
  8
0
100
AcDbCircle
 10
-1.712311951845265
 20
7.972618663140112
 30
0.0
 40
0.0593583926698542
100
AcDbArc
 50
123.5108229556726
 51
147.9718933333935
  0
ARC
  5
473
330
2
100
AcDbEntity
  8
0
100
AcDbCircle
 10
-1.727386970409057
 20
7.99538518675474
 30
0.0
 40
0.0320532506230895
100
AcDbArc
 50
90.00000000000637
 51
123.5108229556756
  0
LINE
  5
474
330
2
100
AcDbEntity
  8
0
100
AcDbLine
 10
-2.840159657905929
 20
9.074469732454423
 30
0.0
 11
-1.777659657905929
 21
9.074469732454423
 31
0.0
  0
LINE
  5
475
330
2
100
AcDbEntity
  8
0
100
AcDbLine
 10
-1.777659657905929
 20
8.511969732454423
 30
0.0
 11
-1.777659657905929
 21
9.074469732454423
 31
0.0
  0
ENDSEC
  0
SECTION
  2
OBJECTS
  0
DICTIONARY
  5
9
330
0
100
AcDbDictionary
281
     1
  3
ACAD_COLOR
350
47B
  3
ACAD_GROUP
350
23
  3
ACAD_LAYOUT
350
D
  3
ACAD_MATERIAL
350
47A
  3
ACAD_MLINESTYLE
350
24
  3
ACAD_PLOTSETTINGS
350
25
  3
ACAD_PLOTSTYLENAME
350
8
  3
ACAD_TABLESTYLE
350
47C
  3
ACDBHEADERROUNDTRIPXREC
350
4A4
  3
AcDbVariableDictionary
350
124
  0
DICTIONARY
  5
47B
102
{ACAD_REACTORS
330
9
102
}
330
9
100
AcDbDictionary
281
     1
  0
DICTIONARY
  5
23
102
{ACAD_REACTORS
330
9
102
}
330
9
100
AcDbDictionary
281
     1
  0
DICTIONARY
  5
D
102
{ACAD_REACTORS
330
9
102
}
330
9
100
AcDbDictionary
281
     1
  3
Layout1
350
13
  3
Model
350
C
  0
DICTIONARY
  5
47A
102
{ACAD_REACTORS
330
9
102
}
330
9
100
AcDbDictionary
281
     1
  0
DICTIONARY
  5
24
102
{ACAD_REACTORS
330
9
102
}
330
9
100
AcDbDictionary
281
     1
  3
STANDARD
350
27
  0
DICTIONARY
  5
25
102
{ACAD_REACTORS
330
9
102
}
330
9
100
AcDbDictionary
281
     1
  0
ACDBDICTIONARYWDFLT
  5
8
102
{ACAD_REACTORS
330
9
102
}
330
9
100
AcDbDictionary
281
     1
  3
Normal
350
7
100
AcDbDictionaryWithDefault
340
7
  0
DICTIONARY
  5
47C
102
{ACAD_REACTORS
330
9
102
}
330
9
100
AcDbDictionary
281
     1
  3
Standard
350
47D
  0
DICTIONARY
  5
4A4
102
{ACAD_REACTORS
330
9
102
}
330
9
100
AcDbDictionary
281
     1
  3
COLORDICT
350
4A5
  3
MATERIALDICT
350
4A6
  0
DICTIONARY
  5
124
102
{ACAD_REACTORS
330
9
102
}
330
9
100
AcDbDictionary
281
     1
  3
CTABLESTYLE
350
491
  3
HIDETEXT
350
4A3
  0
LAYOUT
  5
13
102
{ACAD_REACTORS
330
D
102
}
102
{ACAD_XDICTIONARY
360
4A7
102
}
330
D
100
AcDbPlotSettings
  1

  2
C:\ACAD2000\plotters\HP LaserJet 2100 Series PS.pc3
  4

  6

 40
0.0
 41
0.0
 42
0.0
 43
0.0
 44
0.0
 45
0.0
 46
0.0
 47
0.0
 48
0.0
 49
0.0
140
0.0
141
0.0
142
1.0
143
1.0
 70
   688
 72
     0
 73
     0
 74
     5
  7

 75
    16
147
1.0
148
0.0
149
0.0
100
AcDbLayout
  1
Layout1
 70
     0
 71
     1
 10
0.0
 20
0.0
 11
12.0
 21
9.0
 12
0.0
 22
0.0
 32
0.0
 14
1.000000000000000E+20
 24
1.000000000000000E+20
 34
1.000000000000000E+20
 15
-1.000000000000000E+20
 25
-1.000000000000000E+20
 35
-1.000000000000000E+20
146
0.0
 13
0.0
 23
0.0
 33
0.0
 16
1.0
 26
0.0
 36
0.0
 17
0.0
 27
1.0
 37
0.0
 76
     0
330
E
  0
LAYOUT
  5
C
102
{ACAD_REACTORS
330
D
102
}
102
{ACAD_XDICTIONARY
360
4A9
102
}
330
D
100
AcDbPlotSettings
  1

  2
HP LaserJet 2100 Series PS
  4
Letter
  6

 40
5.365749835968018
 41
5.408073902130127
 42
5.132904052734375
 43
5.090576171875
 44
215.8999938964844
 45
279.3999938964844
 46
0.0
 47
0.0
 48
0.0
 49
0.0
140
0.0
141
0.0
142
1.0
143
5.193734373688032
 70
 28336
 72
     0
 73
     1
 74
     2
  7

 75
     0
147
0.1925396887961961
148
0.0
149
0.0
100
AcDbLayout
  1
Model
 70
     1
 71
     0
 10
0.0
 20
0.0
 11
12.0
 21
9.0
 12
0.0
 22
0.0
 32
0.0
 14
0.0
 24
0.0
 34
0.0
 15
0.0
 25
0.0
 35
0.0
146
0.0
 13
0.0
 23
0.0
 33
0.0
 16
1.0
 26
0.0
 36
0.0
 17
0.0
 27
1.0
 37
0.0
 76
     0
330
2
  0
MLINESTYLE
  5
27
102
{ACAD_REACTORS
330
24
102
}
330
24
100
AcDbMlineStyle
  2
STANDARD
 70
     0
  3

 62
   256
 51
90.0
 52
90.0
 71
     2
 49
0.5
 62
   256
  6
BYLAYER
 49
-0.5
 62
   256
  6
BYLAYER
  0
ACDBPLACEHOLDER
  5
7
102
{ACAD_REACTORS
330
8
102
}
330
8
  0
ACAD_PROXY_OBJECT
  5
47D
102
{ACAD_REACTORS
330
47C
102
}
330
47C
100
AcDbProxyObject
 90
      499
 91
      513
 95
   983063
 70
     0
 93
     1841
310
4214DD185B99185C9928B81E85EB51B8AE3F2E07A17AD46E2B8FC02B5E8DC0F42B1CFD028000000C1008070000C3001FDFF8000000C1003FBFF000000182007F7FE00000030400FEFFC00000060801FDFF8000000C1003FBFF00000018200000000000000681FA0B0000001820100E000186003FBFF000000182007F7FE000
310
00030400FEFFC00000060801FDFF8000000C1003FBFF000000182007F7FE000000304000AD7A3703D0AC73F4160000003040201C00030C007F7FE00000030400FEFFC00000060801FDFF8000000C1003FBFF000000182007F7FE00000030400FEFFC000000608000
340
16
340
16
340
16
 94
        0
  0
XRECORD
  5
4A5
102
{ACAD_REACTORS
330
4A4
102
}
330
4A4
100
AcDbXrecord
340
47B
  0
XRECORD
  5
4A6
102
{ACAD_REACTORS
330
4A4
102
}
330
4A4
100
AcDbXrecord
340
47A
  0
DICTIONARYVAR
  5
491
102
{ACAD_REACTORS
330
124
102
}
330
124
100
DictionaryVariables
280
     0
  1
STANDARD
  0
DICTIONARYVAR
  5
4A3
102
{ACAD_REACTORS
330
124
102
}
330
124
100
DictionaryVariables
280
     0
  1
0
  0
DICTIONARY
  5
4A7
330
13
100
AcDbDictionary
280
     1
281
     1
  3
ACAD_XREC_ROUNDTRIP
360
4A8
  0
DICTIONARY
  5
4A9
330
C
100
AcDbDictionary
280
     1
281
     1
  3
ACAD_XREC_ROUNDTRIP
360
4AA
  0
XRECORD
  5
4A8
102
{ACAD_REACTORS
330
4A7
102
}
330
4A7
100
AcDbXrecord
102
SHADEPLOT
 70
     0
102
SHADEPLOTRESLEVEL
 70
     2
102
SHADEPLOTCUSTOMDPI
 70
   300
  0
XRECORD
  5
4AA
102
{ACAD_REACTORS
330
4A9
102
}
330
4A9
100
AcDbXrecord
102
SHADEPLOT
 70
     0
102
SHADEPLOTRESLEVEL
 70
     2
102
SHADEPLOTCUSTOMDPI
 70
   300
  0
ENDSEC
  0
EOF
