  0
SECTION
  2
HEADER
  9
$ACADVER
  1
AC1015
  9
$ACADMAINTVER
 70
     6
  9
$DWGCODEPAGE
  3
ANSI_1252
  9
$INSBASE
 10
0.0
 20
0.0
 30
0.0
  9
$EXTMIN
 10
-13.9066288275429
 20
-0.0258883476483237
 30
0.0
  9
$EXTMAX
 10
13.9066288275429
 20
18.1960749707015
 30
0.0
  9
$LIMMIN
 10
0.0
 20
0.0
  9
$LIMMAX
 10
42.0
 20
32.0
  9
$ORTHOMODE
 70
     1
  9
$REGENMODE
 70
     1
  9
$FILLMODE
 70
     1
  9
$QTEXTMODE
 70
     0
  9
$MIRRTEXT
 70
     1
  9
$LTSCALE
 40
1.0
  9
$ATTMODE
 70
     1
  9
$TEXTSIZE
 40
0.36
  9
$TRACEWID
 40
0.05
  9
$TEXTSTYLE
  7
STANDARD
  9
$CLAYER
  8
0
  9
$CELTYPE
  6
BYLAYER
  9
$CECOLOR
 62
   256
  9
$CELTSCALE
 40
1.0
  9
$DISPSILH
 70
     0
  9
$DIMSCALE
 40
4.0
  9
$DIMASZ
 40
0.125
  9
$DIMEXO
 40
0.062
  9
$DIMDLI
 40
0.375
  9
$DIMRND
 40
0.0
  9
$DIMDLE
 40
0.0
  9
$DIMEXE
 40
0.08
  9
$DIMTP
 40
0.0
  9
$DIMTM
 40
0.0
  9
$DIMTXT
 40
0.09
  9
$DIMCEN
 40
-0.03125
  9
$DIMTSZ
 40
0.0
  9
$DIMTOL
 70
     0
  9
$DIMLIM
 70
     0
  9
$DIMTIH
 70
     1
  9
$DIMTOH
 70
     1
  9
$DIMSE1
 70
     0
  9
$DIMSE2
 70
     0
  9
$DIMTAD
 70
     0
  9
$DIMZIN
 70
     0
  9
$DIMBLK
  1

  9
$DIMASO
 70
     0
  9
$DIMSHO
 70
     0
  9
$DIMPOST
  1

  9
$DIMAPOST
  1

  9
$DIMALT
 70
     0
  9
$DIMALTD
 70
     2
  9
$DIMALTF
 40
25.4
  9
$DIMLFAC
 40
1.0
  9
$DIMTOFL
 70
     0
  9
$DIMTVP
 40
0.0
  9
$DIMTIX
 70
     0
  9
$DIMSOXD
 70
     0
  9
$DIMSAH
 70
     0
  9
$DIMBLK1
  1

  9
$DIMBLK2
  1

  9
$DIMSTYLE
  2
STANDARD
  9
$DIMCLRD
 70
     0
  9
$DIMCLRE
 70
     0
  9
$DIMCLRT
 70
     0
  9
$DIMTFAC
 40
1.0
  9
$DIMGAP
 40
0.09
  9
$DIMJUST
 70
     0
  9
$DIMSD1
 70
     0
  9
$DIMSD2
 70
     0
  9
$DIMTOLJ
 70
     1
  9
$DIMTZIN
 70
     0
  9
$DIMALTZ
 70
     0
  9
$DIMALTTZ
 70
     0
  9
$DIMUPT
 70
     0
  9
$DIMDEC
 70
     5
  9
$DIMTDEC
 70
     4
  9
$DIMALTU
 70
     2
  9
$DIMALTTD
 70
     2
  9
$DIMTXSTY
  7
STANDARD
  9
$DIMAUNIT
 70
     0
  9
$DIMADEC
 70
     0
  9
$DIMALTRND
 40
0.0
  9
$DIMAZIN
 70
     0
  9
$DIMDSEP
 70
    46
  9
$DIMATFIT
 70
     3
  9
$DIMFRAC
 70
     2
  9
$DIMLDRBLK
  1

  9
$DIMLUNIT
 70
     5
  9
$DIMLWD
 70
    -2
  9
$DIMLWE
 70
    -2
  9
$DIMTMOVE
 70
     2
  9
$LUNITS
 70
     2
  9
$LUPREC
 70
     4
  9
$SKETCHINC
 40
0.1
  9
$FILLETRAD
 40
0.0
  9
$AUNITS
 70
     0
  9
$AUPREC
 70
     0
  9
$MENU
  1
G:\ACADSST\QA
  9
$ELEVATION
 40
0.0
  9
$PELEVATION
 40
0.0
  9
$THICKNESS
 40
0.0
  9
$LIMCHECK
 70
     0
  9
$CHAMFERA
 40
0.0
  9
$CHAMFERB
 40
0.0
  9
$CHAMFERC
 40
0.0
  9
$CHAMFERD
 40
0.0
  9
$SKPOLY
 70
     0
  9
$TDCREATE
 40
2447378.869211574
  9
$TDUCREATE
 40
2447379.202544908
  9
$TDUPDATE
 40
2454165.989310949
  9
$TDUUPDATE
 40
2454166.322644283
  9
$TDINDWG
 40
0.1861870139
  9
$TDUSRTIMER
 40
0.1861870139
  9
$USRTIMER
 70
     1
  9
$ANGBASE
 50
0.0
  9
$ANGDIR
 70
     0
  9
$PDMODE
 70
     0
  9
$PDSIZE
 40
0.0
  9
$PLINEWID
 40
0.0
  9
$SPLFRAME
 70
     0
  9
$SPLINETYPE
 70
     6
  9
$SPLINESEGS
 70
     8
  9
$HANDSEED
  5
4AB
  9
$SURFTAB1
 70
     6
  9
$SURFTAB2
 70
     6
  9
$SURFTYPE
 70
     6
  9
$SURFU
 70
     6
  9
$SURFV
 70
     6
  9
$UCSBASE
  2

  9
$UCSNAME
  2

  9
$UCSORG
 10
0.0
 20
0.0
 30
0.0
  9
$UCSXDIR
 10
1.0
 20
0.0
 30
0.0
  9
$UCSYDIR
 10
0.0
 20
1.0
 30
0.0
  9
$UCSORTHOREF
  2

  9
$UCSORTHOVIEW
 70
     0
  9
$UCSORGTOP
 10
0.0
 20
0.0
 30
0.0
  9
$UCSORGBOTTOM
 10
0.0
 20
0.0
 30
0.0
  9
$UCSORGLEFT
 10
0.0
 20
0.0
 30
0.0
  9
$UCSORGRIGHT
 10
0.0
 20
0.0
 30
0.0
  9
$UCSORGFRONT
 10
0.0
 20
0.0
 30
0.0
  9
$UCSORGBACK
 10
0.0
 20
0.0
 30
0.0
  9
$PUCSBASE
  2

  9
$PUCSNAME
  2

  9
$PUCSORG
 10
0.0
 20
0.0
 30
0.0
  9
$PUCSXDIR
 10
1.0
 20
0.0
 30
0.0
  9
$PUCSYDIR
 10
0.0
 20
1.0
 30
0.0
  9
$PUCSORTHOREF
  2

  9
$PUCSORTHOVIEW
 70
     0
  9
$PUCSORGTOP
 10
0.0
 20
0.0
 30
0.0
  9
$PUCSORGBOTTOM
 10
0.0
 20
0.0
 30
0.0
  9
$PUCSORGLEFT
 10
0.0
 20
0.0
 30
0.0
  9
$PUCSORGRIGHT
 10
0.0
 20
0.0
 30
0.0
  9
$PUCSORGFRONT
 10
0.0
 20
0.0
 30
0.0
  9
$PUCSORGBACK
 10
0.0
 20
0.0
 30
0.0
  9
$USERI1
 70
     0
  9
$USERI2
 70
     0
  9
$USERI3
 70
     0
  9
$USERI4
 70
     0
  9
$USERI5
 70
     0
  9
$USERR1
 40
0.0
  9
$USERR2
 40
0.0
  9
$USERR3
 40
0.0
  9
$USERR4
 40
0.0
  9
$USERR5
 40
0.0
  9
$WORLDVIEW
 70
     1
  9
$SHADEDGE
 70
     3
  9
$SHADEDIF
 70
    70
  9
$TILEMODE
 70
     1
  9
$MAXACTVP
 70
    16
  9
$PINSBASE
 10
0.0
 20
0.0
 30
0.0
  9
$PLIMCHECK
 70
     0
  9
$PEXTMIN
 10
1.000000000000000E+20
 20
1.000000000000000E+20
 30
1.000000000000000E+20
  9
$PEXTMAX
 10
-1.000000000000000E+20
 20
-1.000000000000000E+20
 30
-1.000000000000000E+20
  9
$PLIMMIN
 10
0.0
 20
0.0
  9
$PLIMMAX
 10
12.0
 20
9.0
  9
$UNITMODE
 70
     0
  9
$VISRETAIN
 70
     0
  9
$PLINEGEN
 70
     1
  9
$PSLTSCALE
 70
     0
  9
$TREEDEPTH
 70
  3020
  9
$CMLSTYLE
  2
STANDARD
  9
$CMLJUST
 70
     0
  9
$CMLSCALE
 40
1.0
  9
$PROXYGRAPHICS
 70
     1
  9
$MEASUREMENT
 70
     0
  9
$CELWEIGHT
370
    -1
  9
$ENDCAPS
280
     0
  9
$JOINSTYLE
280
     0
  9
$LWDISPLAY
290
     0
  9
$INSUNITS
 70
     0
  9
$HYPERLINKBASE
  1

  9
$STYLESHEET
  1

  9
$XEDIT
290
     1
  9
$CEPSNTYPE
380
     0
  9
$PSTYLEMODE
290
     1
  9
$FINGERPRINTGUID
  2
{5F49145D-BE07-41FE-AA11-9F73F442A493}
  9
$VERSIONGUID
  2
{7003CC5E-4973-4222-A0B1-A6EC5892F7BC}
  9
$EXTNAMES
290
     1
  9
$PSVPSCALE
 40
0.0
  9
$OLESTARTUP
290
     0
  0
ENDSEC
  0
SECTION
  2
CLASSES
  0
CLASS
  1
DICTIONARYVAR
  2
AcDbDictionaryVar
  3
AutoCAD 2000
 90
        0
280
     0
281
     0
  0
CLASS
  1
LWPOLYLINE
  2
AcDbPolyline
  3
AutoCAD 2000
 90
        0
280
     0
281
     1
  0
CLASS
  1
ACDBDICTIONARYWDFLT
  2
AcDbDictionaryWithDefault
  3
AutoCAD 2000
 90
        0
280
     0
281
     0
  0
CLASS
  1
ACDBPLACEHOLDER
  2
AcDbPlaceHolder
  3
ObjectDBX Classes
 90
        0
280
     0
281
     0
  0
CLASS
  1
LAYOUT
  2
AcDbLayout
  3
ObjectDBX Classes
 90
        0
280
     0
281
     0
  0
CLASS
  1
LONG_TRANSACTION
  2
AcDbLongTransaction
  3
ObjectDBX Classes
 90
   -65536
280
     1
281
     0
  0
CLASS
  1
LWPOLYLINE
  2
AcDbPolyline
  3
AutoCAD 2000
 90
        0
280
     0
281
     1
  0
CLASS
  1
HATCH
  2
AcDbHatch
  3
AutoCAD 2000
 90
        0
280
     0
281
     1
  0
CLASS
  1
XRECORD
  2
AcDbXrecord
  3
AutoCAD 2000
 90
        0
280
     0
281
     0
  0
CLASS
  1
LONG_TRANSACTION
  2
AcDbLongTransaction
  3
ObjectDBX Classes
 90
   -65536
280
     1
281
     0
  0
CLASS
  1
LWPOLYLINE
  2
AcDbPolyline
  3
AutoCAD 2000
 90
        0
280
     0
281
     1
  0
CLASS
  1
HATCH
  2
AcDbHatch
  3
AutoCAD 2000
 90
        0
280
     0
281
     1
  0
CLASS
  1
XRECORD
  2
AcDbXrecord
  3
AutoCAD 2000
 90
        0
280
     0
281
     0
  0
CLASS
  1
TABLESTYLE
  2
AcDbTableStyle
  3
ObjectDBX Classes
 90
     2047
280
     1
281
     0
  0
ENDSEC
  0
SECTION
  2
TABLES
  0
TABLE
  2
VPORT
  5
1D
330
0
100
AcDbSymbolTable
 70
     3
  0
VPORT
  5
49D
330
1D
100
AcDbSymbolTableRecord
100
AcDbViewportTableRecord
  2
*Active
 70
     0
 10
0.0
 20
0.0
 11
1.0
 21
1.0
 12
8.100229775090007
 22
11.59519222204895
 13
0.0
 23
0.0
 14
0.03125
 24
0.03125
 15
0.03125
 25
0.03125
 16
0.0
 26
0.0
 36
1.0
 17
0.0
 27
0.0
 37
0.0
 40
32.42685251866381
 41
1.814583333333333
 42
50.0
 43
0.0
 44
0.0
 50
0.0
 51
0.0
 71
     0
 72
   100
 73
     1
 74
     0
 75
     0
 76
     0
 77
     0
 78
     0
281
     0
 65
     1
110
0.0
120
0.0
130
0.0
111
1.0
121
0.0
131
0.0
112
0.0
122
1.0
132
0.0
 79
     0
146
0.0
  0
ENDTAB
  0
TABLE
  2
LTYPE
  5
18
330
0
100
AcDbSymbolTable
 70
     2
  0
LTYPE
  5
19
330
18
100
AcDbSymbolTableRecord
100
AcDbLinetypeTableRecord
  2
BYBLOCK
 70
     0
  3

 72
    65
 73
     0
 40
0.0
  0
LTYPE
  5
1A
330
18
100
AcDbSymbolTableRecord
100
AcDbLinetypeTableRecord
  2
BYLAYER
 70
     0
  3

 72
    65
 73
     0
 40
0.0
  0
LTYPE
  5
A
330
18
100
AcDbSymbolTableRecord
100
AcDbLinetypeTableRecord
  2
CONTINUOUS
 70
     0
  3
Solid line
 72
    65
 73
     0
 40
0.0
  0
LTYPE
  5
48A
330
18
100
AcDbSymbolTableRecord
100
AcDbLinetypeTableRecord
  2
HIDDEN
 70
     0
  3
Hidden __ __ __ __ __ __ __ __ __ __ __ __ __ _
 72
    65
 73
     2
 40
0.375
 49
0.25
 74
     0
 49
-0.125
 74
     0
  0
ENDTAB
  0
TABLE
  2
LAYER
  5
14
330
0
100
AcDbSymbolTable
 70
     1
  0
LAYER
  5
6
330
14
100
AcDbSymbolTableRecord
100
AcDbLayerTableRecord
  2
0
 70
     0
 62
     7
  6
CONTINUOUS
370
    -3
390
7
  0
ENDTAB
  0
TABLE
  2
STYLE
  5
15
330
0
100
AcDbSymbolTable
 70
     2
  0
STYLE
  5
16
330
15
100
AcDbSymbolTableRecord
100
AcDbTextStyleTableRecord
  2
STANDARD
 70
     0
 40
0.0
 41
1.0
 50
0.0
 71
     0
 42
0.36
  3
TXT
  4

  0
STYLE
  5
489
330
15
100
AcDbSymbolTableRecord
100
AcDbTextStyleTableRecord
  2

 70
     1
 40
0.0
 41
1.0
 50
0.0
 71
     0
 42
0.36
  3
ltypeshp.shx
  4

  0
ENDTAB
  0
TABLE
  2
VIEW
  5
1B
330
0
100
AcDbSymbolTable
 70
     0
  0
ENDTAB
  0
TABLE
  2
UCS
  5
1C
330
0
100
AcDbSymbolTable
 70
     0
  0
ENDTAB
  0
TABLE
  2
APPID
  5
1F
330
0
100
AcDbSymbolTable
 70
     1
  0
APPID
  5
20
330
1F
100
AcDbSymbolTableRecord
100
AcDbRegAppTableRecord
  2
ACAD
 70
     0
  0
ENDTAB
  0
TABLE
  2
DIMSTYLE
  5
21
330
0
100
AcDbSymbolTable
 70
     1
100
AcDbDimStyleTable
  0
DIMSTYLE
105
28
330
21
100
AcDbSymbolTableRecord
100
AcDbDimStyleTableRecord
  2
STANDARD
 70
     0
  3

  4

340
16
  0
ENDTAB
  0
TABLE
  2
BLOCK_RECORD
  5
1
330
0
100
AcDbSymbolTable
 70
     0
  0
BLOCK_RECORD
  5
2
330
1
100
AcDbSymbolTableRecord
100
AcDbBlockTableRecord
  2
*MODEL_SPACE
340
C
  0
BLOCK_RECORD
  5
E
330
1
100
AcDbSymbolTableRecord
100
AcDbBlockTableRecord
  2
*PAPER_SPACE
340
13
  0
ENDTAB
  0
ENDSEC
  0
SECTION
  2
BLOCKS
  0
BLOCK
  5
5
330
2
100
AcDbEntity
  8
0
100
AcDbBlockBegin
  2
*MODEL_SPACE
 70
     0
 10
0.0
 20
0.0
 30
0.0
  3
*MODEL_SPACE
  1

  4

  0
ENDBLK
  5
B
330
2
100
AcDbEntity
  8
0
100
AcDbBlockEnd
  0
BLOCK
  5
11
330
E
100
AcDbEntity
 67
     1
  8
0
100
AcDbBlockBegin
  2
*PAPER_SPACE
 70
     0
 10
0.0
 20
0.0
 30
0.0
  3
*PAPER_SPACE
  1

  4

  0
ENDBLK
  5
12
330
E
100
AcDbEntity
 67
     1
  8
0
100
AcDbBlockEnd
  0
ENDSEC
  0
SECTION
  2
ENTITIES
  0
LINE
  5
1DD
330
2
100
AcDbEntity
  8
0
100
AcDbLine
 10
-2.693074926912587
 20
9.074469732454423
 30
0.0
 11
-3.755574926912587
 21
9.074469732454423
 31
0.0
  0
LINE
  5
1DE
330
2
100
AcDbEntity
  8
0
100
AcDbLine
 10
-2.693074926912587
 20
0.2707357309112322
 30
0.0
 11
-2.755574926912587
 21
0.2707357309112322
 31
0.0
  0
ARC
  5
1DF
330
2
100
AcDbEntity
  8
0
100
AcDbCircle
 10
-3.911824926912594
 20
8.511969732454423
 30
0.0
 40
0.15625
100
AcDbArc
 50
270.0000000000001
 51
0.0
  0
LINE
  5
1E0
330
2
100
AcDbEntity
  8
0
100
AcDbLine
 10
-2.755574926912587
 20
9.074469732454423
 30
0.0
 11
-2.755574926912544
 21
0.2707357309112322
 31
0.0
  0
LINE
  5
1E1
330
2
100
AcDbEntity
  8
0
100
AcDbLine
 10
-4.068074926912594
 20
2.326807614001877
 30
0.0
 11
-4.068074926912587
 21
4.199469732454423
 31
0.0
  0
LINE
  5
1E2
330
2
100
AcDbEntity
  8
0
100
AcDbLine
 10
-4.373480413213024
 20
1.607406153384465
 30
0.0
 11
-5.727872183762372
 21
0.299717547336817
 31
0.0
  0
LINE
  5
1E3
330
2
100
AcDbEntity
  8
0
  6
HIDDEN
100
AcDbLine
 10
-5.833294240724371
 20
0.1522554160193703
 30
0.0
 11
-2.833294240724399
 21
0.1522554160193703
 31
0.0
  0
LINE
  5
1E4
330
2
100
AcDbEntity
  8
0
100
AcDbLine
 10
-5.833294240724371
 20
0.0897554160193703
 30
0.0
 11
-2.833294240724399
 21
0.0897554160193703
 31
0.0
  0
ARC
  5
1E5
330
2
100
AcDbEntity
  8
0
100
AcDbCircle
 10
-5.380574926912594
 20
-0.0599831829718855
 30
0.0
 40
0.5
100
AcDbArc
 50
133.9949139947459
 51
154.882423762177
  0
LINE
  5
1E6
330
2
100
AcDbEntity
  8
0
100
AcDbLine
 10
-5.833294240724371
 20
0.1522554160193703
 30
0.0
 11
-5.833294240724371
 21
0.0897554160193703
 31
0.0
  0
ARC
  5
1E7
330
2
100
AcDbEntity
  8
0
100
AcDbCircle
 10
-2.380574926912594
 20
-0.0599831829718855
 30
0.0
 40
0.5
100
AcDbArc
 50
138.5903778907218
 51
154.8824237621768
  0
LINE
  5
1E8
330
2
100
AcDbEntity
  8
0
100
AcDbLine
 10
-2.833294240724399
 20
0.1522554160193703
 30
0.0
 11
-2.833294240724399
 21
0.0897554160193703
 31
0.0
  0
ARC
  5
1EA
330
2
100
AcDbEntity
  8
0
100
AcDbCircle
 10
-5.068074926912594
 20
2.326807614001877
 30
0.0
 40
1.0
100
AcDbArc
 50
313.9949139947459
 51
0.0
  0
ARC
  5
1EB
330
2
100
AcDbEntity
  8
0
100
AcDbCircle
 10
-2.755574926912594
 20
2.02725541601937
 30
0.0
 40
0.1875000000000025
100
AcDbArc
 50
90.0
 51
270.0
  0
LINE
  5
1EE
330
2
100
AcDbEntity
  8
0
100
AcDbLine
 10
-4.068074926912587
 20
5.824469732454423
 30
0.0
 11
-4.068074926912587
 21
6.324469732454423
 31
0.0
  0
LINE
  5
1EF
330
2
100
AcDbEntity
  8
0
100
AcDbLine
 10
-3.755574926912587
 20
4.511969732454423
 30
0.0
 11
-3.755574926912587
 21
5.511969732454423
 31
0.0
  0
ARC
  5
1F0
330
2
100
AcDbEntity
  8
0
100
AcDbCircle
 10
-3.911824926912594
 20
4.511969732454423
 30
0.0
 40
0.15625
100
AcDbArc
 50
270.0000000000001
 51
0.0
  0
LINE
  5
1F1
330
2
100
AcDbEntity
  8
0
100
AcDbLine
 10
-3.911824926912587
 20
4.355719732454423
 30
0.0
 11
-3.911824926912587
 21
4.355719732454423
 31
0.0
  0
ARC
  5
1F2
330
2
100
AcDbEntity
  8
0
100
AcDbCircle
 10
-3.911824926912594
 20
4.199469732454423
 30
0.0
 40
0.15625
100
AcDbArc
 50
90.0
 51
180.0
  0
ARC
  5
1F4
330
2
100
AcDbEntity
  8
0
100
AcDbCircle
 10
-3.911824926912594
 20
5.511969732454423
 30
0.0
 40
0.15625
100
AcDbArc
 50
0.0
 51
90.0
  0
LINE
  5
1F5
330
2
100
AcDbEntity
  8
0
100
AcDbLine
 10
-3.911824926912587
 20
5.668219732454423
 30
0.0
 11
-3.911824926912587
 21
5.668219732454423
 31
0.0
  0
ARC
  5
1F6
330
2
100
AcDbEntity
  8
0
100
AcDbCircle
 10
-3.911824926912594
 20
5.824469732454423
 30
0.0
 40
0.15625
100
AcDbArc
 50
180.0000000000001
 51
270.0
  0
LINE
  5
1F7
330
2
100
AcDbEntity
  8
0
100
AcDbLine
 10
-3.755574926912587
 20
6.636969732454423
 30
0.0
 11
-3.755574926912587
 21
7.261969732454423
 31
0.0
  0
ARC
  5
1F8
330
2
100
AcDbEntity
  8
0
100
AcDbCircle
 10
-3.911824926912594
 20
6.636969732454423
 30
0.0
 40
0.15625
100
AcDbArc
 50
270.0000000000001
 51
0.0
  0
LINE
  5
1F9
330
2
100
AcDbEntity
  8
0
100
AcDbLine
 10
-3.911824926912587
 20
6.480719732454423
 30
0.0
 11
-3.911824926912587
 21
6.480719732454423
 31
0.0
  0
ARC
  5
1FA
330
2
100
AcDbEntity
  8
0
100
AcDbCircle
 10
-3.911824926912594
 20
6.324469732454423
 30
0.0
 40
0.15625
100
AcDbArc
 50
90.0
 51
180.0
  0
ARC
  5
1FB
330
2
100
AcDbEntity
  8
0
100
AcDbCircle
 10
-3.911824926912594
 20
7.261969732454423
 30
0.0
 40
0.15625
100
AcDbArc
 50
0.0
 51
90.0
  0
LINE
  5
1FC
330
2
100
AcDbEntity
  8
0
100
AcDbLine
 10
-4.068074926912587
 20
7.574469732454423
 30
0.0
 11
-4.068074926912587
 21
8.199469732454423
 31
0.0
  0
LINE
  5
1FD
330
2
100
AcDbEntity
  8
0
100
AcDbLine
 10
-3.911824926912587
 20
7.418219732454423
 30
0.0
 11
-3.911824926912587
 21
7.418219732454423
 31
0.0
  0
ARC
  5
1FE
330
2
100
AcDbEntity
  8
0
100
AcDbCircle
 10
-3.911824926912594
 20
7.574469732454423
 30
0.0
 40
0.15625
100
AcDbArc
 50
180.0000000000001
 51
270.0
  0
LINE
  5
1FF
330
2
100
AcDbEntity
  8
0
100
AcDbLine
 10
-3.911824926912587
 20
8.355719732454423
 30
0.0
 11
-3.911824926912587
 21
8.355719732454423
 31
0.0
  0
ARC
  5
200
330
2
100
AcDbEntity
  8
0
100
AcDbCircle
 10
-3.911824926912594
 20
8.199469732454423
 30
0.0
 40
0.15625
100
AcDbArc
 50
90.0
 51
180.0
  0
LINE
  5
202
330
2
100
AcDbEntity
  8
0
100
AcDbLine
 10
-3.755574926912587
 20
8.511969732454423
 30
0.0
 11
-3.755574926912587
 21
9.074469732454423
 31
0.0
  0
LINE
  5
203
330
2
100
AcDbEntity
  8
0
100
AcDbLine
 10
-2.693074926912594
 20
9.074469732454423
 30
0.0
 11
-2.693074926912587
 21
0.2707357309112322
 31
0.0
  0
LINE
  5
2A4
330
2
100
AcDbEntity
  8
0
100
AcDbLine
 10
-3.790772595845667
 20
0.4582512876219287
 30
0.0
 11
-3.790772595845667
 21
0.7349262876219331
 31
0.0
  0
LINE
  5
2A8
330
2
100
AcDbEntity
  8
0
100
AcDbLine
 10
-3.790772595845667
 20
2.07690708981408
 30
0.0
 11
-3.790772595845667
 21
2.353582089814085
 31
0.0
  0
LINE
  5
2AC
330
2
100
AcDbEntity
  8
0
100
AcDbLine
 10
-3.790772595845667
 20
5.776267537184163
 30
0.0
 11
-3.790772595845667
 21
6.052942537184167
 31
0.0
  0
LINE
  5
2B0
330
2
100
AcDbEntity
  8
0
100
AcDbLine
 10
-3.790772595845667
 20
3.339753675871629
 30
0.0
 11
-3.790772595845667
 21
3.616428675871633
 31
0.0
  0
LINE
  5
2B4
330
2
100
AcDbEntity
  8
0
100
AcDbLine
 10
-3.790772595845667
 20
7.646208211615539
 30
0.0
 11
-3.790772595845667
 21
7.922883211615543
 31
0.0
  0
ARC
  5
2B8
330
2
100
AcDbEntity
  8
0
100
AcDbCircle
 10
-3.790772595845681
 20
0.7447495878590953
 30
0.0
 40
0.2864983002371666
100
AcDbArc
 50
270.0000000000028
 51
286.0310365777447
  0
ARC
  5
2B9
330
2
100
AcDbEntity
  8
0
100
AcDbCircle
 10
-3.769830611759119
 20
0.6718652399219973
 30
0.0
 40
0.2106649640867779
100
AcDbArc
 50
286.0310365777373
 51
304.7482755454288
  0
ARC
  5
2BA
330
2
100
AcDbEntity
  8
0
100
AcDbCircle
 10
-3.737834354989445
 20
0.6257398622179462
 30
0.0
 40
0.1545284259354786
100
AcDbArc
 50
304.7482755454359
 51
329.15752901129
  0
ARC
  5
2BB
330
2
100
AcDbEntity
  8
0
100
AcDbCircle
 10
-3.689015286099654
 20
0.5965887876219345
 30
0.0
 40
0.0976681881821232
100
AcDbArc
 50
329.1575290112829
 51
359.9999999999959
  0
ARC
  5
2BC
330
2
100
AcDbEntity
  8
0
100
AcDbCircle
 10
-3.689015286099668
 20
0.5965887876219238
 30
0.0
 40
0.0976681881821371
100
AcDbArc
 50
0.0000000000020842
 51
30.84247098871468
  0
ARC
  5
2BD
330
2
100
AcDbEntity
  8
0
100
AcDbCircle
 10
-3.737834354989424
 20
0.5674377130259121
 30
0.0
 40
0.1545284259354653
100
AcDbArc
 50
30.84247098871452
 51
55.25172445456879
  0
ARC
  5
2BE
330
2
100
AcDbEntity
  8
0
100
AcDbCircle
 10
-3.76983061175914
 20
0.5213123353218609
 30
0.0
 40
0.2106649640867889
100
AcDbArc
 50
55.25172445456511
 51
73.96896342225647
  0
ARC
  5
2BF
330
2
100
AcDbEntity
  8
0
100
AcDbCircle
 10
-3.790772595845681
 20
0.4484279873847701
 30
0.0
 40
0.2864983002371627
100
AcDbArc
 50
73.96896342225512
 51
89.99999999999716
  0
ARC
  5
2C0
330
2
100
AcDbEntity
  8
0
100
AcDbCircle
 10
-3.790772595845667
 20
0.5343850606886651
 30
0.0
 40
0.0468087730667364
100
AcDbArc
 50
270.0000000000044
 51
302.607921015198
  0
ARC
  5
2C1
330
2
100
AcDbEntity
  8
0
100
AcDbCircle
 10
-3.809815100137449
 20
0.5641519274327482
 30
0.0
 40
0.0821454866301448
100
AcDbArc
 50
302.607921015195
 51
327.0773280975502
  0
ARC
  5
2C2
330
2
100
AcDbEntity
  8
0
100
AcDbCircle
 10
-3.840073011450492
 20
0.5837436364290181
 30
0.0
 40
0.1181923486076141
100
AcDbArc
 50
327.0773280975463
 51
344.9866289979987
  0
ARC
  5
2C3
330
2
100
AcDbEntity
  8
0
100
AcDbCircle
 10
-3.887967057783833
 20
0.5965887876219274
 30
0.0
 40
0.1677790160026763
100
AcDbArc
 50
344.9866289980054
 51
0.0000000000024265
  0
ARC
  5
2C4
330
2
100
AcDbEntity
  8
0
100
AcDbCircle
 10
-3.887967057783797
 20
0.5965887876219416
 30
0.0
 40
0.167779016002644
100
AcDbArc
 50
359.9999999999976
 51
15.0133710019951
  0
ARC
  5
2C5
330
2
100
AcDbEntity
  8
0
100
AcDbCircle
 10
-3.840073011450492
 20
0.6094339388148473
 30
0.0
 40
0.11819234860761
100
AcDbArc
 50
15.0133710020001
 51
32.92267190245313
  0
ARC
  5
2C6
330
2
100
AcDbEntity
  8
0
100
AcDbCircle
 10
-3.809815100137449
 20
0.6290256478111136
 30
0.0
 40
0.0821454866301446
100
AcDbArc
 50
32.92267190244989
 51
57.39207898480503
  0
ARC
  5
2C7
330
2
100
AcDbEntity
  8
0
100
AcDbCircle
 10
-3.790772595845667
 20
0.6587925145551967
 30
0.0
 40
0.0468087730667357
100
AcDbArc
 50
57.39207898480197
 51
89.99999999999565
  0
ARC
  5
2C8
330
2
100
AcDbEntity
  8
0
100
AcDbCircle
 10
-3.790772595845667
 20
0.5489545382450149
 30
0.0
 40
0.0320532506230862
100
AcDbArc
 50
270.0000000000064
 51
303.5108229556791
  0
ARC
  5
2C9
330
2
100
AcDbEntity
  8
0
100
AcDbCircle
 10
-3.805847614409458
 20
0.5717210618596464
 30
0.0
 40
0.0593583926698537
100
AcDbArc
 50
303.5108229556726
 51
327.9718933333935
  0
ARC
  5
2CA
330
2
100
AcDbEntity
  8
0
100
AcDbCircle
 10
-3.829851039933139
 20
0.5867364444814474
 30
0.0
 40
0.0876713959042334
100
AcDbArc
 50
327.9718933333754
 51
345.4734521831862
  0
ARC
  5
2CB
330
2
100
AcDbEntity
  8
0
100
AcDbCircle
 10
-3.867874535109273
 20
0.596588787621906
 30
0.0
 40
0.126950586969819
100
AcDbArc
 50
345.4734521832155
 51
0.0000000000128274
  0
ARC
  5
2CC
330
2
100
AcDbEntity
  8
0
100
AcDbCircle
 10
-3.867874535109245
 20
0.5965887876219558
 30
0.0
 40
0.1269505869697944
100
AcDbArc
 50
359.9999999999904
 51
14.52654781678728
  0
ARC
  5
2CD
330
2
100
AcDbEntity
  8
0
100
AcDbCircle
 10
-3.829851039933132
 20
0.606441130762418
 30
0.0
 40
0.0876713959042287
100
AcDbArc
 50
14.5265478168122
 51
32.02810666662388
  0
ARC
  5
2CE
330
2
100
AcDbEntity
  8
0
100
AcDbCircle
 10
-3.805847614409458
 20
0.6214565133842154
 30
0.0
 40
0.0593583926698542
100
AcDbArc
 50
32.0281066666065
 51
56.48917704432745
  0
ARC
  5
2CF
330
2
100
AcDbEntity
  8
0
100
AcDbCircle
 10
-3.790772595845667
 20
0.6442230369988433
 30
0.0
 40
0.0320532506230895
100
AcDbArc
 50
56.48917704432444
 51
89.99999999999365
  0
ARC
  5
2D0
330
2
100
AcDbEntity
  8
0
100
AcDbCircle
 10
-3.790772595845681
 20
2.363405390051247
 30
0.0
 40
0.2864983002371666
100
AcDbArc
 50
270.0000000000028
 51
286.0310365777447
  0
ARC
  5
2D1
330
2
100
AcDbEntity
  8
0
100
AcDbCircle
 10
-3.769830611759119
 20
2.290521042114149
 30
0.0
 40
0.2106649640867779
100
AcDbArc
 50
286.0310365777373
 51
304.7482755454288
  0
ARC
  5
2D2
330
2
100
AcDbEntity
  8
0
100
AcDbCircle
 10
-3.737834354989445
 20
2.244395664410098
 30
0.0
 40
0.1545284259354786
100
AcDbArc
 50
304.7482755454359
 51
329.15752901129
  0
ARC
  5
2D3
330
2
100
AcDbEntity
  8
0
100
AcDbCircle
 10
-3.689015286099654
 20
2.215244589814086
 30
0.0
 40
0.0976681881821232
100
AcDbArc
 50
329.1575290112829
 51
359.9999999999959
  0
ARC
  5
2D4
330
2
100
AcDbEntity
  8
0
100
AcDbCircle
 10
-3.689015286099668
 20
2.215244589814075
 30
0.0
 40
0.0976681881821371
100
AcDbArc
 50
0.0000000000020842
 51
30.84247098871468
  0
ARC
  5
2D5
330
2
100
AcDbEntity
  8
0
100
AcDbCircle
 10
-3.737834354989424
 20
2.186093515218063
 30
0.0
 40
0.1545284259354653
100
AcDbArc
 50
30.84247098871452
 51
55.25172445456879
  0
ARC
  5
2D6
330
2
100
AcDbEntity
  8
0
100
AcDbCircle
 10
-3.76983061175914
 20
2.139968137514012
 30
0.0
 40
0.2106649640867889
100
AcDbArc
 50
55.25172445456511
 51
73.96896342225647
  0
ARC
  5
2D7
330
2
100
AcDbEntity
  8
0
100
AcDbCircle
 10
-3.790772595845681
 20
2.067083789576921
 30
0.0
 40
0.2864983002371627
100
AcDbArc
 50
73.96896342225512
 51
89.99999999999716
  0
ARC
  5
2D8
330
2
100
AcDbEntity
  8
0
100
AcDbCircle
 10
-3.790772595845667
 20
2.153040862880816
 30
0.0
 40
0.0468087730667364
100
AcDbArc
 50
270.0000000000044
 51
302.607921015198
  0
ARC
  5
2D9
330
2
100
AcDbEntity
  8
0
100
AcDbCircle
 10
-3.809815100137449
 20
2.1828077296249
 30
0.0
 40
0.0821454866301448
100
AcDbArc
 50
302.607921015195
 51
327.0773280975502
  0
ARC
  5
2DA
330
2
100
AcDbEntity
  8
0
100
AcDbCircle
 10
-3.840073011450492
 20
2.202399438621169
 30
0.0
 40
0.1181923486076141
100
AcDbArc
 50
327.0773280975463
 51
344.9866289979987
  0
ARC
  5
2DB
330
2
100
AcDbEntity
  8
0
100
AcDbCircle
 10
-3.887967057783833
 20
2.215244589814079
 30
0.0
 40
0.1677790160026763
100
AcDbArc
 50
344.9866289980054
 51
0.0000000000024265
  0
ARC
  5
2DC
330
2
100
AcDbEntity
  8
0
100
AcDbCircle
 10
-3.887967057783797
 20
2.215244589814093
 30
0.0
 40
0.167779016002644
100
AcDbArc
 50
359.9999999999976
 51
15.0133710019951
  0
ARC
  5
2DD
330
2
100
AcDbEntity
  8
0
100
AcDbCircle
 10
-3.840073011450492
 20
2.228089741006999
 30
0.0
 40
0.11819234860761
100
AcDbArc
 50
15.0133710020001
 51
32.92267190245313
  0
ARC
  5
2DE
330
2
100
AcDbEntity
  8
0
100
AcDbCircle
 10
-3.809815100137449
 20
2.247681450003265
 30
0.0
 40
0.0821454866301446
100
AcDbArc
 50
32.92267190244989
 51
57.39207898480503
  0
ARC
  5
2DF
330
2
100
AcDbEntity
  8
0
100
AcDbCircle
 10
-3.790772595845667
 20
2.277448316747348
 30
0.0
 40
0.0468087730667357
100
AcDbArc
 50
57.39207898480197
 51
89.99999999999565
  0
ARC
  5
2E0
330
2
100
AcDbEntity
  8
0
100
AcDbCircle
 10
-3.790772595845667
 20
2.167610340437166
 30
0.0
 40
0.0320532506230862
100
AcDbArc
 50
270.0000000000064
 51
303.5108229556791
  0
ARC
  5
2E1
330
2
100
AcDbEntity
  8
0
100
AcDbCircle
 10
-3.805847614409458
 20
2.190376864051798
 30
0.0
 40
0.0593583926698537
100
AcDbArc
 50
303.5108229556726
 51
327.9718933333935
  0
ARC
  5
2E2
330
2
100
AcDbEntity
  8
0
100
AcDbCircle
 10
-3.829851039933139
 20
2.205392246673599
 30
0.0
 40
0.0876713959042334
100
AcDbArc
 50
327.9718933333754
 51
345.4734521831862
  0
ARC
  5
2E3
330
2
100
AcDbEntity
  8
0
100
AcDbCircle
 10
-3.867874535109273
 20
2.215244589814057
 30
0.0
 40
0.126950586969819
100
AcDbArc
 50
345.4734521832155
 51
0.0000000000128274
  0
ARC
  5
2E4
330
2
100
AcDbEntity
  8
0
100
AcDbCircle
 10
-3.867874535109245
 20
2.215244589814107
 30
0.0
 40
0.1269505869697944
100
AcDbArc
 50
359.9999999999904
 51
14.52654781678728
  0
ARC
  5
2E5
330
2
100
AcDbEntity
  8
0
100
AcDbCircle
 10
-3.829851039933132
 20
2.225096932954569
 30
0.0
 40
0.0876713959042287
100
AcDbArc
 50
14.5265478168122
 51
32.02810666662388
  0
ARC
  5
2E6
330
2
100
AcDbEntity
  8
0
100
AcDbCircle
 10
-3.805847614409458
 20
2.240112315576367
 30
0.0
 40
0.0593583926698542
100
AcDbArc
 50
32.0281066666065
 51
56.48917704432745
  0
ARC
  5
2E7
330
2
100
AcDbEntity
  8
0
100
AcDbCircle
 10
-3.790772595845667
 20
2.262878839190995
 30
0.0
 40
0.0320532506230895
100
AcDbArc
 50
56.48917704432444
 51
89.99999999999365
  0
ARC
  5
2E8
330
2
100
AcDbEntity
  8
0
100
AcDbCircle
 10
-3.790772595845681
 20
6.062765837421329
 30
0.0
 40
0.2864983002371666
100
AcDbArc
 50
270.0000000000028
 51
286.0310365777447
  0
ARC
  5
2E9
330
2
100
AcDbEntity
  8
0
100
AcDbCircle
 10
-3.769830611759119
 20
5.989881489484231
 30
0.0
 40
0.2106649640867779
100
AcDbArc
 50
286.0310365777373
 51
304.7482755454288
  0
ARC
  5
2EA
330
2
100
AcDbEntity
  8
0
100
AcDbCircle
 10
-3.737834354989445
 20
5.94375611178018
 30
0.0
 40
0.1545284259354786
100
AcDbArc
 50
304.7482755454359
 51
329.15752901129
  0
ARC
  5
2EB
330
2
100
AcDbEntity
  8
0
100
AcDbCircle
 10
-3.689015286099654
 20
5.914605037184169
 30
0.0
 40
0.0976681881821232
100
AcDbArc
 50
329.1575290112829
 51
359.9999999999959
  0
ARC
  5
2EC
330
2
100
AcDbEntity
  8
0
100
AcDbCircle
 10
-3.689015286099668
 20
5.914605037184158
 30
0.0
 40
0.0976681881821371
100
AcDbArc
 50
0.0000000000020842
 51
30.84247098871468
  0
ARC
  5
2ED
330
2
100
AcDbEntity
  8
0
100
AcDbCircle
 10
-3.737834354989424
 20
5.885453962588146
 30
0.0
 40
0.1545284259354653
100
AcDbArc
 50
30.84247098871452
 51
55.25172445456879
  0
ARC
  5
2EE
330
2
100
AcDbEntity
  8
0
100
AcDbCircle
 10
-3.76983061175914
 20
5.839328584884095
 30
0.0
 40
0.2106649640867889
100
AcDbArc
 50
55.25172445456511
 51
73.96896342225647
  0
ARC
  5
2EF
330
2
100
AcDbEntity
  8
0
100
AcDbCircle
 10
-3.790772595845681
 20
5.766444236947004
 30
0.0
 40
0.2864983002371627
100
AcDbArc
 50
73.96896342225512
 51
89.99999999999716
  0
ARC
  5
2F0
330
2
100
AcDbEntity
  8
0
100
AcDbCircle
 10
-3.790772595845681
 20
3.626251976108796
 30
0.0
 40
0.2864983002371666
100
AcDbArc
 50
270.0000000000028
 51
286.0310365777447
  0
ARC
  5
2F1
330
2
100
AcDbEntity
  8
0
100
AcDbCircle
 10
-3.769830611759119
 20
3.553367628171698
 30
0.0
 40
0.2106649640867779
100
AcDbArc
 50
286.0310365777373
 51
304.7482755454288
  0
ARC
  5
2F2
330
2
100
AcDbEntity
  8
0
100
AcDbCircle
 10
-3.737834354989445
 20
3.507242250467646
 30
0.0
 40
0.1545284259354786
100
AcDbArc
 50
304.7482755454359
 51
329.15752901129
  0
ARC
  5
2F3
330
2
100
AcDbEntity
  8
0
100
AcDbCircle
 10
-3.689015286099654
 20
3.478091175871635
 30
0.0
 40
0.0976681881821232
100
AcDbArc
 50
329.1575290112829
 51
359.9999999999959
  0
ARC
  5
2F4
330
2
100
AcDbEntity
  8
0
100
AcDbCircle
 10
-3.689015286099668
 20
3.478091175871624
 30
0.0
 40
0.0976681881821371
100
AcDbArc
 50
0.0000000000020842
 51
30.84247098871468
  0
ARC
  5
2F5
330
2
100
AcDbEntity
  8
0
100
AcDbCircle
 10
-3.737834354989424
 20
3.448940101275612
 30
0.0
 40
0.1545284259354653
100
AcDbArc
 50
30.84247098871452
 51
55.25172445456879
  0
ARC
  5
2F6
330
2
100
AcDbEntity
  8
0
100
AcDbCircle
 10
-3.76983061175914
 20
3.402814723571561
 30
0.0
 40
0.2106649640867889
100
AcDbArc
 50
55.25172445456511
 51
73.96896342225647
  0
ARC
  5
2F7
330
2
100
AcDbEntity
  8
0
100
AcDbCircle
 10
-3.790772595845681
 20
3.32993037563447
 30
0.0
 40
0.2864983002371627
100
AcDbArc
 50
73.96896342225512
 51
89.99999999999716
  0
ARC
  5
2F8
330
2
100
AcDbEntity
  8
0
100
AcDbCircle
 10
-3.790772595845667
 20
3.415887448938365
 30
0.0
 40
0.0468087730667364
100
AcDbArc
 50
270.0000000000044
 51
302.607921015198
  0
ARC
  5
2F9
330
2
100
AcDbEntity
  8
0
100
AcDbCircle
 10
-3.809815100137449
 20
3.445654315682448
 30
0.0
 40
0.0821454866301448
100
AcDbArc
 50
302.607921015195
 51
327.0773280975502
  0
ARC
  5
2FA
330
2
100
AcDbEntity
  8
0
100
AcDbCircle
 10
-3.840073011450492
 20
3.465246024678718
 30
0.0
 40
0.1181923486076141
100
AcDbArc
 50
327.0773280975463
 51
344.9866289979987
  0
ARC
  5
2FB
330
2
100
AcDbEntity
  8
0
100
AcDbCircle
 10
-3.887967057783833
 20
3.478091175871628
 30
0.0
 40
0.1677790160026763
100
AcDbArc
 50
344.9866289980054
 51
0.0000000000024265
  0
ARC
  5
2FC
330
2
100
AcDbEntity
  8
0
100
AcDbCircle
 10
-3.887967057783797
 20
3.478091175871642
 30
0.0
 40
0.167779016002644
100
AcDbArc
 50
359.9999999999976
 51
15.0133710019951
  0
ARC
  5
2FD
330
2
100
AcDbEntity
  8
0
100
AcDbCircle
 10
-3.840073011450492
 20
3.490936327064548
 30
0.0
 40
0.11819234860761
100
AcDbArc
 50
15.0133710020001
 51
32.92267190245313
  0
ARC
  5
2FE
330
2
100
AcDbEntity
  8
0
100
AcDbCircle
 10
-3.809815100137449
 20
3.510528036060814
 30
0.0
 40
0.0821454866301446
100
AcDbArc
 50
32.92267190244989
 51
57.39207898480503
  0
ARC
  5
2FF
330
2
100
AcDbEntity
  8
0
100
AcDbCircle
 10
-3.790772595845667
 20
3.540294902804897
 30
0.0
 40
0.0468087730667357
100
AcDbArc
 50
57.39207898480197
 51
89.99999999999565
  0
ARC
  5
300
330
2
100
AcDbEntity
  8
0
100
AcDbCircle
 10
-3.790772595845667
 20
3.430456926494715
 30
0.0
 40
0.0320532506230862
100
AcDbArc
 50
270.0000000000064
 51
303.5108229556791
  0
ARC
  5
301
330
2
100
AcDbEntity
  8
0
100
AcDbCircle
 10
-3.805847614409458
 20
3.453223450109347
 30
0.0
 40
0.0593583926698537
100
AcDbArc
 50
303.5108229556726
 51
327.9718933333935
  0
ARC
  5
302
330
2
100
AcDbEntity
  8
0
100
AcDbCircle
 10
-3.829851039933139
 20
3.468238832731148
 30
0.0
 40
0.0876713959042334
100
AcDbArc
 50
327.9718933333754
 51
345.4734521831862
  0
ARC
  5
303
330
2
100
AcDbEntity
  8
0
100
AcDbCircle
 10
-3.867874535109273
 20
3.478091175871606
 30
0.0
 40
0.126950586969819
100
AcDbArc
 50
345.4734521832155
 51
0.0000000000128274
  0
ARC
  5
304
330
2
100
AcDbEntity
  8
0
100
AcDbCircle
 10
-3.867874535109245
 20
3.478091175871656
 30
0.0
 40
0.1269505869697944
100
AcDbArc
 50
359.9999999999904
 51
14.52654781678728
  0
ARC
  5
305
330
2
100
AcDbEntity
  8
0
100
AcDbCircle
 10
-3.829851039933132
 20
3.487943519012118
 30
0.0
 40
0.0876713959042287
100
AcDbArc
 50
14.5265478168122
 51
32.02810666662388
  0
ARC
  5
306
330
2
100
AcDbEntity
  8
0
100
AcDbCircle
 10
-3.805847614409458
 20
3.502958901633916
 30
0.0
 40
0.0593583926698542
100
AcDbArc
 50
32.0281066666065
 51
56.48917704432745
  0
ARC
  5
307
330
2
100
AcDbEntity
  8
0
100
AcDbCircle
 10
-3.790772595845667
 20
3.525725425248544
 30
0.0
 40
0.0320532506230895
100
AcDbArc
 50
56.48917704432444
 51
89.99999999999365
  0
ARC
  5
308
330
2
100
AcDbEntity
  8
0
100
AcDbCircle
 10
-3.790772595845667
 20
5.852401310250899
 30
0.0
 40
0.0468087730667364
100
AcDbArc
 50
270.0000000000044
 51
302.607921015198
  0
ARC
  5
309
330
2
100
AcDbEntity
  8
0
100
AcDbCircle
 10
-3.809815100137449
 20
5.882168176994982
 30
0.0
 40
0.0821454866301448
100
AcDbArc
 50
302.607921015195
 51
327.0773280975502
  0
ARC
  5
30A
330
2
100
AcDbEntity
  8
0
100
AcDbCircle
 10
-3.840073011450492
 20
5.901759885991252
 30
0.0
 40
0.1181923486076141
100
AcDbArc
 50
327.0773280975463
 51
344.9866289979987
  0
ARC
  5
30B
330
2
100
AcDbEntity
  8
0
100
AcDbCircle
 10
-3.887967057783833
 20
5.914605037184161
 30
0.0
 40
0.1677790160026763
100
AcDbArc
 50
344.9866289980054
 51
0.0000000000024265
  0
ARC
  5
30C
330
2
100
AcDbEntity
  8
0
100
AcDbCircle
 10
-3.887967057783797
 20
5.914605037184176
 30
0.0
 40
0.167779016002644
100
AcDbArc
 50
359.9999999999976
 51
15.0133710019951
  0
ARC
  5
30D
330
2
100
AcDbEntity
  8
0
100
AcDbCircle
 10
-3.840073011450492
 20
5.927450188377081
 30
0.0
 40
0.11819234860761
100
AcDbArc
 50
15.0133710020001
 51
32.92267190245313
  0
ARC
  5
30E
330
2
100
AcDbEntity
  8
0
100
AcDbCircle
 10
-3.809815100137449
 20
5.947041897373348
 30
0.0
 40
0.0821454866301446
100
AcDbArc
 50
32.92267190244989
 51
57.39207898480503
  0
ARC
  5
30F
330
2
100
AcDbEntity
  8
0
100
AcDbCircle
 10
-3.790772595845667
 20
5.976808764117431
 30
0.0
 40
0.0468087730667357
100
AcDbArc
 50
57.39207898480197
 51
89.99999999999565
  0
ARC
  5
310
330
2
100
AcDbEntity
  8
0
100
AcDbCircle
 10
-3.790772595845667
 20
5.866970787807249
 30
0.0
 40
0.0320532506230862
100
AcDbArc
 50
270.0000000000064
 51
303.5108229556791
  0
ARC
  5
311
330
2
100
AcDbEntity
  8
0
100
AcDbCircle
 10
-3.805847614409458
 20
5.889737311421881
 30
0.0
 40
0.0593583926698537
100
AcDbArc
 50
303.5108229556726
 51
327.9718933333935
  0
ARC
  5
312
330
2
100
AcDbEntity
  8
0
100
AcDbCircle
 10
-3.829851039933139
 20
5.904752694043681
 30
0.0
 40
0.0876713959042334
100
AcDbArc
 50
327.9718933333754
 51
345.4734521831862
  0
ARC
  5
313
330
2
100
AcDbEntity
  8
0
100
AcDbCircle
 10
-3.867874535109273
 20
5.91460503718414
 30
0.0
 40
0.126950586969819
100
AcDbArc
 50
345.4734521832155
 51
0.0000000000128274
  0
ARC
  5
314
330
2
100
AcDbEntity
  8
0
100
AcDbCircle
 10
-3.867874535109245
 20
5.91460503718419
 30
0.0
 40
0.1269505869697944
100
AcDbArc
 50
359.9999999999904
 51
14.52654781678728
  0
ARC
  5
315
330
2
100
AcDbEntity
  8
0
100
AcDbCircle
 10
-3.829851039933132
 20
5.924457380324652
 30
0.0
 40
0.0876713959042287
100
AcDbArc
 50
14.5265478168122
 51
32.02810666662388
  0
ARC
  5
316
330
2
100
AcDbEntity
  8
0
100
AcDbCircle
 10
-3.805847614409458
 20
5.939472762946449
 30
0.0
 40
0.0593583926698542
100
AcDbArc
 50
32.0281066666065
 51
56.48917704432745
  0
ARC
  5
317
330
2
100
AcDbEntity
  8
0
100
AcDbCircle
 10
-3.790772595845667
 20
5.962239286561077
 30
0.0
 40
0.0320532506230895
100
AcDbArc
 50
56.48917704432444
 51
89.99999999999365
  0
ARC
  5
318
330
2
100
AcDbEntity
  8
0
100
AcDbCircle
 10
-3.790772595845681
 20
7.932706511852706
 30
0.0
 40
0.2864983002371666
100
AcDbArc
 50
270.0000000000028
 51
286.0310365777447
  0
ARC
  5
319
330
2
100
AcDbEntity
  8
0
100
AcDbCircle
 10
-3.769830611759119
 20
7.859822163915608
 30
0.0
 40
0.2106649640867779
100
AcDbArc
 50
286.0310365777373
 51
304.7482755454288
  0
ARC
  5
31A
330
2
100
AcDbEntity
  8
0
100
AcDbCircle
 10
-3.737834354989445
 20
7.813696786211557
 30
0.0
 40
0.1545284259354786
100
AcDbArc
 50
304.7482755454359
 51
329.15752901129
  0
ARC
  5
31B
330
2
100
AcDbEntity
  8
0
100
AcDbCircle
 10
-3.689015286099654
 20
7.784545711615545
 30
0.0
 40
0.0976681881821232
100
AcDbArc
 50
329.1575290112829
 51
359.9999999999959
  0
ARC
  5
31C
330
2
100
AcDbEntity
  8
0
100
AcDbCircle
 10
-3.689015286099668
 20
7.784545711615534
 30
0.0
 40
0.0976681881821371
100
AcDbArc
 50
0.0000000000020842
 51
30.84247098871468
  0
ARC
  5
31D
330
2
100
AcDbEntity
  8
0
100
AcDbCircle
 10
-3.737834354989424
 20
7.755394637019522
 30
0.0
 40
0.1545284259354653
100
AcDbArc
 50
30.84247098871452
 51
55.25172445456879
  0
ARC
  5
31E
330
2
100
AcDbEntity
  8
0
100
AcDbCircle
 10
-3.76983061175914
 20
7.709269259315471
 30
0.0
 40
0.2106649640867889
100
AcDbArc
 50
55.25172445456511
 51
73.96896342225647
  0
ARC
  5
31F
330
2
100
AcDbEntity
  8
0
100
AcDbCircle
 10
-3.790772595845681
 20
7.63638491137838
 30
0.0
 40
0.2864983002371627
100
AcDbArc
 50
73.96896342225512
 51
89.99999999999716
  0
ARC
  5
320
330
2
100
AcDbEntity
  8
0
100
AcDbCircle
 10
-3.790772595845667
 20
7.722341984682275
 30
0.0
 40
0.0468087730667364
100
AcDbArc
 50
270.0000000000044
 51
302.607921015198
  0
ARC
  5
321
330
2
100
AcDbEntity
  8
0
100
AcDbCircle
 10
-3.809815100137449
 20
7.752108851426359
 30
0.0
 40
0.0821454866301448
100
AcDbArc
 50
302.607921015195
 51
327.0773280975502
  0
ARC
  5
322
330
2
100
AcDbEntity
  8
0
100
AcDbCircle
 10
-3.840073011450492
 20
7.771700560422628
 30
0.0
 40
0.1181923486076141
100
AcDbArc
 50
327.0773280975463
 51
344.9866289979987
  0
ARC
  5
323
330
2
100
AcDbEntity
  8
0
100
AcDbCircle
 10
-3.887967057783833
 20
7.784545711615538
 30
0.0
 40
0.1677790160026763
100
AcDbArc
 50
344.9866289980054
 51
0.0000000000024265
  0
ARC
  5
324
330
2
100
AcDbEntity
  8
0
100
AcDbCircle
 10
-3.887967057783797
 20
7.784545711615552
 30
0.0
 40
0.167779016002644
100
AcDbArc
 50
359.9999999999976
 51
15.0133710019951
  0
ARC
  5
325
330
2
100
AcDbEntity
  8
0
100
AcDbCircle
 10
-3.840073011450492
 20
7.797390862808458
 30
0.0
 40
0.11819234860761
100
AcDbArc
 50
15.0133710020001
 51
32.92267190245313
  0
ARC
  5
326
330
2
100
AcDbEntity
  8
0
100
AcDbCircle
 10
-3.809815100137449
 20
7.816982571804724
 30
0.0
 40
0.0821454866301446
100
AcDbArc
 50
32.92267190244989
 51
57.39207898480503
  0
ARC
  5
327
330
2
100
AcDbEntity
  8
0
100
AcDbCircle
 10
-3.790772595845667
 20
7.846749438548807
 30
0.0
 40
0.0468087730667357
100
AcDbArc
 50
57.39207898480197
 51
89.99999999999565
  0
ARC
  5
328
330
2
100
AcDbEntity
  8
0
100
AcDbCircle
 10
-3.790772595845667
 20
7.736911462238625
 30
0.0
 40
0.0320532506230862
100
AcDbArc
 50
270.0000000000064
 51
303.5108229556791
  0
ARC
  5
329
330
2
100
AcDbEntity
  8
0
100
AcDbCircle
 10
-3.805847614409458
 20
7.759677985853257
 30
0.0
 40
0.0593583926698537
100
AcDbArc
 50
303.5108229556726
 51
327.9718933333935
  0
ARC
  5
32A
330
2
100
AcDbEntity
  8
0
100
AcDbCircle
 10
-3.829851039933139
 20
7.774693368475058
 30
0.0
 40
0.0876713959042334
100
AcDbArc
 50
327.9718933333754
 51
345.4734521831862
  0
ARC
  5
32B
330
2
100
AcDbEntity
  8
0
100
AcDbCircle
 10
-3.867874535109273
 20
7.784545711615516
 30
0.0
 40
0.126950586969819
100
AcDbArc
 50
345.4734521832155
 51
0.0000000000128274
  0
ARC
  5
32C
330
2
100
AcDbEntity
  8
0
100
AcDbCircle
 10
-3.867874535109245
 20
7.784545711615566
 30
0.0
 40
0.1269505869697944
100
AcDbArc
 50
359.9999999999904
 51
14.52654781678728
  0
ARC
  5
32D
330
2
100
AcDbEntity
  8
0
100
AcDbCircle
 10
-3.829851039933132
 20
7.794398054756028
 30
0.0
 40
0.0876713959042287
100
AcDbArc
 50
14.5265478168122
 51
32.02810666662388
  0
ARC
  5
32E
330
2
100
AcDbEntity
  8
0
100
AcDbCircle
 10
-3.805847614409458
 20
7.809413437377826
 30
0.0
 40
0.0593583926698542
100
AcDbArc
 50
32.0281066666065
 51
56.48917704432745
  0
ARC
  5
32F
330
2
100
AcDbEntity
  8
0
100
AcDbCircle
 10
-3.790772595845667
 20
7.832179960992454
 30
0.0
 40
0.0320532506230895
100
AcDbArc
 50
56.48917704432444
 51
89.99999999999365
  0
ENDSEC
  0
SECTION
  2
OBJECTS
  0
DICTIONARY
  5
9
330
0
100
AcDbDictionary
281
     1
  3
ACAD_COLOR
350
47B
  3
ACAD_GROUP
350
23
  3
ACAD_LAYOUT
350
D
  3
ACAD_MATERIAL
350
47A
  3
ACAD_MLINESTYLE
350
24
  3
ACAD_PLOTSETTINGS
350
25
  3
ACAD_PLOTSTYLENAME
350
8
  3
ACAD_TABLESTYLE
350
47C
  3
ACDBHEADERROUNDTRIPXREC
350
4A4
  3
AcDbVariableDictionary
350
124
  0
DICTIONARY
  5
47B
102
{ACAD_REACTORS
330
9
102
}
330
9
100
AcDbDictionary
281
     1
  0
DICTIONARY
  5
23
102
{ACAD_REACTORS
330
9
102
}
330
9
100
AcDbDictionary
281
     1
  0
DICTIONARY
  5
D
102
{ACAD_REACTORS
330
9
102
}
330
9
100
AcDbDictionary
281
     1
  3
Layout1
350
13
  3
Model
350
C
  0
DICTIONARY
  5
47A
102
{ACAD_REACTORS
330
9
102
}
330
9
100
AcDbDictionary
281
     1
  0
DICTIONARY
  5
24
102
{ACAD_REACTORS
330
9
102
}
330
9
100
AcDbDictionary
281
     1
  3
STANDARD
350
27
  0
DICTIONARY
  5
25
102
{ACAD_REACTORS
330
9
102
}
330
9
100
AcDbDictionary
281
     1
  0
ACDBDICTIONARYWDFLT
  5
8
102
{ACAD_REACTORS
330
9
102
}
330
9
100
AcDbDictionary
281
     1
  3
Normal
350
7
100
AcDbDictionaryWithDefault
340
7
  0
DICTIONARY
  5
47C
102
{ACAD_REACTORS
330
9
102
}
330
9
100
AcDbDictionary
281
     1
  3
Standard
350
47D
  0
DICTIONARY
  5
4A4
102
{ACAD_REACTORS
330
9
102
}
330
9
100
AcDbDictionary
281
     1
  3
COLORDICT
350
4A5
  3
MATERIALDICT
350
4A6
  0
DICTIONARY
  5
124
102
{ACAD_REACTORS
330
9
102
}
330
9
100
AcDbDictionary
281
     1
  3
CTABLESTYLE
350
491
  3
HIDETEXT
350
4A3
  0
LAYOUT
  5
13
102
{ACAD_REACTORS
330
D
102
}
102
{ACAD_XDICTIONARY
360
4A7
102
}
330
D
100
AcDbPlotSettings
  1

  2
C:\ACAD2000\plotters\HP LaserJet 2100 Series PS.pc3
  4

  6

 40
0.0
 41
0.0
 42
0.0
 43
0.0
 44
0.0
 45
0.0
 46
0.0
 47
0.0
 48
0.0
 49
0.0
140
0.0
141
0.0
142
1.0
143
1.0
 70
   688
 72
     0
 73
     0
 74
     5
  7

 75
    16
147
1.0
148
0.0
149
0.0
100
AcDbLayout
  1
Layout1
 70
     0
 71
     1
 10
0.0
 20
0.0
 11
12.0
 21
9.0
 12
0.0
 22
0.0
 32
0.0
 14
1.000000000000000E+20
 24
1.000000000000000E+20
 34
1.000000000000000E+20
 15
-1.000000000000000E+20
 25
-1.000000000000000E+20
 35
-1.000000000000000E+20
146
0.0
 13
0.0
 23
0.0
 33
0.0
 16
1.0
 26
0.0
 36
0.0
 17
0.0
 27
1.0
 37
0.0
 76
     0
330
E
  0
LAYOUT
  5
C
102
{ACAD_REACTORS
330
D
102
}
102
{ACAD_XDICTIONARY
360
4A9
102
}
330
D
100
AcDbPlotSettings
  1

  2
HP LaserJet 2100 Series PS
  4
Letter
  6

 40
5.365749835968018
 41
5.408073902130127
 42
5.132904052734375
 43
5.090576171875
 44
215.8999938964844
 45
279.3999938964844
 46
0.0
 47
0.0
 48
0.0
 49
0.0
140
0.0
141
0.0
142
1.0
143
5.193734373688032
 70
 28336
 72
     0
 73
     1
 74
     2
  7

 75
     0
147
0.1925396887961961
148
0.0
149
0.0
100
AcDbLayout
  1
Model
 70
     1
 71
     0
 10
0.0
 20
0.0
 11
12.0
 21
9.0
 12
0.0
 22
0.0
 32
0.0
 14
0.0
 24
0.0
 34
0.0
 15
0.0
 25
0.0
 35
0.0
146
0.0
 13
0.0
 23
0.0
 33
0.0
 16
1.0
 26
0.0
 36
0.0
 17
0.0
 27
1.0
 37
0.0
 76
     0
330
2
  0
MLINESTYLE
  5
27
102
{ACAD_REACTORS
330
24
102
}
330
24
100
AcDbMlineStyle
  2
STANDARD
 70
     0
  3

 62
   256
 51
90.0
 52
90.0
 71
     2
 49
0.5
 62
   256
  6
BYLAYER
 49
-0.5
 62
   256
  6
BYLAYER
  0
ACDBPLACEHOLDER
  5
7
102
{ACAD_REACTORS
330
8
102
}
330
8
  0
ACAD_PROXY_OBJECT
  5
47D
102
{ACAD_REACTORS
330
47C
102
}
330
47C
100
AcDbProxyObject
 90
      499
 91
      513
 95
   983063
 70
     0
 93
     1841
310
4214DD185B99185C9928B81E85EB51B8AE3F2E07A17AD46E2B8FC02B5E8DC0F42B1CFD028000000C1008070000C3001FDFF8000000C1003FBFF000000182007F7FE00000030400FEFFC00000060801FDFF8000000C1003FBFF00000018200000000000000681FA0B0000001820100E000186003FBFF000000182007F7FE000
310
00030400FEFFC00000060801FDFF8000000C1003FBFF000000182007F7FE000000304000AD7A3703D0AC73F4160000003040201C00030C007F7FE00000030400FEFFC00000060801FDFF8000000C1003FBFF000000182007F7FE00000030400FEFFC000000608000
340
16
340
16
340
16
 94
        0
  0
XRECORD
  5
4A5
102
{ACAD_REACTORS
330
4A4
102
}
330
4A4
100
AcDbXrecord
340
47B
  0
XRECORD
  5
4A6
102
{ACAD_REACTORS
330
4A4
102
}
330
4A4
100
AcDbXrecord
340
47A
  0
DICTIONARYVAR
  5
491
102
{ACAD_REACTORS
330
124
102
}
330
124
100
DictionaryVariables
280
     0
  1
STANDARD
  0
DICTIONARYVAR
  5
4A3
102
{ACAD_REACTORS
330
124
102
}
330
124
100
DictionaryVariables
280
     0
  1
0
  0
DICTIONARY
  5
4A7
330
13
100
AcDbDictionary
280
     1
281
     1
  3
ACAD_XREC_ROUNDTRIP
360
4A8
  0
DICTIONARY
  5
4A9
330
C
100
AcDbDictionary
280
     1
281
     1
  3
ACAD_XREC_ROUNDTRIP
360
4AA
  0
XRECORD
  5
4A8
102
{ACAD_REACTORS
330
4A7
102
}
330
4A7
100
AcDbXrecord
102
SHADEPLOT
 70
     0
102
SHADEPLOTRESLEVEL
 70
     2
102
SHADEPLOTCUSTOMDPI
 70
   300
  0
XRECORD
  5
4AA
102
{ACAD_REACTORS
330
4A9
102
}
330
4A9
100
AcDbXrecord
102
SHADEPLOT
 70
     0
102
SHADEPLOTRESLEVEL
 70
     2
102
SHADEPLOTCUSTOMDPI
 70
   300
  0
ENDSEC
  0
EOF
