  0
SECTION
  2
HEADER
  9
$ACADVER
  1
AC1015
  9
$ACADMAINTVER
 70
     6
  9
$DWGCODEPAGE
  3
ANSI_1252
  9
$INSBASE
 10
0.0
 20
0.0
 30
0.0
  9
$EXTMIN
 10
-13.90969445773106
 20
-0.0273430569616266
 30
-0.0000000000112498
  9
$EXTMAX
 10
13.90951177938864
 20
18.19811028365552
 30
0.0000000000002956
  9
$LIMMIN
 10
0.0
 20
0.0
  9
$LIMMAX
 10
42.0
 20
32.0
  9
$ORTHOMODE
 70
     1
  9
$REGENMODE
 70
     1
  9
$FILLMODE
 70
     1
  9
$QTEXTMODE
 70
     0
  9
$MIRRTEXT
 70
     1
  9
$LTSCALE
 40
1.0
  9
$ATTMODE
 70
     1
  9
$TEXTSIZE
 40
0.36
  9
$TRACEWID
 40
0.05
  9
$TEXTSTYLE
  7
STANDARD
  9
$CLAYER
  8
0
  9
$CELTYPE
  6
BYLAYER
  9
$CECOLOR
 62
   256
  9
$CELTSCALE
 40
1.0
  9
$DISPSILH
 70
     0
  9
$DIMSCALE
 40
4.0
  9
$DIMASZ
 40
0.125
  9
$DIMEXO
 40
0.062
  9
$DIMDLI
 40
0.375
  9
$DIMRND
 40
0.0
  9
$DIMDLE
 40
0.0
  9
$DIMEXE
 40
0.08
  9
$DIMTP
 40
0.0
  9
$DIMTM
 40
0.0
  9
$DIMTXT
 40
0.09
  9
$DIMCEN
 40
-0.03125
  9
$DIMTSZ
 40
0.0
  9
$DIMTOL
 70
     0
  9
$DIMLIM
 70
     0
  9
$DIMTIH
 70
     1
  9
$DIMTOH
 70
     1
  9
$DIMSE1
 70
     0
  9
$DIMSE2
 70
     0
  9
$DIMTAD
 70
     0
  9
$DIMZIN
 70
     0
  9
$DIMBLK
  1

  9
$DIMASO
 70
     0
  9
$DIMSHO
 70
     0
  9
$DIMPOST
  1

  9
$DIMAPOST
  1

  9
$DIMALT
 70
     0
  9
$DIMALTD
 70
     2
  9
$DIMALTF
 40
25.4
  9
$DIMLFAC
 40
1.0
  9
$DIMTOFL
 70
     0
  9
$DIMTVP
 40
0.0
  9
$DIMTIX
 70
     0
  9
$DIMSOXD
 70
     0
  9
$DIMSAH
 70
     0
  9
$DIMBLK1
  1

  9
$DIMBLK2
  1

  9
$DIMSTYLE
  2
STANDARD
  9
$DIMCLRD
 70
     0
  9
$DIMCLRE
 70
     0
  9
$DIMCLRT
 70
     0
  9
$DIMTFAC
 40
1.0
  9
$DIMGAP
 40
0.09
  9
$DIMJUST
 70
     0
  9
$DIMSD1
 70
     0
  9
$DIMSD2
 70
     0
  9
$DIMTOLJ
 70
     1
  9
$DIMTZIN
 70
     0
  9
$DIMALTZ
 70
     0
  9
$DIMALTTZ
 70
     0
  9
$DIMUPT
 70
     0
  9
$DIMDEC
 70
     5
  9
$DIMTDEC
 70
     4
  9
$DIMALTU
 70
     2
  9
$DIMALTTD
 70
     2
  9
$DIMTXSTY
  7
STANDARD
  9
$DIMAUNIT
 70
     0
  9
$DIMADEC
 70
     0
  9
$DIMALTRND
 40
0.0
  9
$DIMAZIN
 70
     0
  9
$DIMDSEP
 70
    46
  9
$DIMATFIT
 70
     3
  9
$DIMFRAC
 70
     2
  9
$DIMLDRBLK
  1

  9
$DIMLUNIT
 70
     5
  9
$DIMLWD
 70
    -2
  9
$DIMLWE
 70
    -2
  9
$DIMTMOVE
 70
     2
  9
$LUNITS
 70
     2
  9
$LUPREC
 70
     4
  9
$SKETCHINC
 40
0.1
  9
$FILLETRAD
 40
0.0
  9
$AUNITS
 70
     0
  9
$AUPREC
 70
     0
  9
$MENU
  1
G:\ACADSST\QA
  9
$ELEVATION
 40
0.0
  9
$PELEVATION
 40
0.0
  9
$THICKNESS
 40
0.0
  9
$LIMCHECK
 70
     0
  9
$CHAMFERA
 40
0.0
  9
$CHAMFERB
 40
0.0
  9
$CHAMFERC
 40
0.0
  9
$CHAMFERD
 40
0.0
  9
$SKPOLY
 70
     0
  9
$TDCREATE
 40
2447378.869211574
  9
$TDUCREATE
 40
2447379.202544908
  9
$TDUPDATE
 40
2454165.988494248
  9
$TDUUPDATE
 40
2454166.321827581
  9
$TDINDWG
 40
0.1860358218
  9
$TDUSRTIMER
 40
0.1860358218
  9
$USRTIMER
 70
     1
  9
$ANGBASE
 50
0.0
  9
$ANGDIR
 70
     0
  9
$PDMODE
 70
     0
  9
$PDSIZE
 40
0.0
  9
$PLINEWID
 40
0.0
  9
$SPLFRAME
 70
     0
  9
$SPLINETYPE
 70
     6
  9
$SPLINESEGS
 70
     8
  9
$HANDSEED
  5
49B
  9
$SURFTAB1
 70
     6
  9
$SURFTAB2
 70
     6
  9
$SURFTYPE
 70
     6
  9
$SURFU
 70
     6
  9
$SURFV
 70
     6
  9
$UCSBASE
  2

  9
$UCSNAME
  2

  9
$UCSORG
 10
0.0
 20
0.0
 30
0.0
  9
$UCSXDIR
 10
1.0
 20
0.0
 30
0.0
  9
$UCSYDIR
 10
0.0
 20
1.0
 30
0.0
  9
$UCSORTHOREF
  2

  9
$UCSORTHOVIEW
 70
     0
  9
$UCSORGTOP
 10
0.0
 20
0.0
 30
0.0
  9
$UCSORGBOTTOM
 10
0.0
 20
0.0
 30
0.0
  9
$UCSORGLEFT
 10
0.0
 20
0.0
 30
0.0
  9
$UCSORGRIGHT
 10
0.0
 20
0.0
 30
0.0
  9
$UCSORGFRONT
 10
0.0
 20
0.0
 30
0.0
  9
$UCSORGBACK
 10
0.0
 20
0.0
 30
0.0
  9
$PUCSBASE
  2

  9
$PUCSNAME
  2

  9
$PUCSORG
 10
0.0
 20
0.0
 30
0.0
  9
$PUCSXDIR
 10
1.0
 20
0.0
 30
0.0
  9
$PUCSYDIR
 10
0.0
 20
1.0
 30
0.0
  9
$PUCSORTHOREF
  2

  9
$PUCSORTHOVIEW
 70
     0
  9
$PUCSORGTOP
 10
0.0
 20
0.0
 30
0.0
  9
$PUCSORGBOTTOM
 10
0.0
 20
0.0
 30
0.0
  9
$PUCSORGLEFT
 10
0.0
 20
0.0
 30
0.0
  9
$PUCSORGRIGHT
 10
0.0
 20
0.0
 30
0.0
  9
$PUCSORGFRONT
 10
0.0
 20
0.0
 30
0.0
  9
$PUCSORGBACK
 10
0.0
 20
0.0
 30
0.0
  9
$USERI1
 70
     0
  9
$USERI2
 70
     0
  9
$USERI3
 70
     0
  9
$USERI4
 70
     0
  9
$USERI5
 70
     0
  9
$USERR1
 40
0.0
  9
$USERR2
 40
0.0
  9
$USERR3
 40
0.0
  9
$USERR4
 40
0.0
  9
$USERR5
 40
0.0
  9
$WORLDVIEW
 70
     1
  9
$SHADEDGE
 70
     3
  9
$SHADEDIF
 70
    70
  9
$TILEMODE
 70
     1
  9
$MAXACTVP
 70
    16
  9
$PINSBASE
 10
0.0
 20
0.0
 30
0.0
  9
$PLIMCHECK
 70
     0
  9
$PEXTMIN
 10
1.000000000000000E+20
 20
1.000000000000000E+20
 30
1.000000000000000E+20
  9
$PEXTMAX
 10
-1.000000000000000E+20
 20
-1.000000000000000E+20
 30
-1.000000000000000E+20
  9
$PLIMMIN
 10
0.0
 20
0.0
  9
$PLIMMAX
 10
12.0
 20
9.0
  9
$UNITMODE
 70
     0
  9
$VISRETAIN
 70
     0
  9
$PLINEGEN
 70
     1
  9
$PSLTSCALE
 70
     0
  9
$TREEDEPTH
 70
  3020
  9
$CMLSTYLE
  2
STANDARD
  9
$CMLJUST
 70
     0
  9
$CMLSCALE
 40
1.0
  9
$PROXYGRAPHICS
 70
     1
  9
$MEASUREMENT
 70
     0
  9
$CELWEIGHT
370
    -1
  9
$ENDCAPS
280
     0
  9
$JOINSTYLE
280
     0
  9
$LWDISPLAY
290
     0
  9
$INSUNITS
 70
     0
  9
$HYPERLINKBASE
  1

  9
$STYLESHEET
  1

  9
$XEDIT
290
     1
  9
$CEPSNTYPE
380
     0
  9
$PSTYLEMODE
290
     1
  9
$FINGERPRINTGUID
  2
{5F49145D-BE07-41FE-AA11-9F73F442A493}
  9
$VERSIONGUID
  2
{840762B4-08B4-4003-8095-75B8DEB44FBD}
  9
$EXTNAMES
290
     1
  9
$PSVPSCALE
 40
0.0
  9
$OLESTARTUP
290
     0
  0
ENDSEC
  0
SECTION
  2
CLASSES
  0
CLASS
  1
DICTIONARYVAR
  2
AcDbDictionaryVar
  3
AutoCAD 2000
 90
        0
280
     0
281
     0
  0
CLASS
  1
LWPOLYLINE
  2
AcDbPolyline
  3
AutoCAD 2000
 90
        0
280
     0
281
     1
  0
CLASS
  1
ACDBDICTIONARYWDFLT
  2
AcDbDictionaryWithDefault
  3
AutoCAD 2000
 90
        0
280
     0
281
     0
  0
CLASS
  1
ACDBPLACEHOLDER
  2
AcDbPlaceHolder
  3
ObjectDBX Classes
 90
        0
280
     0
281
     0
  0
CLASS
  1
LAYOUT
  2
AcDbLayout
  3
ObjectDBX Classes
 90
        0
280
     0
281
     0
  0
CLASS
  1
LONG_TRANSACTION
  2
AcDbLongTransaction
  3
ObjectDBX Classes
 90
   -65536
280
     1
281
     0
  0
CLASS
  1
LWPOLYLINE
  2
AcDbPolyline
  3
AutoCAD 2000
 90
        0
280
     0
281
     1
  0
CLASS
  1
HATCH
  2
AcDbHatch
  3
AutoCAD 2000
 90
        0
280
     0
281
     1
  0
CLASS
  1
XRECORD
  2
AcDbXrecord
  3
AutoCAD 2000
 90
        0
280
     0
281
     0
  0
CLASS
  1
LONG_TRANSACTION
  2
AcDbLongTransaction
  3
ObjectDBX Classes
 90
   -65536
280
     1
281
     0
  0
CLASS
  1
LWPOLYLINE
  2
AcDbPolyline
  3
AutoCAD 2000
 90
        0
280
     0
281
     1
  0
CLASS
  1
HATCH
  2
AcDbHatch
  3
AutoCAD 2000
 90
        0
280
     0
281
     1
  0
CLASS
  1
XRECORD
  2
AcDbXrecord
  3
AutoCAD 2000
 90
        0
280
     0
281
     0
  0
CLASS
  1
TABLESTYLE
  2
AcDbTableStyle
  3
ObjectDBX Classes
 90
     2047
280
     1
281
     0
  0
ENDSEC
  0
SECTION
  2
TABLES
  0
TABLE
  2
VPORT
  5
1D
330
0
100
AcDbSymbolTable
 70
     3
  0
VPORT
  5
48B
330
1D
100
AcDbSymbolTableRecord
100
AcDbViewportTableRecord
  2
*Active
 70
     0
 10
0.0
 20
0.0
 11
1.0
 21
1.0
 12
14.04515277113446
 22
15.98632847151918
 13
0.0
 23
0.0
 14
0.03125
 24
0.03125
 15
0.03125
 25
0.03125
 16
0.0
 26
0.0
 36
1.0
 17
0.0
 27
0.0
 37
0.0
 40
32.42685253376364
 41
1.814583333333333
 42
50.0
 43
0.0
 44
0.0
 50
0.0
 51
0.0
 71
     0
 72
   100
 73
     1
 74
     0
 75
     0
 76
     0
 77
     0
 78
     0
281
     0
 65
     1
110
0.0
120
0.0
130
0.0
111
1.0
121
0.0
131
0.0
112
0.0
122
1.0
132
0.0
 79
     0
146
0.0
  0
ENDTAB
  0
TABLE
  2
LTYPE
  5
18
330
0
100
AcDbSymbolTable
 70
     2
  0
LTYPE
  5
19
330
18
100
AcDbSymbolTableRecord
100
AcDbLinetypeTableRecord
  2
BYBLOCK
 70
     0
  3

 72
    65
 73
     0
 40
0.0
  0
LTYPE
  5
1A
330
18
100
AcDbSymbolTableRecord
100
AcDbLinetypeTableRecord
  2
BYLAYER
 70
     0
  3

 72
    65
 73
     0
 40
0.0
  0
LTYPE
  5
A
330
18
100
AcDbSymbolTableRecord
100
AcDbLinetypeTableRecord
  2
CONTINUOUS
 70
     0
  3
Solid line
 72
    65
 73
     0
 40
0.0
  0
LTYPE
  5
48A
330
18
100
AcDbSymbolTableRecord
100
AcDbLinetypeTableRecord
  2
HIDDEN
 70
     0
  3
Hidden __ __ __ __ __ __ __ __ __ __ __ __ __ _
 72
    65
 73
     2
 40
0.375
 49
0.25
 74
     0
 49
-0.125
 74
     0
  0
ENDTAB
  0
TABLE
  2
LAYER
  5
14
330
0
100
AcDbSymbolTable
 70
     2
  0
LAYER
  5
6
330
14
100
AcDbSymbolTableRecord
100
AcDbLayerTableRecord
  2
0
 70
     0
 62
     7
  6
CONTINUOUS
370
    -3
390
7
  0
ENDTAB
  0
TABLE
  2
STYLE
  5
15
330
0
100
AcDbSymbolTable
 70
     2
  0
STYLE
  5
16
330
15
100
AcDbSymbolTableRecord
100
AcDbTextStyleTableRecord
  2
STANDARD
 70
     0
 40
0.0
 41
1.0
 50
0.0
 71
     0
 42
0.36
  3
TXT
  4

  0
STYLE
  5
489
330
15
100
AcDbSymbolTableRecord
100
AcDbTextStyleTableRecord
  2

 70
     1
 40
0.0
 41
1.0
 50
0.0
 71
     0
 42
0.36
  3
ltypeshp.shx
  4

  0
ENDTAB
  0
TABLE
  2
VIEW
  5
1B
330
0
100
AcDbSymbolTable
 70
     0
  0
ENDTAB
  0
TABLE
  2
UCS
  5
1C
330
0
100
AcDbSymbolTable
 70
     0
  0
ENDTAB
  0
TABLE
  2
APPID
  5
1F
330
0
100
AcDbSymbolTable
 70
     1
  0
APPID
  5
20
330
1F
100
AcDbSymbolTableRecord
100
AcDbRegAppTableRecord
  2
ACAD
 70
     0
  0
ENDTAB
  0
TABLE
  2
DIMSTYLE
  5
21
330
0
100
AcDbSymbolTable
 70
     1
100
AcDbDimStyleTable
  0
DIMSTYLE
105
28
330
21
100
AcDbSymbolTableRecord
100
AcDbDimStyleTableRecord
  2
STANDARD
 70
     0
  3

  4

340
16
  0
ENDTAB
  0
TABLE
  2
BLOCK_RECORD
  5
1
330
0
100
AcDbSymbolTable
 70
     1
  0
BLOCK_RECORD
  5
2
330
1
100
AcDbSymbolTableRecord
100
AcDbBlockTableRecord
  2
*MODEL_SPACE
340
C
  0
BLOCK_RECORD
  5
E
330
1
100
AcDbSymbolTableRecord
100
AcDbBlockTableRecord
  2
*PAPER_SPACE
340
13
  0
ENDTAB
  0
ENDSEC
  0
SECTION
  2
BLOCKS
  0
BLOCK
  5
5
330
2
100
AcDbEntity
  8
0
100
AcDbBlockBegin
  2
*MODEL_SPACE
 70
     0
 10
0.0
 20
0.0
 30
0.0
  3
*MODEL_SPACE
  1

  4

  0
ENDBLK
  5
B
330
2
100
AcDbEntity
  8
0
100
AcDbBlockEnd
  0
BLOCK
  5
11
330
E
100
AcDbEntity
 67
     1
  8
0
100
AcDbBlockBegin
  2
*PAPER_SPACE
 70
     0
 10
0.0
 20
0.0
 30
0.0
  3
*PAPER_SPACE
  1

  4

  0
ENDBLK
  5
12
330
E
100
AcDbEntity
 67
     1
  8
0
100
AcDbBlockEnd
  0
ENDSEC
  0
SECTION
  2
ENTITIES
  0
LINE
  5
130
330
2
100
AcDbEntity
  8
0
100
AcDbLine
 10
2.812500000000002
 20
15.02996730924138
 30
0.0
 11
2.812500000000002
 21
17.32107497070151
 31
0.0
  0
LINE
  5
131
330
2
100
AcDbEntity
  8
0
100
AcDbLine
 10
2.750000000000002
 20
15.02996730924138
 30
0.0
 11
2.750000000000002
 21
17.34696331834983
 31
0.0
  0
LINE
  5
132
330
2
100
AcDbEntity
  8
0
100
AcDbLine
 10
-2.749999999999998
 20
15.02996730924136
 30
0.0
 11
-2.749999999999998
 21
17.32107497070149
 31
0.0
  0
LINE
  5
133
330
2
100
AcDbEntity
  8
0
100
AcDbLine
 10
-2.812499999999998
 20
15.02996730924136
 30
0.0
 11
-2.812499999999998
 21
17.3210749707015
 31
0.0
  0
LINE
  5
134
330
2
100
AcDbEntity
  8
0
100
AcDbLine
 10
-2.249836344359332
 20
17.98268662305318
 30
0.0
 11
2.250000000000005
 21
17.98268662305318
 31
0.0
  0
ARC
  5
135
330
2
100
AcDbEntity
  8
0
100
AcDbCircle
 10
-2.875000000000023
 20
18.04518662305318
 30
0.0
 40
0.125
100
AcDbArc
 50
0.0
 51
90.00000000000003
  0
ARC
  5
136
330
2
100
AcDbEntity
  8
0
100
AcDbCircle
 10
-2.875000000000002
 20
17.25683943348445
 30
0.0
 40
0.125
100
AcDbArc
 50
315.0
 51
359.9999999999999
  0
ARC
  5
137
330
2
100
AcDbEntity
  8
0
100
AcDbCircle
 10
-2.874999999999998
 20
18.04518662305318
 30
0.0
 40
0.0625
100
AcDbArc
 50
0.0
 51
90.00000000000003
  0
LINE
  5
138
330
2
100
AcDbEntity
  8
0
100
AcDbLine
 10
-2.875000000000023
 20
18.17018662305318
 30
0.0
 11
-4.812500000000002
 21
18.17018662305318
 31
0.0
  0
LINE
  5
139
330
2
100
AcDbEntity
  8
0
100
AcDbLine
 10
-2.874999999999998
 20
18.10768662305318
 30
0.0
 11
-4.812500000000002
 21
18.10768662305318
 31
0.0
  0
LINE
  5
13A
330
2
100
AcDbEntity
  8
0
100
AcDbLine
 10
-4.812500000000002
 20
18.10768662305319
 30
0.0
 11
-4.812500000000002
 21
18.17018662305318
 31
0.0
  0
LINE
  5
13B
330
2
100
AcDbEntity
  8
0
100
AcDbLine
 10
-2.812499999999998
 20
17.3210749707015
 30
0.0
 11
-2.812499999999998
 21
18.04518662305318
 31
0.0
  0
LINE
  5
13C
330
2
100
AcDbEntity
  8
0
100
AcDbLine
 10
-2.937165105064059
 20
17.10628598077208
 30
0.0
 11
-2.812499999999998
 21
17.03570142670757
 31
0.0
  0
ARC
  5
13D
330
2
100
AcDbEntity
  8
0
100
AcDbCircle
 10
-2.874999999999998
 20
17.25683943348445
 30
0.0
 40
0.0625
100
AcDbArc
 50
315.0
 51
359.9999999999999
  0
LINE
  5
13E
330
2
100
AcDbEntity
  8
0
100
AcDbLine
 10
-2.830805826175839
 20
17.2126452596603
 30
0.0
 11
-2.937165105064057
 21
17.10628598077208
 31
0.0
  0
LINE
  5
13F
330
2
100
AcDbEntity
  8
0
100
AcDbLine
 10
-2.803989089606537
 20
17.15106735356817
 30
0.0
 11
-2.870416372024598
 21
17.08572560800049
 31
0.0
  0
LINE
  5
140
330
2
100
AcDbEntity
  8
0
100
AcDbLine
 10
-2.750000000000016
 20
17.32107497070149
 30
0.0
 11
-2.750000000000023
 21
18.02996730924137
 31
0.0
  0
ARC
  5
141
330
2
100
AcDbEntity
  8
0
100
AcDbCircle
 10
-2.343586344359332
 20
17.98268662305318
 30
0.0
 40
0.09375
100
AcDbArc
 50
180.0000000000004
 51
0.0000000000025585
  0
LINE
  5
142
330
2
100
AcDbEntity
  8
0
100
AcDbLine
 10
-2.750000000000023
 20
18.02996730924137
 30
0.0
 11
-2.750000000000023
 21
18.04518662305318
 31
0.0
  0
ARC
  5
143
330
2
100
AcDbEntity
  8
0
100
AcDbCircle
 10
-2.537761401008774
 20
18.48268662305318
 30
0.0
 40
0.5
100
AcDbArc
 50
244.8824237621772
 51
269.9999999999999
  0
LINE
  5
144
330
2
100
AcDbEntity
  8
0
100
AcDbLine
 10
-2.537761401008774
 20
17.98268662305318
 30
0.0
 11
-2.437336344359332
 21
17.98268662305318
 31
0.0
  0
LINE
  5
145
330
2
100
AcDbEntity
  8
0
100
AcDbLine
 10
-2.750000000000002
 20
17.31288630131191
 30
0.0
 11
-2.749999999999998
 21
17.33877464896023
 31
0.0
  0
ARC
  5
146
330
2
100
AcDbEntity
  8
0
100
AcDbCircle
 10
2.875000000000002
 20
18.04518662305318
 30
0.0
 40
0.0625
100
AcDbArc
 50
90.00000000000006
 51
180.0
  0
ARC
  5
147
330
2
100
AcDbEntity
  8
0
100
AcDbCircle
 10
2.875000000000005
 20
18.04518662305318
 30
0.0
 40
0.125
100
AcDbArc
 50
90.00000000000006
 51
180.0
  0
LINE
  5
148
330
2
100
AcDbEntity
  8
0
100
AcDbLine
 10
4.812500000000034
 20
18.17018662305318
 30
0.0
 11
2.875000000000005
 21
18.17018662305318
 31
0.0
  0
LINE
  5
149
330
2
100
AcDbEntity
  8
0
100
AcDbLine
 10
4.812500000000034
 20
18.10768662305318
 30
0.0
 11
2.875000000000002
 21
18.10768662305318
 31
0.0
  0
LINE
  5
14A
330
2
100
AcDbEntity
  8
0
100
AcDbLine
 10
4.812500000000034
 20
18.10768662305318
 30
0.0
 11
4.812500000000034
 21
18.17018662305318
 31
0.0
  0
LINE
  5
14B
330
2
100
AcDbEntity
  8
0
100
AcDbLine
 10
2.936810255878106
 20
17.10628598077208
 30
0.0
 11
2.812145150814045
 21
17.03570142670757
 31
0.0
  0
LINE
  5
14C
330
2
100
AcDbEntity
  8
0
100
AcDbLine
 10
2.830450976989885
 20
17.2126452596603
 30
0.0
 11
2.936810255878104
 21
17.10628598077208
 31
0.0
  0
LINE
  5
14D
330
2
100
AcDbEntity
  8
0
100
AcDbLine
 10
2.750000000000002
 20
17.34696331834983
 30
0.0
 11
2.750000000000002
 21
18.02996730924138
 31
0.0
  0
LINE
  5
14E
330
2
100
AcDbEntity
  8
0
100
AcDbLine
 10
2.812500000000002
 20
17.32107497070151
 30
0.0
 11
2.812500000000002
 21
18.04518662305318
 31
0.0
  0
ARC
  5
14F
330
2
100
AcDbEntity
  8
0
100
AcDbCircle
 10
2.343750000000005
 20
17.98268662305318
 30
0.0
 40
0.09375
100
AcDbArc
 50
180.0000000000004
 51
0.0000000000025585
  0
LINE
  5
150
330
2
100
AcDbEntity
  8
0
100
AcDbLine
 10
2.437839283980759
 20
17.98268662305318
 30
0.0
 11
2.537761401008753
 21
17.98268662305318
 31
0.0
  0
LINE
  5
151
330
2
100
AcDbEntity
  8
0
100
AcDbLine
 10
2.437500000000005
 20
17.98268662305318
 30
0.0
 11
2.537761401008753
 21
17.98268662305318
 31
0.0
  0
LINE
  5
152
330
2
100
AcDbEntity
  8
0
100
AcDbLine
 10
2.750000000000002
 20
18.02996730924138
 30
0.0
 11
2.750000000000005
 21
18.04518662305318
 31
0.0
  0
ARC
  5
153
330
2
100
AcDbEntity
  8
0
100
AcDbCircle
 10
2.537761401008753
 20
18.48268662305318
 30
0.0
 40
0.5
100
AcDbArc
 50
270.0
 51
295.1175762378232
  0
ARC
  5
154
330
2
100
AcDbEntity
  8
0
100
AcDbCircle
 10
2.874645150814045
 20
17.25683943348445
 30
0.0
 40
0.0625
100
AcDbArc
 50
180.0000000000001
 51
225.0
  0
LINE
  5
155
330
2
100
AcDbEntity
  8
0
100
AcDbLine
 10
2.749645150814049
 20
17.31288630131191
 30
0.0
 11
2.749645150814045
 21
17.33877464896023
 31
0.0
  0
ARC
  5
156
330
2
100
AcDbEntity
  8
0
100
AcDbCircle
 10
2.874645150814049
 20
17.25683943348445
 30
0.0
 40
0.125
100
AcDbArc
 50
180.0000000000001
 51
225.0
  0
LINE
  5
157
330
2
100
AcDbEntity
  8
0
100
AcDbLine
 10
2.750000000000005
 20
17.3210749707015
 30
0.0
 11
2.750000000000002
 21
17.34696331834983
 31
0.0
  0
LINE
  5
158
330
2
100
AcDbEntity
  8
0
100
AcDbLine
 10
2.800792286008941
 20
17.15727105020731
 30
0.0
 11
2.86514353770235
 21
17.08881783638569
 31
0.0
  0
LINE
  5
159
330
2
100
AcDbEntity
  8
0
100
AcDbLine
 10
-2.250000000000023
 20
14.98268662305318
 30
0.0
 11
2.250000000000005
 21
14.98268662305318
 31
0.0
  0
LINE
  5
15A
330
2
100
AcDbEntity
  8
0
100
AcDbLine
 10
-2.812499999999998
 20
15.02996730924136
 30
0.0
 11
-2.749999999999998
 21
15.02996730924136
 31
0.0
  0
LINE
  5
15B
330
2
100
AcDbEntity
  8
0
100
AcDbLine
 10
-2.812499999999998
 20
15.02996730924136
 30
0.0
 11
-2.749999999999998
 21
15.02996730924136
 31
0.0
  0
ARC
  5
15C
330
2
100
AcDbEntity
  8
0
100
AcDbCircle
 10
-2.343750000000023
 20
14.98268662305318
 30
0.0
 40
0.09375
100
AcDbArc
 50
359.9999999999978
 51
180.0
  0
ARC
  5
15D
330
2
100
AcDbEntity
  8
0
100
AcDbCircle
 10
-2.537761401008774
 20
15.48268662305318
 30
0.0
 40
0.5
100
AcDbArc
 50
244.8824237621802
 51
269.9999999999999
  0
LINE
  5
15E
330
2
100
AcDbEntity
  8
0
100
AcDbLine
 10
-2.537761401008774
 20
14.98268662305318
 30
0.0
 11
-2.437336344359332
 21
14.98268662305318
 31
0.0
  0
LINE
  5
15F
330
2
100
AcDbEntity
  8
0
100
AcDbLine
 10
-2.537761401008774
 20
14.98268662305318
 30
0.0
 11
-2.437500000000023
 21
14.98268662305318
 31
0.0
  0
ARC
  5
160
330
2
100
AcDbEntity
  8
0
100
AcDbCircle
 10
2.537761401008753
 20
15.48268662305318
 30
0.0
 40
0.5
100
AcDbArc
 50
270.0
 51
295.1175762378231
  0
ARC
  5
161
330
2
100
AcDbEntity
  8
0
100
AcDbCircle
 10
2.343750000000005
 20
14.98268662305318
 30
0.0
 40
0.09375
100
AcDbArc
 50
359.9999999999978
 51
180.0
  0
LINE
  5
162
330
2
100
AcDbEntity
  8
0
100
AcDbLine
 10
2.437839283980759
 20
14.98268662305318
 30
0.0
 11
2.537761401008753
 21
14.98268662305318
 31
0.0
  0
LINE
  5
163
330
2
100
AcDbEntity
  8
0
100
AcDbLine
 10
2.437500000000005
 20
14.98268662305318
 30
0.0
 11
2.537761401008753
 21
14.98268662305318
 31
0.0
  0
LINE
  5
164
330
2
100
AcDbEntity
  8
0
100
AcDbLine
 10
2.812500000000002
 20
15.02996730924138
 30
0.0
 11
2.750000000000002
 21
15.02996730924138
 31
0.0
  0
LINE
  5
165
330
2
100
AcDbEntity
  8
0
100
AcDbLine
 10
2.687500000000002
 20
0.0624999999999982
 30
0.0
 11
-2.687499999999998
 21
0.0625000000000018
 31
0.0
  0
LINE
  5
166
330
2
100
AcDbEntity
  8
0
100
AcDbLine
 10
2.687499999999998
 20
-0.0000000000000018
 30
0.0
 11
-2.687499999999998
 21
-0.0000000000000053
 31
0.0
  0
LINE
  5
167
330
2
100
AcDbEntity
  8
0
100
AcDbLine
 10
-4.812499999999998
 20
8.378523959581719
 30
0.0
 11
-4.812499999999998
 21
9.066023959581715
 31
0.0
  0
LINE
  5
168
330
2
100
AcDbEntity
  8
0
100
AcDbLine
 10
-2.812499999999998
 20
0.1249999999999947
 30
0.0
 11
-2.812499999999998
 21
9.066023959581715
 31
0.0
  0
LINE
  5
169
330
2
100
AcDbEntity
  8
0
100
AcDbLine
 10
-2.749999999999998
 20
0.1250000000000018
 30
0.0
 11
-2.749999999999998
 21
9.066023959581719
 31
0.0
  0
LINE
  5
16A
330
2
100
AcDbEntity
  8
0
100
AcDbLine
 10
-4.499999999999998
 20
2.240601157564234
 30
0.0
 11
-4.499999999999998
 21
4.191023959581719
 31
0.0
  0
ARC
  5
16B
330
2
100
AcDbEntity
  8
0
100
AcDbCircle
 10
-2.687499999999998
 20
0.1250000000000018
 30
0.0
 40
0.0625
100
AcDbArc
 50
180.0
 51
269.9999999999998
  0
ARC
  5
16C
330
2
100
AcDbEntity
  8
0
100
AcDbCircle
 10
-2.687499999999998
 20
0.1249999999999947
 30
0.0
 40
0.125
100
AcDbArc
 50
180.0
 51
269.9999999999999
  0
LINE
  5
16D
330
2
100
AcDbEntity
  8
0
100
AcDbLine
 10
-2.812499999999998
 20
0.7314237593828228
 30
0.0
 11
-2.812499999999998
 21
1.008098759382827
 31
0.0
  0
LINE
  5
16F
330
2
100
AcDbEntity
  8
0
100
AcDbLine
 10
-4.194594513699565
 20
1.521199696946821
 30
0.0
 11
-2.812499999999998
 21
0.1867636147541329
 31
0.0
  0
ARC
  5
171
330
2
100
AcDbEntity
  8
0
100
AcDbCircle
 10
-3.499999999999998
 20
2.240601157564234
 30
0.0
 40
1.0
100
AcDbArc
 50
180.0
 51
226.0050860052541
  0
CIRCLE
  5
172
330
2
100
AcDbEntity
  8
0
100
AcDbCircle
 10
-3.312499999999998
 20
1.247234566302216
 30
0.0
 40
0.085937500000002
  0
ARC
  5
173
330
2
100
AcDbEntity
  8
0
100
AcDbCircle
 10
-2.812499999999998
 20
1.870533367718201
 30
0.0
 40
0.1875000000000025
100
AcDbArc
 50
90.0
 51
270.0
  0
CIRCLE
  5
174
330
2
100
AcDbEntity
  8
0
100
AcDbCircle
 10
-4.124999999999998
 20
2.37857395958172
 30
0.0
 40
0.085937500000002
  0
LINE
  5
175
330
2
100
AcDbEntity
  8
0
100
AcDbLine
 10
-2.812499999999998
 20
2.731423759382848
 30
0.0
 11
-2.812499999999998
 21
3.008098759382852
 31
0.0
  0
CIRCLE
  5
178
330
2
100
AcDbEntity
  8
0
100
AcDbCircle
 10
-3.312499999999998
 20
2.746989561292685
 30
0.0
 40
0.085937500000002
  0
LINE
  5
179
330
2
100
AcDbEntity
  8
0
100
AcDbLine
 10
-2.812500000000014
 20
5.918923759382823
 30
0.0
 11
-2.812500000000014
 21
6.195598759382827
 31
0.0
  0
LINE
  5
17B
330
2
100
AcDbEntity
  8
0
100
AcDbLine
 10
-4.499999999999998
 20
5.566023959581719
 30
0.0
 11
-4.499999999999998
 21
6.066023959581719
 31
0.0
  0
LINE
  5
17C
330
2
100
AcDbEntity
  8
0
100
AcDbLine
 10
-4.812499999999998
 20
4.503523959581719
 30
0.0
 11
-4.812499999999998
 21
5.253523959581719
 31
0.0
  0
CIRCLE
  5
17D
330
2
100
AcDbEntity
  8
0
100
AcDbCircle
 10
-3.312499999999998
 20
4.743370235971673
 30
0.0
 40
0.085937500000002
  0
CIRCLE
  5
17E
330
2
100
AcDbEntity
  8
0
100
AcDbCircle
 10
-4.124999999999998
 20
3.87857395958172
 30
0.0
 40
0.085937500000002
  0
LINE
  5
17F
330
2
100
AcDbEntity
  8
0
100
AcDbLine
 10
-4.656249999999998
 20
4.347273959581719
 30
0.0
 11
-4.656249999999998
 21
4.347273959581719
 31
0.0
  0
ARC
  5
180
330
2
100
AcDbEntity
  8
0
100
AcDbCircle
 10
-4.656249999999998
 20
4.503523959581719
 30
0.0
 40
0.15625
100
AcDbArc
 50
180.0
 51
269.9999999999999
  0
ARC
  5
181
330
2
100
AcDbEntity
  8
0
100
AcDbCircle
 10
-4.656249999999998
 20
4.191023959581719
 30
0.0
 40
0.15625
100
AcDbArc
 50
0.0
 51
90.0
  0
CIRCLE
  5
182
330
2
100
AcDbEntity
  8
0
100
AcDbCircle
 10
-3.312499999999998
 20
3.745179898632179
 30
0.0
 40
0.085937500000002
  0
LINE
  5
183
330
2
100
AcDbEntity
  8
0
100
AcDbLine
 10
-2.812499999999998
 20
3.731423759382848
 30
0.0
 11
-2.812499999999998
 21
4.008098759382852
 31
0.0
  0
ARC
  5
186
330
2
100
AcDbEntity
  8
0
100
AcDbCircle
 10
-4.656249999999998
 20
5.253523959581719
 30
0.0
 40
0.15625
100
AcDbArc
 50
90.0
 51
180.0
  0
CIRCLE
  5
187
330
2
100
AcDbEntity
  8
0
100
AcDbCircle
 10
-4.499999999999998
 20
5.034823959581717
 30
0.0
 40
0.085937500000002
  0
LINE
  5
188
330
2
100
AcDbEntity
  8
0
100
AcDbLine
 10
-4.656249999999998
 20
5.918586659780617
 30
0.0
 11
-4.656249999999998
 21
5.918586659780617
 31
0.0
  0
LINE
  5
189
330
2
100
AcDbEntity
  8
0
100
AcDbLine
 10
-4.656249999999998
 20
5.409773959581719
 30
0.0
 11
-4.656249999999998
 21
5.409773959581719
 31
0.0
  0
ARC
  5
18A
330
2
100
AcDbEntity
  8
0
100
AcDbCircle
 10
-4.656249999999998
 20
5.566023959581719
 30
0.0
 40
0.15625
100
AcDbArc
 50
270.0
 51
359.9999999999999
  0
CIRCLE
  5
18B
330
2
100
AcDbEntity
  8
0
100
AcDbCircle
 10
-4.124999999999998
 20
5.878573959581717
 30
0.0
 40
0.085937500000002
  0
CIRCLE
  5
18C
330
2
100
AcDbEntity
  8
0
100
AcDbCircle
 10
-3.312499999999998
 20
5.746855786612846
 30
0.0
 40
0.085937500000002
  0
ARC
  5
18D
330
2
100
AcDbEntity
  8
0
100
AcDbCircle
 10
-4.656249999999998
 20
7.128523959581719
 30
0.0
 40
0.15625
100
AcDbArc
 50
90.0
 51
180.0
  0
LINE
  5
18E
330
2
100
AcDbEntity
  8
0
100
AcDbLine
 10
-4.812499999999998
 20
6.378523959581719
 30
0.0
 11
-4.812499999999998
 21
7.128523959581719
 31
0.0
  0
ARC
  5
18F
330
2
100
AcDbEntity
  8
0
100
AcDbCircle
 10
-4.656249999999998
 20
6.378523959581719
 30
0.0
 40
0.15625
100
AcDbArc
 50
180.0
 51
269.9999999999999
  0
ARC
  5
190
330
2
100
AcDbEntity
  8
0
100
AcDbCircle
 10
-4.656249999999998
 20
6.066023959581719
 30
0.0
 40
0.15625
100
AcDbArc
 50
0.0
 51
90.0
  0
CIRCLE
  5
191
330
2
100
AcDbEntity
  8
0
100
AcDbCircle
 10
-4.499999999999998
 20
6.878573959581717
 30
0.0
 40
0.085937500000002
  0
CIRCLE
  5
193
330
2
100
AcDbEntity
  8
0
100
AcDbCircle
 10
-3.312499999999998
 20
6.743370152929151
 30
0.0
 40
0.085937500000002
  0
CIRCLE
  5
194
330
2
100
AcDbEntity
  8
0
100
AcDbCircle
 10
-4.124999999999998
 20
7.878573959581717
 30
0.0
 40
0.085937500000002
  0
LINE
  5
195
330
2
100
AcDbEntity
  8
0
100
AcDbLine
 10
-4.499999999999998
 20
7.441023959581719
 30
0.0
 11
-4.499999999999998
 21
8.066023959581719
 31
0.0
  0
LINE
  5
196
330
2
100
AcDbEntity
  8
0
100
AcDbLine
 10
-4.656249999999998
 20
7.284773959581719
 30
0.0
 11
-4.656249999999998
 21
7.284773959581719
 31
0.0
  0
ARC
  5
197
330
2
100
AcDbEntity
  8
0
100
AcDbCircle
 10
-4.656249999999998
 20
7.441023959581719
 30
0.0
 40
0.15625
100
AcDbArc
 50
270.0
 51
359.9999999999999
  0
LINE
  5
198
330
2
100
AcDbEntity
  8
0
100
AcDbLine
 10
-4.656249999999998
 20
8.222273959581719
 30
0.0
 11
-4.656249999999998
 21
8.222273959581719
 31
0.0
  0
ARC
  5
199
330
2
100
AcDbEntity
  8
0
100
AcDbCircle
 10
-4.656249999999998
 20
8.378523959581719
 30
0.0
 40
0.15625
100
AcDbArc
 50
180.0
 51
269.9999999999999
  0
ARC
  5
19A
330
2
100
AcDbEntity
  8
0
100
AcDbCircle
 10
-4.656249999999998
 20
8.066023959581719
 30
0.0
 40
0.15625
100
AcDbArc
 50
0.0
 51
90.0
  0
LINE
  5
19B
330
2
100
AcDbEntity
  8
0
100
AcDbLine
 10
-2.812500000000014
 20
7.793749904400839
 30
0.0
 11
-2.812500000000014
 21
8.070424904400843
 31
0.0
  0
CIRCLE
  5
19D
330
2
100
AcDbEntity
  8
0
100
AcDbCircle
 10
-3.312499999999998
 20
7.621989561292685
 30
0.0
 40
0.085937500000002
  0
LINE
  5
19F
330
2
100
AcDbEntity
  8
0
100
AcDbLine
 10
-4.812499999999998
 20
9.066023959581715
 30
0.0
 11
-2.749999999999998
 21
9.066023959581719
 31
0.0
  0
CIRCLE
  5
1A0
330
2
100
AcDbEntity
  8
0
100
AcDbCircle
 10
-4.499999999999998
 20
8.753573959581717
 30
0.0
 40
0.085937500000002
  0
CIRCLE
  5
1A1
330
2
100
AcDbEntity
  8
0
100
AcDbCircle
 10
-3.312499999999998
 20
8.619761259382818
 30
0.0
 40
0.085937500000002
  0
LINE
  5
1A2
330
2
100
AcDbEntity
  8
0
100
AcDbLine
 10
4.812500000000002
 20
8.378523959581715
 30
0.0
 11
4.812500000000002
 21
9.066023959581715
 31
0.0
  0
LINE
  5
1A3
330
2
100
AcDbEntity
  8
0
100
AcDbLine
 10
2.812500000000002
 20
9.066023959581711
 30
0.0
 11
2.812499999999998
 21
0.1249999999999982
 31
0.0
  0
LINE
  5
1A4
330
2
100
AcDbEntity
  8
0
100
AcDbLine
 10
2.750000000000002
 20
9.066023959581711
 30
0.0
 11
2.750000000000002
 21
0.1249999999999982
 31
0.0
  0
LINE
  5
1A5
330
2
100
AcDbEntity
  8
0
100
AcDbLine
 10
4.500000000000002
 20
2.240601157564226
 30
0.0
 11
4.500000000000002
 21
4.191023959581715
 31
0.0
  0
LINE
  5
1A6
330
2
100
AcDbEntity
  8
0
100
AcDbLine
 10
2.812500000000076
 20
3.362469223638909
 30
0.0
 11
2.812500000000076
 21
3.639144223638914
 31
0.0
  0
LINE
  5
1A9
330
2
100
AcDbEntity
  8
0
100
AcDbLine
 10
4.194594513699565
 20
1.521199696946818
 30
0.0
 11
2.812500000000002
 21
0.1867636147541329
 31
0.0
  0
ARC
  5
1AA
330
2
100
AcDbEntity
  8
0
100
AcDbCircle
 10
2.687500000000002
 20
0.1249999999999982
 30
0.0
 40
0.0625
100
AcDbArc
 50
269.9999999999998
 51
0.0
  0
ARC
  5
1AB
330
2
100
AcDbEntity
  8
0
100
AcDbCircle
 10
2.687499999999998
 20
0.1249999999999982
 30
0.0
 40
0.125
100
AcDbArc
 50
270.0000000000001
 51
0.0
  0
LINE
  5
1AC
330
2
100
AcDbEntity
  8
0
100
AcDbLine
 10
2.812500000000076
 20
0.4185168353892106
 30
0.0
 11
2.812500000000076
 21
0.695191835389215
 31
0.0
  0
CIRCLE
  5
1AF
330
2
100
AcDbEntity
  8
0
100
AcDbCircle
 10
4.125000000000002
 20
2.37857395958172
 30
0.0
 40
0.085937500000002
  0
ARC
  5
1B0
330
2
100
AcDbEntity
  8
0
100
AcDbCircle
 10
2.812500000000002
 20
1.870533367718197
 30
0.0
 40
0.1875000000000025
100
AcDbArc
 50
270.0
 51
90.0
  0
CIRCLE
  5
1B1
330
2
100
AcDbEntity
  8
0
100
AcDbCircle
 10
3.312500000000002
 20
1.244761259382822
 30
0.0
 40
0.085937500000002
  0
LINE
  5
1B2
330
2
100
AcDbEntity
  8
0
100
AcDbLine
 10
2.812500000000076
 20
2.22462263758136
 30
0.0
 11
2.812500000000076
 21
2.501297637581365
 31
0.0
  0
CIRCLE
  5
1B5
330
2
100
AcDbEntity
  8
0
100
AcDbCircle
 10
3.312500000000002
 20
2.744761259382822
 30
0.0
 40
0.085937500000002
  0
ARC
  5
1B6
330
2
100
AcDbEntity
  8
0
100
AcDbCircle
 10
3.500000000000002
 20
2.240601157564226
 30
0.0
 40
1.0
100
AcDbArc
 50
313.9949139947457
 51
0.0
  0
LINE
  5
1B7
330
2
100
AcDbEntity
  8
0
100
AcDbLine
 10
4.500000000000002
 20
5.566023959581715
 30
0.0
 11
4.500000000000002
 21
6.066023959581715
 31
0.0
  0
CIRCLE
  5
1B8
330
2
100
AcDbEntity
  8
0
100
AcDbCircle
 10
4.125000000000002
 20
5.878573959581717
 30
0.0
 40
0.085937500000002
  0
CIRCLE
  5
1B9
330
2
100
AcDbEntity
  8
0
100
AcDbCircle
 10
4.125000000000002
 20
3.87857395958172
 30
0.0
 40
0.085937500000002
  0
CIRCLE
  5
1BA
330
2
100
AcDbEntity
  8
0
100
AcDbCircle
 10
3.312500000000002
 20
4.744761259382818
 30
0.0
 40
0.085937500000002
  0
CIRCLE
  5
1BB
330
2
100
AcDbEntity
  8
0
100
AcDbCircle
 10
3.312500000000002
 20
3.744761259382822
 30
0.0
 40
0.085937500000002
  0
LINE
  5
1BC
330
2
100
AcDbEntity
  8
0
100
AcDbLine
 10
2.812500000000076
 20
5.673983084951443
 30
0.0
 11
2.812500000000076
 21
5.950658084951447
 31
0.0
  0
CIRCLE
  5
1BF
330
2
100
AcDbEntity
  8
0
100
AcDbCircle
 10
3.312500000000002
 20
5.744761259382822
 30
0.0
 40
0.085937500000002
  0
LINE
  5
1C0
330
2
100
AcDbEntity
  8
0
100
AcDbLine
 10
4.812500000000002
 20
4.503523959581715
 30
0.0
 11
4.812500000000002
 21
5.253523959581715
 31
0.0
  0
ARC
  5
1C1
330
2
100
AcDbEntity
  8
0
100
AcDbCircle
 10
4.656250000000002
 20
4.191023959581715
 30
0.0
 40
0.15625
100
AcDbArc
 50
89.99999999999999
 51
180.0
  0
LINE
  5
1C2
330
2
100
AcDbEntity
  8
0
100
AcDbLine
 10
4.656250000000002
 20
4.347273959581715
 30
0.0
 11
4.656250000000002
 21
4.347273959581715
 31
0.0
  0
ARC
  5
1C3
330
2
100
AcDbEntity
  8
0
100
AcDbCircle
 10
4.656250000000002
 20
4.503523959581715
 30
0.0
 40
0.15625
100
AcDbArc
 50
270.0000000000001
 51
0.0
  0
ARC
  5
1C4
330
2
100
AcDbEntity
  8
0
100
AcDbCircle
 10
4.656250000000002
 20
5.253523959581715
 30
0.0
 40
0.15625
100
AcDbArc
 50
0.0
 51
89.99999999999999
  0
CIRCLE
  5
1C5
330
2
100
AcDbEntity
  8
0
100
AcDbCircle
 10
4.500000000000002
 20
5.034823959581717
 30
0.0
 40
0.085937500000002
  0
ARC
  5
1C6
330
2
100
AcDbEntity
  8
0
100
AcDbCircle
 10
4.656250000000002
 20
5.566023959581715
 30
0.0
 40
0.15625
100
AcDbArc
 50
180.0000000000001
 51
270.0
  0
LINE
  5
1C7
330
2
100
AcDbEntity
  8
0
100
AcDbLine
 10
4.656250000000002
 20
5.409773959581715
 30
0.0
 11
4.656250000000002
 21
5.409773959581715
 31
0.0
  0
CIRCLE
  5
1C8
330
2
100
AcDbEntity
  8
0
100
AcDbCircle
 10
4.125000000000002
 20
7.878573959581717
 30
0.0
 40
0.085937500000002
  0
CIRCLE
  5
1C9
330
2
100
AcDbEntity
  8
0
100
AcDbCircle
 10
3.312500000000002
 20
6.744761259382818
 30
0.0
 40
0.085937500000002
  0
LINE
  5
1CA
330
2
100
AcDbEntity
  8
0
100
AcDbLine
 10
2.812500000000076
 20
7.668923759382819
 30
0.0
 11
2.812500000000076
 21
7.945598759382824
 31
0.0
  0
CIRCLE
  5
1CD
330
2
100
AcDbEntity
  8
0
100
AcDbCircle
 10
3.312500000000002
 20
7.619761259382818
 30
0.0
 40
0.085937500000002
  0
ARC
  5
1CE
330
2
100
AcDbEntity
  8
0
100
AcDbCircle
 10
4.656250000000002
 20
7.128523959581715
 30
0.0
 40
0.15625
100
AcDbArc
 50
0.0
 51
89.99999999999999
  0
LINE
  5
1CF
330
2
100
AcDbEntity
  8
0
100
AcDbLine
 10
4.812500000000002
 20
6.378523959581715
 30
0.0
 11
4.812500000000002
 21
7.128523959581715
 31
0.0
  0
ARC
  5
1D0
330
2
100
AcDbEntity
  8
0
100
AcDbCircle
 10
4.656250000000002
 20
6.066023959581715
 30
0.0
 40
0.15625
100
AcDbArc
 50
89.99999999999999
 51
180.0
  0
LINE
  5
1D1
330
2
100
AcDbEntity
  8
0
100
AcDbLine
 10
4.656250000000002
 20
6.347273959581715
 30
0.0
 11
4.656250000000002
 21
6.347273959581715
 31
0.0
  0
ARC
  5
1D2
330
2
100
AcDbEntity
  8
0
100
AcDbCircle
 10
4.656250000000002
 20
6.378523959581715
 30
0.0
 40
0.15625
100
AcDbArc
 50
270.0000000000001
 51
0.0
  0
CIRCLE
  5
1D3
330
2
100
AcDbEntity
  8
0
100
AcDbCircle
 10
4.500000000000002
 20
6.878573959581717
 30
0.0
 40
0.085937500000002
  0
LINE
  5
1D4
330
2
100
AcDbEntity
  8
0
100
AcDbLine
 10
4.500000000000002
 20
7.441023959581715
 30
0.0
 11
4.500000000000002
 21
8.066023959581715
 31
0.0
  0
ARC
  5
1D5
330
2
100
AcDbEntity
  8
0
100
AcDbCircle
 10
4.656250000000002
 20
7.441023959581715
 30
0.0
 40
0.15625
100
AcDbArc
 50
180.0000000000001
 51
270.0
  0
LINE
  5
1D6
330
2
100
AcDbEntity
  8
0
100
AcDbLine
 10
4.656250000000002
 20
7.284773959581715
 30
0.0
 11
4.656250000000002
 21
7.284773959581715
 31
0.0
  0
ARC
  5
1D7
330
2
100
AcDbEntity
  8
0
100
AcDbCircle
 10
4.656250000000002
 20
8.066023959581715
 30
0.0
 40
0.15625
100
AcDbArc
 50
89.99999999999999
 51
180.0
  0
LINE
  5
1D8
330
2
100
AcDbEntity
  8
0
100
AcDbLine
 10
4.656250000000002
 20
8.222273959581715
 30
0.0
 11
4.656250000000002
 21
8.222273959581715
 31
0.0
  0
ARC
  5
1D9
330
2
100
AcDbEntity
  8
0
100
AcDbCircle
 10
4.656250000000002
 20
8.378523959581715
 30
0.0
 40
0.15625
100
AcDbArc
 50
270.0000000000001
 51
0.0
  0
LINE
  5
1DA
330
2
100
AcDbEntity
  8
0
100
AcDbLine
 10
4.812500000000002
 20
9.066023959581715
 30
0.0
 11
2.750000000000002
 21
9.066023959581715
 31
0.0
  0
CIRCLE
  5
1DB
330
2
100
AcDbEntity
  8
0
100
AcDbCircle
 10
3.312500000000002
 20
8.619761259382818
 30
0.0
 40
0.085937500000002
  0
CIRCLE
  5
1DC
330
2
100
AcDbEntity
  8
0
100
AcDbCircle
 10
4.500000000000002
 20
8.753573959581717
 30
0.0
 40
0.085937500000002
  0
LINE
  5
1DD
330
2
100
AcDbEntity
  8
0
100
AcDbLine
 10
13.9066288275429
 20
9.074469732454423
 30
0.0
 11
12.8441288275429
 21
9.074469732454423
 31
0.0
  0
LINE
  5
1DE
330
2
100
AcDbEntity
  8
0
100
AcDbLine
 10
13.9066288275429
 20
0.2707357309112322
 30
0.0
 11
13.8441288275429
 21
0.2707357309112322
 31
0.0
  0
ARC
  5
1DF
330
2
100
AcDbEntity
  8
0
100
AcDbCircle
 10
12.6878788275429
 20
8.511969732454423
 30
0.0
 40
0.15625
100
AcDbArc
 50
270.0000000000001
 51
0.0
  0
LINE
  5
1E0
330
2
100
AcDbEntity
  8
0
100
AcDbLine
 10
13.8441288275429
 20
9.074469732454423
 30
0.0
 11
13.84412882754295
 21
0.2707357309112322
 31
0.0
  0
LINE
  5
1E1
330
2
100
AcDbEntity
  8
0
100
AcDbLine
 10
12.5316288275429
 20
2.326807614001877
 30
0.0
 11
12.5316288275429
 21
4.199469732454423
 31
0.0
  0
LINE
  5
1E2
330
2
100
AcDbEntity
  8
0
100
AcDbLine
 10
12.22622334124247
 20
1.607406153384465
 30
0.0
 11
10.87183157069312
 21
0.299717547336817
 31
0.0
  0
LINE
  5
1E3
330
2
100
AcDbEntity
  8
0
  6
HIDDEN
100
AcDbLine
 10
10.76640951373112
 20
0.1522554160193703
 30
0.0
 11
13.76640951373109
 21
0.1522554160193703
 31
0.0
  0
LINE
  5
1E4
330
2
100
AcDbEntity
  8
0
100
AcDbLine
 10
10.76640951373112
 20
0.0897554160193703
 30
0.0
 11
13.76640951373109
 21
0.0897554160193703
 31
0.0
  0
ARC
  5
1E5
330
2
100
AcDbEntity
  8
0
100
AcDbCircle
 10
11.2191288275429
 20
-0.0599831829718855
 30
0.0
 40
0.5
100
AcDbArc
 50
133.9949139947459
 51
154.882423762177
  0
LINE
  5
1E6
330
2
100
AcDbEntity
  8
0
100
AcDbLine
 10
10.76640951373112
 20
0.1522554160193703
 30
0.0
 11
10.76640951373112
 21
0.0897554160193703
 31
0.0
  0
ARC
  5
1E7
330
2
100
AcDbEntity
  8
0
100
AcDbCircle
 10
14.2191288275429
 20
-0.0599831829718855
 30
0.0
 40
0.5
100
AcDbArc
 50
138.5903778907218
 51
154.8824237621768
  0
LINE
  5
1E8
330
2
100
AcDbEntity
  8
0
100
AcDbLine
 10
13.76640951373109
 20
0.1522554160193703
 30
0.0
 11
13.76640951373109
 21
0.0897554160193703
 31
0.0
  0
ARC
  5
1EA
330
2
100
AcDbEntity
  8
0
100
AcDbCircle
 10
11.5316288275429
 20
2.326807614001877
 30
0.0
 40
1.0
100
AcDbArc
 50
313.9949139947459
 51
0.0
  0
ARC
  5
1EB
330
2
100
AcDbEntity
  8
0
100
AcDbCircle
 10
13.8441288275429
 20
2.02725541601937
 30
0.0
 40
0.1875000000000025
100
AcDbArc
 50
90.0
 51
270.0
  0
LINE
  5
1EE
330
2
100
AcDbEntity
  8
0
100
AcDbLine
 10
12.5316288275429
 20
5.824469732454423
 30
0.0
 11
12.5316288275429
 21
6.324469732454423
 31
0.0
  0
LINE
  5
1EF
330
2
100
AcDbEntity
  8
0
100
AcDbLine
 10
12.8441288275429
 20
4.511969732454423
 30
0.0
 11
12.8441288275429
 21
5.511969732454423
 31
0.0
  0
ARC
  5
1F0
330
2
100
AcDbEntity
  8
0
100
AcDbCircle
 10
12.6878788275429
 20
4.511969732454423
 30
0.0
 40
0.15625
100
AcDbArc
 50
270.0000000000001
 51
0.0
  0
LINE
  5
1F1
330
2
100
AcDbEntity
  8
0
100
AcDbLine
 10
12.6878788275429
 20
4.355719732454423
 30
0.0
 11
12.6878788275429
 21
4.355719732454423
 31
0.0
  0
ARC
  5
1F2
330
2
100
AcDbEntity
  8
0
100
AcDbCircle
 10
12.6878788275429
 20
4.199469732454423
 30
0.0
 40
0.15625
100
AcDbArc
 50
90.0
 51
180.0
  0
ARC
  5
1F4
330
2
100
AcDbEntity
  8
0
100
AcDbCircle
 10
12.6878788275429
 20
5.511969732454423
 30
0.0
 40
0.15625
100
AcDbArc
 50
0.0
 51
90.0
  0
LINE
  5
1F5
330
2
100
AcDbEntity
  8
0
100
AcDbLine
 10
12.6878788275429
 20
5.668219732454423
 30
0.0
 11
12.6878788275429
 21
5.668219732454423
 31
0.0
  0
ARC
  5
1F6
330
2
100
AcDbEntity
  8
0
100
AcDbCircle
 10
12.6878788275429
 20
5.824469732454423
 30
0.0
 40
0.15625
100
AcDbArc
 50
180.0000000000001
 51
270.0
  0
LINE
  5
1F7
330
2
100
AcDbEntity
  8
0
100
AcDbLine
 10
12.8441288275429
 20
6.636969732454423
 30
0.0
 11
12.8441288275429
 21
7.261969732454423
 31
0.0
  0
ARC
  5
1F8
330
2
100
AcDbEntity
  8
0
100
AcDbCircle
 10
12.6878788275429
 20
6.636969732454423
 30
0.0
 40
0.15625
100
AcDbArc
 50
270.0000000000001
 51
0.0
  0
LINE
  5
1F9
330
2
100
AcDbEntity
  8
0
100
AcDbLine
 10
12.6878788275429
 20
6.480719732454423
 30
0.0
 11
12.6878788275429
 21
6.480719732454423
 31
0.0
  0
ARC
  5
1FA
330
2
100
AcDbEntity
  8
0
100
AcDbCircle
 10
12.6878788275429
 20
6.324469732454423
 30
0.0
 40
0.15625
100
AcDbArc
 50
90.0
 51
180.0
  0
ARC
  5
1FB
330
2
100
AcDbEntity
  8
0
100
AcDbCircle
 10
12.6878788275429
 20
7.261969732454423
 30
0.0
 40
0.15625
100
AcDbArc
 50
0.0
 51
90.0
  0
LINE
  5
1FC
330
2
100
AcDbEntity
  8
0
100
AcDbLine
 10
12.5316288275429
 20
7.574469732454423
 30
0.0
 11
12.5316288275429
 21
8.199469732454423
 31
0.0
  0
LINE
  5
1FD
330
2
100
AcDbEntity
  8
0
100
AcDbLine
 10
12.6878788275429
 20
7.418219732454423
 30
0.0
 11
12.6878788275429
 21
7.418219732454423
 31
0.0
  0
ARC
  5
1FE
330
2
100
AcDbEntity
  8
0
100
AcDbCircle
 10
12.6878788275429
 20
7.574469732454423
 30
0.0
 40
0.15625
100
AcDbArc
 50
180.0000000000001
 51
270.0
  0
LINE
  5
1FF
330
2
100
AcDbEntity
  8
0
100
AcDbLine
 10
12.6878788275429
 20
8.355719732454423
 30
0.0
 11
12.6878788275429
 21
8.355719732454423
 31
0.0
  0
ARC
  5
200
330
2
100
AcDbEntity
  8
0
100
AcDbCircle
 10
12.6878788275429
 20
8.199469732454423
 30
0.0
 40
0.15625
100
AcDbArc
 50
90.0
 51
180.0
  0
LINE
  5
202
330
2
100
AcDbEntity
  8
0
100
AcDbLine
 10
12.8441288275429
 20
8.511969732454423
 30
0.0
 11
12.8441288275429
 21
9.074469732454423
 31
0.0
  0
LINE
  5
203
330
2
100
AcDbEntity
  8
0
100
AcDbLine
 10
13.9066288275429
 20
9.074469732454423
 30
0.0
 11
13.9066288275429
 21
0.2707357309112322
 31
0.0
  0
ARC
  5
204
330
2
100
AcDbEntity
  8
0
100
AcDbCircle
 10
-2.812499999999994
 20
0.8075575324495556
 30
0.0
 40
0.0468087730667328
100
AcDbArc
 50
237.3920789847987
 51
269.9999999999945
  0
ARC
  5
205
330
2
100
AcDbEntity
  8
0
100
AcDbCircle
 10
-2.793457495708217
 20
0.8373243991936388
 30
0.0
 40
0.0821454866301413
100
AcDbArc
 50
212.9226719024481
 51
237.3920789848042
  0
ARC
  5
206
330
2
100
AcDbEntity
  8
0
100
AcDbCircle
 10
-2.76319958439517
 20
0.8569161081899122
 30
0.0
 40
0.1181923486076133
100
AcDbArc
 50
195.0133710020014
 51
212.9226719024539
  0
ARC
  5
207
330
2
100
AcDbEntity
  8
0
100
AcDbCircle
 10
-2.715305538061833
 20
0.8697612593828179
 30
0.0
 40
0.1677790160026745
100
AcDbArc
 50
179.9999999999964
 51
195.0133710019935
  0
ARC
  5
208
330
2
100
AcDbEntity
  8
0
100
AcDbCircle
 10
-2.715305538061864
 20
0.8697612593828321
 30
0.0
 40
0.167779016002644
100
AcDbArc
 50
164.9866289980037
 51
180.0000000000013
  0
ARC
  5
209
330
2
100
AcDbEntity
  8
0
100
AcDbCircle
 10
-2.763199584395174
 20
0.8826064105757379
 30
0.0
 40
0.1181923486076092
100
AcDbArc
 50
147.077328097545
 51
164.986628997998
  0
ARC
  5
20A
330
2
100
AcDbEntity
  8
0
100
AcDbCircle
 10
-2.793457495708215
 20
0.9021981195720077
 30
0.0
 40
0.0821454866301453
100
AcDbArc
 50
122.6079210151955
 51
147.0773280975505
  0
ARC
  5
20B
330
2
100
AcDbEntity
  8
0
100
AcDbCircle
 10
-2.812499999999994
 20
0.9319649863160944
 30
0.0
 40
0.0468087730667332
100
AcDbArc
 50
90.00000000000543
 51
122.6079210152013
  0
ARC
  5
20C
330
2
100
AcDbEntity
  8
0
100
AcDbCircle
 10
-2.812499999999995
 20
0.8221270100059126
 30
0.0
 40
0.0320532506230897
100
AcDbArc
 50
236.4891770443244
 51
269.9999999999936
  0
ARC
  5
20D
330
2
100
AcDbEntity
  8
0
100
AcDbCircle
 10
-2.797424981436208
 20
0.8448935336205405
 30
0.0
 40
0.0593583926698527
100
AcDbArc
 50
212.0281066666074
 51
236.4891770443289
  0
ARC
  5
20E
330
2
100
AcDbEntity
  8
0
100
AcDbCircle
 10
-2.773421555912525
 20
0.8599089162423379
 30
0.0
 40
0.0876713959042323
100
AcDbArc
 50
194.5265478168115
 51
212.0281066666223
  0
ARC
  5
20F
330
2
100
AcDbEntity
  8
0
100
AcDbCircle
 10
-2.735398060736391
 20
0.8697612593828037
 30
0.0
 40
0.1269505869698208
100
AcDbArc
 50
179.9999999999888
 51
194.5265478167859
  0
ARC
  5
210
330
2
100
AcDbEntity
  8
0
100
AcDbCircle
 10
-2.735398060736419
 20
0.8697612593828534
 30
0.0
 40
0.1269505869697927
100
AcDbArc
 50
165.4734521832141
 51
180.0000000000112
  0
ARC
  5
211
330
2
100
AcDbEntity
  8
0
100
AcDbCircle
 10
-2.77342155591253
 20
0.8796136025233121
 30
0.0
 40
0.0876713959042278
100
AcDbArc
 50
147.9718933333758
 51
165.4734521831877
  0
ARC
  5
212
330
2
100
AcDbEntity
  8
0
100
AcDbCircle
 10
-2.797424981436208
 20
0.8946289851451095
 30
0.0
 40
0.0593583926698527
100
AcDbArc
 50
123.5108229556711
 51
147.9718933333926
  0
ARC
  5
213
330
2
100
AcDbEntity
  8
0
100
AcDbCircle
 10
-2.812499999999995
 20
0.9173955087597374
 30
0.0
 40
0.0320532506230895
100
AcDbArc
 50
90.00000000000637
 51
123.5108229556756
  0
ARC
  5
214
330
2
100
AcDbEntity
  8
0
100
AcDbCircle
 10
-2.812499999999995
 20
2.822127010005934
 30
0.0
 40
0.0320532506230862
100
AcDbArc
 50
236.4891770443209
 51
269.9999999999936
  0
ARC
  5
215
330
2
100
AcDbEntity
  8
0
100
AcDbCircle
 10
-2.797424981436208
 20
2.844893533620565
 30
0.0
 40
0.0593583926698527
100
AcDbArc
 50
212.0281066666074
 51
236.4891770443289
  0
ARC
  5
216
330
2
100
AcDbEntity
  8
0
100
AcDbCircle
 10
-2.773421555912525
 20
2.859908916242366
 30
0.0
 40
0.0876713959042342
100
AcDbArc
 50
194.5265478168137
 51
212.0281066666243
  0
ARC
  5
217
330
2
100
AcDbEntity
  8
0
100
AcDbCircle
 10
-2.735398060736391
 20
2.869761259382825
 30
0.0
 40
0.1269505869698199
100
AcDbArc
 50
179.9999999999872
 51
194.5265478167843
  0
ARC
  5
218
330
2
100
AcDbEntity
  8
0
100
AcDbCircle
 10
-2.735398060736419
 20
2.869761259382875
 30
0.0
 40
0.1269505869697927
100
AcDbArc
 50
165.4734521832125
 51
180.0000000000096
  0
ARC
  5
219
330
2
100
AcDbEntity
  8
0
100
AcDbCircle
 10
-2.77342155591253
 20
2.879613602523337
 30
0.0
 40
0.0876713959042278
100
AcDbArc
 50
147.9718933333758
 51
165.4734521831877
  0
ARC
  5
21A
330
2
100
AcDbEntity
  8
0
100
AcDbCircle
 10
-2.797424981436208
 20
2.894628985145134
 30
0.0
 40
0.0593583926698527
100
AcDbArc
 50
123.5108229556711
 51
147.9718933333926
  0
ARC
  5
21B
330
2
100
AcDbEntity
  8
0
100
AcDbCircle
 10
-2.812499999999995
 20
2.917395508759762
 30
0.0
 40
0.0320532506230895
100
AcDbArc
 50
90.00000000000637
 51
123.5108229556756
  0
ARC
  5
21C
330
2
100
AcDbEntity
  8
0
100
AcDbCircle
 10
-2.812499999999994
 20
2.807557532449584
 30
0.0
 40
0.0468087730667364
100
AcDbArc
 50
237.3920789848011
 51
269.9999999999945
  0
ARC
  5
21D
330
2
100
AcDbEntity
  8
0
100
AcDbCircle
 10
-2.793457495708217
 20
2.837324399193667
 30
0.0
 40
0.0821454866301443
100
AcDbArc
 50
212.9226719024502
 51
237.3920789848056
  0
ARC
  5
21E
330
2
100
AcDbEntity
  8
0
100
AcDbCircle
 10
-2.76319958439517
 20
2.856916108189937
 30
0.0
 40
0.1181923486076133
100
AcDbArc
 50
195.0133710020014
 51
212.9226719024539
  0
ARC
  5
21F
330
2
100
AcDbEntity
  8
0
100
AcDbCircle
 10
-2.715305538061833
 20
2.869761259382846
 30
0.0
 40
0.1677790160026754
100
AcDbArc
 50
179.9999999999976
 51
195.0133710019947
  0
ARC
  5
220
330
2
100
AcDbEntity
  8
0
100
AcDbCircle
 10
-2.715305538061864
 20
2.869761259382861
 30
0.0
 40
0.167779016002644
100
AcDbArc
 50
164.9866289980049
 51
180.0000000000024
  0
ARC
  5
221
330
2
100
AcDbEntity
  8
0
100
AcDbCircle
 10
-2.763199584395174
 20
2.882606410575766
 30
0.0
 40
0.1181923486076083
100
AcDbArc
 50
147.0773280975464
 51
164.9866289979997
  0
ARC
  5
222
330
2
100
AcDbEntity
  8
0
100
AcDbCircle
 10
-2.793457495708215
 20
2.902198119572033
 30
0.0
 40
0.0821454866301453
100
AcDbArc
 50
122.6079210151955
 51
147.0773280975505
  0
ARC
  5
223
330
2
100
AcDbEntity
  8
0
100
AcDbCircle
 10
-2.812499999999994
 20
2.931964986316116
 30
0.0
 40
0.0468087730667362
100
AcDbArc
 50
90.00000000000543
 51
122.6079210151989
  0
ARC
  5
224
330
2
100
AcDbEntity
  8
0
100
AcDbCircle
 10
-2.81250000000001
 20
5.995057532449556
 30
0.0
 40
0.0468087730667328
100
AcDbArc
 50
237.3920789847987
 51
269.9999999999945
  0
ARC
  5
225
330
2
100
AcDbEntity
  8
0
100
AcDbCircle
 10
-2.793457495708233
 20
6.024824399193639
 30
0.0
 40
0.0821454866301413
100
AcDbArc
 50
212.9226719024481
 51
237.3920789848042
  0
ARC
  5
226
330
2
100
AcDbEntity
  8
0
100
AcDbCircle
 10
-2.763199584395186
 20
6.044416108189912
 30
0.0
 40
0.1181923486076133
100
AcDbArc
 50
195.0133710020014
 51
212.9226719024539
  0
ARC
  5
227
330
2
100
AcDbEntity
  8
0
100
AcDbCircle
 10
-2.715305538061849
 20
6.057261259382818
 30
0.0
 40
0.1677790160026745
100
AcDbArc
 50
179.9999999999964
 51
195.0133710019935
  0
ARC
  5
228
330
2
100
AcDbEntity
  8
0
100
AcDbCircle
 10
-2.71530553806188
 20
6.057261259382832
 30
0.0
 40
0.167779016002644
100
AcDbArc
 50
164.9866289980037
 51
180.0000000000013
  0
ARC
  5
229
330
2
100
AcDbEntity
  8
0
100
AcDbCircle
 10
-2.76319958439519
 20
6.070106410575738
 30
0.0
 40
0.1181923486076092
100
AcDbArc
 50
147.077328097545
 51
164.986628997998
  0
ARC
  5
22A
330
2
100
AcDbEntity
  8
0
100
AcDbCircle
 10
-2.793457495708231
 20
6.089698119572008
 30
0.0
 40
0.0821454866301453
100
AcDbArc
 50
122.6079210151955
 51
147.0773280975505
  0
ARC
  5
22B
330
2
100
AcDbEntity
  8
0
100
AcDbCircle
 10
-2.81250000000001
 20
6.119464986316094
 30
0.0
 40
0.0468087730667332
100
AcDbArc
 50
90.00000000000543
 51
122.6079210152013
  0
ARC
  5
22C
330
2
100
AcDbEntity
  8
0
100
AcDbCircle
 10
-2.812499999999995
 20
3.822127010005934
 30
0.0
 40
0.0320532506230862
100
AcDbArc
 50
236.4891770443209
 51
269.9999999999936
  0
ARC
  5
22D
330
2
100
AcDbEntity
  8
0
100
AcDbCircle
 10
-2.797424981436208
 20
3.844893533620565
 30
0.0
 40
0.0593583926698527
100
AcDbArc
 50
212.0281066666074
 51
236.4891770443289
  0
ARC
  5
22E
330
2
100
AcDbEntity
  8
0
100
AcDbCircle
 10
-2.773421555912525
 20
3.859908916242366
 30
0.0
 40
0.0876713959042342
100
AcDbArc
 50
194.5265478168137
 51
212.0281066666243
  0
ARC
  5
22F
330
2
100
AcDbEntity
  8
0
100
AcDbCircle
 10
-2.735398060736391
 20
3.869761259382825
 30
0.0
 40
0.1269505869698199
100
AcDbArc
 50
179.9999999999872
 51
194.5265478167843
  0
ARC
  5
230
330
2
100
AcDbEntity
  8
0
100
AcDbCircle
 10
-2.735398060736419
 20
3.869761259382875
 30
0.0
 40
0.1269505869697927
100
AcDbArc
 50
165.4734521832125
 51
180.0000000000096
  0
ARC
  5
231
330
2
100
AcDbEntity
  8
0
100
AcDbCircle
 10
-2.77342155591253
 20
3.879613602523337
 30
0.0
 40
0.0876713959042278
100
AcDbArc
 50
147.9718933333758
 51
165.4734521831877
  0
ARC
  5
232
330
2
100
AcDbEntity
  8
0
100
AcDbCircle
 10
-2.797424981436208
 20
3.894628985145134
 30
0.0
 40
0.0593583926698527
100
AcDbArc
 50
123.5108229556711
 51
147.9718933333926
  0
ARC
  5
233
330
2
100
AcDbEntity
  8
0
100
AcDbCircle
 10
-2.812499999999995
 20
3.917395508759762
 30
0.0
 40
0.0320532506230895
100
AcDbArc
 50
90.00000000000637
 51
123.5108229556756
  0
ARC
  5
234
330
2
100
AcDbEntity
  8
0
100
AcDbCircle
 10
-2.812499999999994
 20
3.807557532449584
 30
0.0
 40
0.0468087730667364
100
AcDbArc
 50
237.3920789848011
 51
269.9999999999945
  0
ARC
  5
235
330
2
100
AcDbEntity
  8
0
100
AcDbCircle
 10
-2.793457495708217
 20
3.837324399193667
 30
0.0
 40
0.0821454866301443
100
AcDbArc
 50
212.9226719024502
 51
237.3920789848056
  0
ARC
  5
236
330
2
100
AcDbEntity
  8
0
100
AcDbCircle
 10
-2.76319958439517
 20
3.856916108189937
 30
0.0
 40
0.1181923486076133
100
AcDbArc
 50
195.0133710020014
 51
212.9226719024539
  0
ARC
  5
237
330
2
100
AcDbEntity
  8
0
100
AcDbCircle
 10
-2.715305538061833
 20
3.869761259382846
 30
0.0
 40
0.1677790160026754
100
AcDbArc
 50
179.9999999999976
 51
195.0133710019947
  0
ARC
  5
238
330
2
100
AcDbEntity
  8
0
100
AcDbCircle
 10
-2.715305538061864
 20
3.869761259382861
 30
0.0
 40
0.167779016002644
100
AcDbArc
 50
164.9866289980049
 51
180.0000000000024
  0
ARC
  5
239
330
2
100
AcDbEntity
  8
0
100
AcDbCircle
 10
-2.763199584395174
 20
3.882606410575766
 30
0.0
 40
0.1181923486076083
100
AcDbArc
 50
147.0773280975464
 51
164.9866289979997
  0
ARC
  5
23A
330
2
100
AcDbEntity
  8
0
100
AcDbCircle
 10
-2.793457495708215
 20
3.902198119572033
 30
0.0
 40
0.0821454866301453
100
AcDbArc
 50
122.6079210151955
 51
147.0773280975505
  0
ARC
  5
23B
330
2
100
AcDbEntity
  8
0
100
AcDbCircle
 10
-2.812499999999994
 20
3.931964986316116
 30
0.0
 40
0.0468087730667362
100
AcDbArc
 50
90.00000000000543
 51
122.6079210151989
  0
ARC
  5
23C
330
2
100
AcDbEntity
  8
0
100
AcDbCircle
 10
-2.812500000000011
 20
7.884453155023925
 30
0.0
 40
0.0320532506230862
100
AcDbArc
 50
236.4891770443209
 51
269.9999999999936
  0
ARC
  5
23D
330
2
100
AcDbEntity
  8
0
100
AcDbCircle
 10
-2.797424981436224
 20
7.907219678638557
 30
0.0
 40
0.0593583926698527
100
AcDbArc
 50
212.0281066666074
 51
236.4891770443289
  0
ARC
  5
23E
330
2
100
AcDbEntity
  8
0
100
AcDbCircle
 10
-2.773421555912541
 20
7.922235061260357
 30
0.0
 40
0.0876713959042342
100
AcDbArc
 50
194.5265478168137
 51
212.0281066666243
  0
ARC
  5
23F
330
2
100
AcDbEntity
  8
0
100
AcDbCircle
 10
-2.735398060736407
 20
7.932087404400816
 30
0.0
 40
0.1269505869698199
100
AcDbArc
 50
179.9999999999872
 51
194.5265478167843
  0
ARC
  5
240
330
2
100
AcDbEntity
  8
0
100
AcDbCircle
 10
-2.735398060736435
 20
7.932087404400866
 30
0.0
 40
0.1269505869697927
100
AcDbArc
 50
165.4734521832125
 51
180.0000000000096
  0
ARC
  5
241
330
2
100
AcDbEntity
  8
0
100
AcDbCircle
 10
-2.773421555912546
 20
7.941939747541328
 30
0.0
 40
0.0876713959042278
100
AcDbArc
 50
147.9718933333758
 51
165.4734521831877
  0
ARC
  5
242
330
2
100
AcDbEntity
  8
0
100
AcDbCircle
 10
-2.797424981436224
 20
7.956955130163125
 30
0.0
 40
0.0593583926698527
100
AcDbArc
 50
123.5108229556711
 51
147.9718933333926
  0
ARC
  5
243
330
2
100
AcDbEntity
  8
0
100
AcDbCircle
 10
-2.812500000000011
 20
7.979721653777753
 30
0.0
 40
0.0320532506230895
100
AcDbArc
 50
90.00000000000637
 51
123.5108229556756
  0
ARC
  5
244
330
2
100
AcDbEntity
  8
0
100
AcDbCircle
 10
-2.81250000000001
 20
7.869883677467575
 30
0.0
 40
0.0468087730667364
100
AcDbArc
 50
237.3920789848011
 51
269.9999999999945
  0
ARC
  5
245
330
2
100
AcDbEntity
  8
0
100
AcDbCircle
 10
-2.793457495708233
 20
7.899650544211658
 30
0.0
 40
0.0821454866301443
100
AcDbArc
 50
212.9226719024502
 51
237.3920789848056
  0
ARC
  5
246
330
2
100
AcDbEntity
  8
0
100
AcDbCircle
 10
-2.763199584395186
 20
7.919242253207928
 30
0.0
 40
0.1181923486076133
100
AcDbArc
 50
195.0133710020014
 51
212.9226719024539
  0
ARC
  5
247
330
2
100
AcDbEntity
  8
0
100
AcDbCircle
 10
-2.715305538061849
 20
7.932087404400837
 30
0.0
 40
0.1677790160026754
100
AcDbArc
 50
179.9999999999976
 51
195.0133710019947
  0
ARC
  5
248
330
2
100
AcDbEntity
  8
0
100
AcDbCircle
 10
-2.71530553806188
 20
7.932087404400852
 30
0.0
 40
0.167779016002644
100
AcDbArc
 50
164.9866289980049
 51
180.0000000000024
  0
ARC
  5
249
330
2
100
AcDbEntity
  8
0
100
AcDbCircle
 10
-2.76319958439519
 20
7.944932555593757
 30
0.0
 40
0.1181923486076083
100
AcDbArc
 50
147.0773280975464
 51
164.9866289979997
  0
ARC
  5
24A
330
2
100
AcDbEntity
  8
0
100
AcDbCircle
 10
-2.793457495708231
 20
7.964524264590024
 30
0.0
 40
0.0821454866301453
100
AcDbArc
 50
122.6079210151955
 51
147.0773280975505
  0
ARC
  5
24B
330
2
100
AcDbEntity
  8
0
100
AcDbCircle
 10
-2.81250000000001
 20
7.994291131334107
 30
0.0
 40
0.0468087730667362
100
AcDbArc
 50
90.00000000000543
 51
122.6079210151989
  0
ARC
  5
24C
330
2
100
AcDbEntity
  8
0
100
AcDbCircle
 10
-2.812500000000011
 20
6.009627010005913
 30
0.0
 40
0.0320532506230897
100
AcDbArc
 50
236.4891770443244
 51
269.9999999999936
  0
ARC
  5
24D
330
2
100
AcDbEntity
  8
0
100
AcDbCircle
 10
-2.797424981436224
 20
6.032393533620541
 30
0.0
 40
0.0593583926698527
100
AcDbArc
 50
212.0281066666074
 51
236.4891770443289
  0
ARC
  5
24E
330
2
100
AcDbEntity
  8
0
100
AcDbCircle
 10
-2.773421555912541
 20
6.047408916242338
 30
0.0
 40
0.0876713959042323
100
AcDbArc
 50
194.5265478168115
 51
212.0281066666223
  0
ARC
  5
24F
330
2
100
AcDbEntity
  8
0
100
AcDbCircle
 10
-2.735398060736407
 20
6.057261259382804
 30
0.0
 40
0.1269505869698208
100
AcDbArc
 50
179.9999999999888
 51
194.5265478167859
  0
ARC
  5
250
330
2
100
AcDbEntity
  8
0
100
AcDbCircle
 10
-2.735398060736435
 20
6.057261259382853
 30
0.0
 40
0.1269505869697927
100
AcDbArc
 50
165.4734521832141
 51
180.0000000000112
  0
ARC
  5
251
330
2
100
AcDbEntity
  8
0
100
AcDbCircle
 10
-2.773421555912546
 20
6.067113602523312
 30
0.0
 40
0.0876713959042278
100
AcDbArc
 50
147.9718933333758
 51
165.4734521831877
  0
ARC
  5
252
330
2
100
AcDbEntity
  8
0
100
AcDbCircle
 10
-2.797424981436224
 20
6.08212898514511
 30
0.0
 40
0.0593583926698527
100
AcDbArc
 50
123.5108229556711
 51
147.9718933333926
  0
ARC
  5
253
330
2
100
AcDbEntity
  8
0
100
AcDbCircle
 10
-2.812500000000011
 20
6.104895508759737
 30
0.0
 40
0.0320532506230895
100
AcDbArc
 50
90.00000000000637
 51
123.5108229556756
  0
ARC
  5
254
330
2
100
AcDbEntity
  8
0
100
AcDbCircle
 10
2.812500000000073
 20
3.453172474261995
 30
0.0
 40
0.0320532506230862
100
AcDbArc
 50
270.0000000000064
 51
303.5108229556791
  0
ARC
  5
255
330
2
100
AcDbEntity
  8
0
100
AcDbCircle
 10
2.797424981436286
 20
3.475938997876627
 30
0.0
 40
0.0593583926698527
100
AcDbArc
 50
303.5108229556711
 51
327.9718933333926
  0
ARC
  5
256
330
2
100
AcDbEntity
  8
0
100
AcDbCircle
 10
2.773421555912604
 20
3.490954380498428
 30
0.0
 40
0.0876713959042334
100
AcDbArc
 50
327.9718933333754
 51
345.4734521831862
  0
ARC
  5
257
330
2
100
AcDbEntity
  8
0
100
AcDbCircle
 10
2.73539806073647
 20
3.500806723638887
 30
0.0
 40
0.126950586969819
100
AcDbArc
 50
345.4734521832155
 51
0.0000000000128274
  0
ARC
  5
258
330
2
100
AcDbEntity
  8
0
100
AcDbCircle
 10
2.735398060736497
 20
3.500806723638936
 30
0.0
 40
0.1269505869697927
100
AcDbArc
 50
359.9999999999904
 51
14.52654781678748
  0
ARC
  5
259
330
2
100
AcDbEntity
  8
0
100
AcDbCircle
 10
2.773421555912609
 20
3.510659066779398
 30
0.0
 40
0.087671395904227
100
AcDbArc
 50
14.52654781681249
 51
32.0281066666245
  0
ARC
  5
25A
330
2
100
AcDbEntity
  8
0
100
AcDbCircle
 10
2.797424981436286
 20
3.525674449401196
 30
0.0
 40
0.0593583926698527
100
AcDbArc
 50
32.02810666660741
 51
56.48917704432887
  0
ARC
  5
25B
330
2
100
AcDbEntity
  8
0
100
AcDbCircle
 10
2.812500000000073
 20
3.548440973015824
 30
0.0
 40
0.0320532506230895
100
AcDbArc
 50
56.48917704432444
 51
89.99999999999365
  0
ARC
  5
25C
330
2
100
AcDbEntity
  8
0
100
AcDbCircle
 10
2.812500000000073
 20
3.438602996705646
 30
0.0
 40
0.0468087730667364
100
AcDbArc
 50
270.0000000000044
 51
302.607921015198
  0
ARC
  5
25D
330
2
100
AcDbEntity
  8
0
100
AcDbCircle
 10
2.793457495708296
 20
3.468369863449729
 30
0.0
 40
0.0821454866301438
100
AcDbArc
 50
302.6079210151939
 51
327.0773280975494
  0
ARC
  5
25E
330
2
100
AcDbEntity
  8
0
100
AcDbCircle
 10
2.763199584395249
 20
3.487961572445999
 30
0.0
 40
0.1181923486076126
100
AcDbArc
 50
327.0773280975459
 51
344.9866289979984
  0
ARC
  5
25F
330
2
100
AcDbEntity
  8
0
100
AcDbCircle
 10
2.715305538061912
 20
3.500806723638908
 30
0.0
 40
0.1677790160026746
100
AcDbArc
 50
344.9866289980052
 51
0.0000000000024265
  0
ARC
  5
260
330
2
100
AcDbEntity
  8
0
100
AcDbCircle
 10
2.715305538061942
 20
3.500806723638922
 30
0.0
 40
0.167779016002644
100
AcDbArc
 50
359.9999999999976
 51
15.0133710019951
  0
ARC
  5
261
330
2
100
AcDbEntity
  8
0
100
AcDbCircle
 10
2.763199584395252
 20
3.513651874831828
 30
0.0
 40
0.1181923486076083
100
AcDbArc
 50
15.01337100200033
 51
32.9226719024536
  0
ARC
  5
262
330
2
100
AcDbEntity
  8
0
100
AcDbCircle
 10
2.793457495708294
 20
3.533243583828094
 30
0.0
 40
0.0821454866301446
100
AcDbArc
 50
32.92267190244989
 51
57.39207898480503
  0
ARC
  5
263
330
2
100
AcDbEntity
  8
0
100
AcDbCircle
 10
2.812500000000073
 20
3.563010450572177
 30
0.0
 40
0.0468087730667357
100
AcDbArc
 50
57.39207898480197
 51
89.99999999999565
  0
ARC
  5
264
330
2
100
AcDbEntity
  8
0
100
AcDbCircle
 10
2.812500000000073
 20
0.494650608455947
 30
0.0
 40
0.0468087730667364
100
AcDbArc
 50
270.0000000000044
 51
302.607921015198
  0
ARC
  5
265
330
2
100
AcDbEntity
  8
0
100
AcDbCircle
 10
2.793457495708296
 20
0.5244174752000301
 30
0.0
 40
0.0821454866301438
100
AcDbArc
 50
302.6079210151939
 51
327.0773280975494
  0
ARC
  5
266
330
2
100
AcDbEntity
  8
0
100
AcDbCircle
 10
2.763199584395249
 20
0.5440091841963
 30
0.0
 40
0.1181923486076126
100
AcDbArc
 50
327.0773280975459
 51
344.9866289979984
  0
ARC
  5
267
330
2
100
AcDbEntity
  8
0
100
AcDbCircle
 10
2.715305538061912
 20
0.5568543353892093
 30
0.0
 40
0.1677790160026746
100
AcDbArc
 50
344.9866289980052
 51
0.0000000000024265
  0
ARC
  5
268
330
2
100
AcDbEntity
  8
0
100
AcDbCircle
 10
2.715305538061942
 20
0.5568543353892235
 30
0.0
 40
0.167779016002644
100
AcDbArc
 50
359.9999999999976
 51
15.0133710019951
  0
ARC
  5
269
330
2
100
AcDbEntity
  8
0
100
AcDbCircle
 10
2.763199584395252
 20
0.5696994865821292
 30
0.0
 40
0.1181923486076083
100
AcDbArc
 50
15.01337100200033
 51
32.9226719024536
  0
ARC
  5
26A
330
2
100
AcDbEntity
  8
0
100
AcDbCircle
 10
2.793457495708294
 20
0.5892911955783955
 30
0.0
 40
0.0821454866301446
100
AcDbArc
 50
32.92267190244989
 51
57.39207898480503
  0
ARC
  5
26B
330
2
100
AcDbEntity
  8
0
100
AcDbCircle
 10
2.812500000000073
 20
0.6190580623224786
 30
0.0
 40
0.0468087730667357
100
AcDbArc
 50
57.39207898480197
 51
89.99999999999565
  0
ARC
  5
26C
330
2
100
AcDbEntity
  8
0
100
AcDbCircle
 10
2.812500000000073
 20
0.5092200860122969
 30
0.0
 40
0.0320532506230862
100
AcDbArc
 50
270.0000000000064
 51
303.5108229556791
  0
ARC
  5
26D
330
2
100
AcDbEntity
  8
0
100
AcDbCircle
 10
2.797424981436286
 20
0.5319866096269283
 30
0.0
 40
0.0593583926698527
100
AcDbArc
 50
303.5108229556711
 51
327.9718933333926
  0
ARC
  5
26E
330
2
100
AcDbEntity
  8
0
100
AcDbCircle
 10
2.773421555912604
 20
0.5470019922487293
 30
0.0
 40
0.0876713959042334
100
AcDbArc
 50
327.9718933333754
 51
345.4734521831862
  0
ARC
  5
26F
330
2
100
AcDbEntity
  8
0
100
AcDbCircle
 10
2.73539806073647
 20
0.5568543353891879
 30
0.0
 40
0.126950586969819
100
AcDbArc
 50
345.4734521832155
 51
0.0000000000128274
  0
ARC
  5
270
330
2
100
AcDbEntity
  8
0
100
AcDbCircle
 10
2.735398060736497
 20
0.5568543353892377
 30
0.0
 40
0.1269505869697927
100
AcDbArc
 50
359.9999999999904
 51
14.52654781678748
  0
ARC
  5
271
330
2
100
AcDbEntity
  8
0
100
AcDbCircle
 10
2.773421555912609
 20
0.5667066785296999
 30
0.0
 40
0.087671395904227
100
AcDbArc
 50
14.52654781681249
 51
32.0281066666245
  0
ARC
  5
272
330
2
100
AcDbEntity
  8
0
100
AcDbCircle
 10
2.797424981436286
 20
0.5817220611514973
 30
0.0
 40
0.0593583926698527
100
AcDbArc
 50
32.02810666660741
 51
56.48917704432887
  0
ARC
  5
273
330
2
100
AcDbEntity
  8
0
100
AcDbCircle
 10
2.812500000000073
 20
0.6044885847661252
 30
0.0
 40
0.0320532506230895
100
AcDbArc
 50
56.48917704432444
 51
89.99999999999365
  0
ARC
  5
274
330
2
100
AcDbEntity
  8
0
100
AcDbCircle
 10
2.812500000000073
 20
2.300756410648097
 30
0.0
 40
0.0468087730667364
100
AcDbArc
 50
270.0000000000044
 51
302.607921015198
  0
ARC
  5
275
330
2
100
AcDbEntity
  8
0
100
AcDbCircle
 10
2.793457495708296
 20
2.33052327739218
 30
0.0
 40
0.0821454866301438
100
AcDbArc
 50
302.6079210151939
 51
327.0773280975494
  0
ARC
  5
276
330
2
100
AcDbEntity
  8
0
100
AcDbCircle
 10
2.763199584395249
 20
2.35011498638845
 30
0.0
 40
0.1181923486076126
100
AcDbArc
 50
327.0773280975459
 51
344.9866289979984
  0
ARC
  5
277
330
2
100
AcDbEntity
  8
0
100
AcDbCircle
 10
2.715305538061912
 20
2.362960137581359
 30
0.0
 40
0.1677790160026746
100
AcDbArc
 50
344.9866289980052
 51
0.0000000000024265
  0
ARC
  5
278
330
2
100
AcDbEntity
  8
0
100
AcDbCircle
 10
2.715305538061942
 20
2.362960137581373
 30
0.0
 40
0.167779016002644
100
AcDbArc
 50
359.9999999999976
 51
15.0133710019951
  0
ARC
  5
279
330
2
100
AcDbEntity
  8
0
100
AcDbCircle
 10
2.763199584395252
 20
2.375805288774279
 30
0.0
 40
0.1181923486076083
100
AcDbArc
 50
15.01337100200033
 51
32.9226719024536
  0
ARC
  5
27A
330
2
100
AcDbEntity
  8
0
100
AcDbCircle
 10
2.793457495708294
 20
2.395396997770545
 30
0.0
 40
0.0821454866301446
100
AcDbArc
 50
32.92267190244989
 51
57.39207898480503
  0
ARC
  5
27B
330
2
100
AcDbEntity
  8
0
100
AcDbCircle
 10
2.812500000000073
 20
2.425163864514628
 30
0.0
 40
0.0468087730667357
100
AcDbArc
 50
57.39207898480197
 51
89.99999999999565
  0
ARC
  5
27C
330
2
100
AcDbEntity
  8
0
100
AcDbCircle
 10
2.812500000000073
 20
2.315325888204447
 30
0.0
 40
0.0320532506230862
100
AcDbArc
 50
270.0000000000064
 51
303.5108229556791
  0
ARC
  5
27D
330
2
100
AcDbEntity
  8
0
100
AcDbCircle
 10
2.797424981436286
 20
2.338092411819078
 30
0.0
 40
0.0593583926698527
100
AcDbArc
 50
303.5108229556711
 51
327.9718933333926
  0
ARC
  5
27E
330
2
100
AcDbEntity
  8
0
100
AcDbCircle
 10
2.773421555912604
 20
2.353107794440879
 30
0.0
 40
0.0876713959042334
100
AcDbArc
 50
327.9718933333754
 51
345.4734521831862
  0
ARC
  5
27F
330
2
100
AcDbEntity
  8
0
100
AcDbCircle
 10
2.73539806073647
 20
2.362960137581338
 30
0.0
 40
0.126950586969819
100
AcDbArc
 50
345.4734521832155
 51
0.0000000000128274
  0
ARC
  5
280
330
2
100
AcDbEntity
  8
0
100
AcDbCircle
 10
2.735398060736497
 20
2.362960137581387
 30
0.0
 40
0.1269505869697927
100
AcDbArc
 50
359.9999999999904
 51
14.52654781678748
  0
ARC
  5
281
330
2
100
AcDbEntity
  8
0
100
AcDbCircle
 10
2.773421555912609
 20
2.37281248072185
 30
0.0
 40
0.087671395904227
100
AcDbArc
 50
14.52654781681249
 51
32.0281066666245
  0
ARC
  5
282
330
2
100
AcDbEntity
  8
0
100
AcDbCircle
 10
2.797424981436286
 20
2.387827863343647
 30
0.0
 40
0.0593583926698527
100
AcDbArc
 50
32.02810666660741
 51
56.48917704432887
  0
ARC
  5
283
330
2
100
AcDbEntity
  8
0
100
AcDbCircle
 10
2.812500000000073
 20
2.410594386958275
 30
0.0
 40
0.0320532506230895
100
AcDbArc
 50
56.48917704432444
 51
89.99999999999365
  0
ARC
  5
284
330
2
100
AcDbEntity
  8
0
100
AcDbCircle
 10
2.812500000000073
 20
5.750116858018179
 30
0.0
 40
0.0468087730667364
100
AcDbArc
 50
270.0000000000044
 51
302.607921015198
  0
ARC
  5
285
330
2
100
AcDbEntity
  8
0
100
AcDbCircle
 10
2.793457495708296
 20
5.779883724762263
 30
0.0
 40
0.0821454866301438
100
AcDbArc
 50
302.6079210151939
 51
327.0773280975494
  0
ARC
  5
286
330
2
100
AcDbEntity
  8
0
100
AcDbCircle
 10
2.763199584395249
 20
5.799475433758532
 30
0.0
 40
0.1181923486076126
100
AcDbArc
 50
327.0773280975459
 51
344.9866289979984
  0
ARC
  5
287
330
2
100
AcDbEntity
  8
0
100
AcDbCircle
 10
2.715305538061912
 20
5.812320584951442
 30
0.0
 40
0.1677790160026746
100
AcDbArc
 50
344.9866289980052
 51
0.0000000000024265
  0
ARC
  5
288
330
2
100
AcDbEntity
  8
0
100
AcDbCircle
 10
2.715305538061942
 20
5.812320584951456
 30
0.0
 40
0.167779016002644
100
AcDbArc
 50
359.9999999999976
 51
15.0133710019951
  0
ARC
  5
289
330
2
100
AcDbEntity
  8
0
100
AcDbCircle
 10
2.763199584395252
 20
5.825165736144362
 30
0.0
 40
0.1181923486076083
100
AcDbArc
 50
15.01337100200033
 51
32.9226719024536
  0
ARC
  5
28A
330
2
100
AcDbEntity
  8
0
100
AcDbCircle
 10
2.793457495708294
 20
5.844757445140628
 30
0.0
 40
0.0821454866301446
100
AcDbArc
 50
32.92267190244989
 51
57.39207898480503
  0
ARC
  5
28B
330
2
100
AcDbEntity
  8
0
100
AcDbCircle
 10
2.812500000000073
 20
5.874524311884711
 30
0.0
 40
0.0468087730667357
100
AcDbArc
 50
57.39207898480197
 51
89.99999999999565
  0
ARC
  5
28C
330
2
100
AcDbEntity
  8
0
100
AcDbCircle
 10
2.812500000000073
 20
5.764686335574529
 30
0.0
 40
0.0320532506230862
100
AcDbArc
 50
270.0000000000064
 51
303.5108229556791
  0
ARC
  5
28D
330
2
100
AcDbEntity
  8
0
100
AcDbCircle
 10
2.797424981436286
 20
5.787452859189161
 30
0.0
 40
0.0593583926698527
100
AcDbArc
 50
303.5108229556711
 51
327.9718933333926
  0
ARC
  5
28E
330
2
100
AcDbEntity
  8
0
100
AcDbCircle
 10
2.773421555912604
 20
5.802468241810962
 30
0.0
 40
0.0876713959042334
100
AcDbArc
 50
327.9718933333754
 51
345.4734521831862
  0
ARC
  5
28F
330
2
100
AcDbEntity
  8
0
100
AcDbCircle
 10
2.73539806073647
 20
5.81232058495142
 30
0.0
 40
0.126950586969819
100
AcDbArc
 50
345.4734521832155
 51
0.0000000000128274
  0
ARC
  5
290
330
2
100
AcDbEntity
  8
0
100
AcDbCircle
 10
2.735398060736497
 20
5.81232058495147
 30
0.0
 40
0.1269505869697927
100
AcDbArc
 50
359.9999999999904
 51
14.52654781678748
  0
ARC
  5
291
330
2
100
AcDbEntity
  8
0
100
AcDbCircle
 10
2.773421555912609
 20
5.822172928091932
 30
0.0
 40
0.087671395904227
100
AcDbArc
 50
14.52654781681249
 51
32.0281066666245
  0
ARC
  5
292
330
2
100
AcDbEntity
  8
0
100
AcDbCircle
 10
2.797424981436286
 20
5.83718831071373
 30
0.0
 40
0.0593583926698527
100
AcDbArc
 50
32.02810666660741
 51
56.48917704432887
  0
ARC
  5
293
330
2
100
AcDbEntity
  8
0
100
AcDbCircle
 10
2.812500000000073
 20
5.859954834328358
 30
0.0
 40
0.0320532506230895
100
AcDbArc
 50
56.48917704432444
 51
89.99999999999365
  0
ARC
  5
294
330
2
100
AcDbEntity
  8
0
100
AcDbCircle
 10
2.812500000000073
 20
7.745057532449556
 30
0.0
 40
0.0468087730667364
100
AcDbArc
 50
270.0000000000044
 51
302.607921015198
  0
ARC
  5
295
330
2
100
AcDbEntity
  8
0
100
AcDbCircle
 10
2.793457495708296
 20
7.774824399193639
 30
0.0
 40
0.0821454866301438
100
AcDbArc
 50
302.6079210151939
 51
327.0773280975494
  0
ARC
  5
296
330
2
100
AcDbEntity
  8
0
100
AcDbCircle
 10
2.763199584395249
 20
7.794416108189909
 30
0.0
 40
0.1181923486076126
100
AcDbArc
 50
327.0773280975459
 51
344.9866289979984
  0
ARC
  5
297
330
2
100
AcDbEntity
  8
0
100
AcDbCircle
 10
2.715305538061912
 20
7.807261259382818
 30
0.0
 40
0.1677790160026746
100
AcDbArc
 50
344.9866289980052
 51
0.0000000000024265
  0
ARC
  5
298
330
2
100
AcDbEntity
  8
0
100
AcDbCircle
 10
2.715305538061942
 20
7.807261259382832
 30
0.0
 40
0.167779016002644
100
AcDbArc
 50
359.9999999999976
 51
15.0133710019951
  0
ARC
  5
299
330
2
100
AcDbEntity
  8
0
100
AcDbCircle
 10
2.763199584395252
 20
7.820106410575738
 30
0.0
 40
0.1181923486076083
100
AcDbArc
 50
15.01337100200033
 51
32.9226719024536
  0
ARC
  5
29A
330
2
100
AcDbEntity
  8
0
100
AcDbCircle
 10
2.793457495708294
 20
7.839698119572004
 30
0.0
 40
0.0821454866301446
100
AcDbArc
 50
32.92267190244989
 51
57.39207898480503
  0
ARC
  5
29B
330
2
100
AcDbEntity
  8
0
100
AcDbCircle
 10
2.812500000000073
 20
7.869464986316087
 30
0.0
 40
0.0468087730667357
100
AcDbArc
 50
57.39207898480197
 51
89.99999999999565
  0
ARC
  5
29C
330
2
100
AcDbEntity
  8
0
100
AcDbCircle
 10
2.812500000000073
 20
7.759627010005906
 30
0.0
 40
0.0320532506230862
100
AcDbArc
 50
270.0000000000064
 51
303.5108229556791
  0
ARC
  5
29D
330
2
100
AcDbEntity
  8
0
100
AcDbCircle
 10
2.797424981436286
 20
7.782393533620537
 30
0.0
 40
0.0593583926698527
100
AcDbArc
 50
303.5108229556711
 51
327.9718933333926
  0
ARC
  5
29E
330
2
100
AcDbEntity
  8
0
100
AcDbCircle
 10
2.773421555912604
 20
7.797408916242338
 30
0.0
 40
0.0876713959042334
100
AcDbArc
 50
327.9718933333754
 51
345.4734521831862
  0
ARC
  5
29F
330
2
100
AcDbEntity
  8
0
100
AcDbCircle
 10
2.73539806073647
 20
7.807261259382797
 30
0.0
 40
0.126950586969819
100
AcDbArc
 50
345.4734521832155
 51
0.0000000000128274
  0
ARC
  5
2A0
330
2
100
AcDbEntity
  8
0
100
AcDbCircle
 10
2.735398060736497
 20
7.807261259382846
 30
0.0
 40
0.1269505869697927
100
AcDbArc
 50
359.9999999999904
 51
14.52654781678748
  0
ARC
  5
2A1
330
2
100
AcDbEntity
  8
0
100
AcDbCircle
 10
2.773421555912609
 20
7.817113602523309
 30
0.0
 40
0.087671395904227
100
AcDbArc
 50
14.52654781681249
 51
32.0281066666245
  0
ARC
  5
2A2
330
2
100
AcDbEntity
  8
0
100
AcDbCircle
 10
2.797424981436286
 20
7.832128985145106
 30
0.0
 40
0.0593583926698527
100
AcDbArc
 50
32.02810666660741
 51
56.48917704432887
  0
ARC
  5
2A3
330
2
100
AcDbEntity
  8
0
100
AcDbCircle
 10
2.812500000000073
 20
7.854895508759734
 30
0.0
 40
0.0320532506230895
100
AcDbArc
 50
56.48917704432444
 51
89.99999999999365
  0
LINE
  5
2A4
330
2
100
AcDbEntity
  8
0
100
AcDbLine
 10
12.80893115860982
 20
0.4582512876219287
 30
0.0
 11
12.80893115860982
 21
0.7349262876219331
 31
0.0
  0
LINE
  5
2A8
330
2
100
AcDbEntity
  8
0
100
AcDbLine
 10
12.80893115860982
 20
2.07690708981408
 30
0.0
 11
12.80893115860982
 21
2.353582089814085
 31
0.0
  0
LINE
  5
2AC
330
2
100
AcDbEntity
  8
0
100
AcDbLine
 10
12.80893115860982
 20
5.776267537184163
 30
0.0
 11
12.80893115860982
 21
6.052942537184167
 31
0.0
  0
LINE
  5
2B0
330
2
100
AcDbEntity
  8
0
100
AcDbLine
 10
12.80893115860982
 20
3.339753675871629
 30
0.0
 11
12.80893115860982
 21
3.616428675871633
 31
0.0
  0
LINE
  5
2B4
330
2
100
AcDbEntity
  8
0
100
AcDbLine
 10
12.80893115860982
 20
7.646208211615539
 30
0.0
 11
12.80893115860982
 21
7.922883211615543
 31
0.0
  0
ARC
  5
2B8
330
2
100
AcDbEntity
  8
0
100
AcDbCircle
 10
12.80893115860981
 20
0.7447495878590953
 30
0.0
 40
0.2864983002371666
100
AcDbArc
 50
270.0000000000028
 51
286.0310365777447
  0
ARC
  5
2B9
330
2
100
AcDbEntity
  8
0
100
AcDbCircle
 10
12.82987314269637
 20
0.6718652399219973
 30
0.0
 40
0.2106649640867779
100
AcDbArc
 50
286.0310365777373
 51
304.7482755454288
  0
ARC
  5
2BA
330
2
100
AcDbEntity
  8
0
100
AcDbCircle
 10
12.86186939946605
 20
0.6257398622179462
 30
0.0
 40
0.1545284259354786
100
AcDbArc
 50
304.7482755454359
 51
329.15752901129
  0
ARC
  5
2BB
330
2
100
AcDbEntity
  8
0
100
AcDbCircle
 10
12.91068846835584
 20
0.5965887876219345
 30
0.0
 40
0.0976681881821232
100
AcDbArc
 50
329.1575290112829
 51
359.9999999999959
  0
ARC
  5
2BC
330
2
100
AcDbEntity
  8
0
100
AcDbCircle
 10
12.91068846835582
 20
0.5965887876219238
 30
0.0
 40
0.0976681881821371
100
AcDbArc
 50
0.0000000000020842
 51
30.84247098871468
  0
ARC
  5
2BD
330
2
100
AcDbEntity
  8
0
100
AcDbCircle
 10
12.86186939946607
 20
0.5674377130259121
 30
0.0
 40
0.1545284259354653
100
AcDbArc
 50
30.84247098871452
 51
55.25172445456879
  0
ARC
  5
2BE
330
2
100
AcDbEntity
  8
0
100
AcDbCircle
 10
12.82987314269635
 20
0.5213123353218609
 30
0.0
 40
0.2106649640867889
100
AcDbArc
 50
55.25172445456511
 51
73.96896342225647
  0
ARC
  5
2BF
330
2
100
AcDbEntity
  8
0
100
AcDbCircle
 10
12.80893115860981
 20
0.4484279873847701
 30
0.0
 40
0.2864983002371627
100
AcDbArc
 50
73.96896342225512
 51
89.99999999999716
  0
ARC
  5
2C0
330
2
100
AcDbEntity
  8
0
100
AcDbCircle
 10
12.80893115860982
 20
0.5343850606886651
 30
0.0
 40
0.0468087730667364
100
AcDbArc
 50
270.0000000000044
 51
302.607921015198
  0
ARC
  5
2C1
330
2
100
AcDbEntity
  8
0
100
AcDbCircle
 10
12.78988865431804
 20
0.5641519274327482
 30
0.0
 40
0.0821454866301448
100
AcDbArc
 50
302.607921015195
 51
327.0773280975502
  0
ARC
  5
2C2
330
2
100
AcDbEntity
  8
0
100
AcDbCircle
 10
12.759630743005
 20
0.5837436364290181
 30
0.0
 40
0.1181923486076141
100
AcDbArc
 50
327.0773280975463
 51
344.9866289979987
  0
ARC
  5
2C3
330
2
100
AcDbEntity
  8
0
100
AcDbCircle
 10
12.71173669667166
 20
0.5965887876219274
 30
0.0
 40
0.1677790160026763
100
AcDbArc
 50
344.9866289980054
 51
0.0000000000024265
  0
ARC
  5
2C4
330
2
100
AcDbEntity
  8
0
100
AcDbCircle
 10
12.71173669667169
 20
0.5965887876219416
 30
0.0
 40
0.167779016002644
100
AcDbArc
 50
359.9999999999976
 51
15.0133710019951
  0
ARC
  5
2C5
330
2
100
AcDbEntity
  8
0
100
AcDbCircle
 10
12.759630743005
 20
0.6094339388148473
 30
0.0
 40
0.11819234860761
100
AcDbArc
 50
15.0133710020001
 51
32.92267190245313
  0
ARC
  5
2C6
330
2
100
AcDbEntity
  8
0
100
AcDbCircle
 10
12.78988865431804
 20
0.6290256478111136
 30
0.0
 40
0.0821454866301446
100
AcDbArc
 50
32.92267190244989
 51
57.39207898480503
  0
ARC
  5
2C7
330
2
100
AcDbEntity
  8
0
100
AcDbCircle
 10
12.80893115860982
 20
0.6587925145551967
 30
0.0
 40
0.0468087730667357
100
AcDbArc
 50
57.39207898480197
 51
89.99999999999565
  0
ARC
  5
2C8
330
2
100
AcDbEntity
  8
0
100
AcDbCircle
 10
12.80893115860982
 20
0.5489545382450149
 30
0.0
 40
0.0320532506230862
100
AcDbArc
 50
270.0000000000064
 51
303.5108229556791
  0
ARC
  5
2C9
330
2
100
AcDbEntity
  8
0
100
AcDbCircle
 10
12.79385614004603
 20
0.5717210618596464
 30
0.0
 40
0.0593583926698537
100
AcDbArc
 50
303.5108229556726
 51
327.9718933333935
  0
ARC
  5
2CA
330
2
100
AcDbEntity
  8
0
100
AcDbCircle
 10
12.76985271452235
 20
0.5867364444814474
 30
0.0
 40
0.0876713959042334
100
AcDbArc
 50
327.9718933333754
 51
345.4734521831862
  0
ARC
  5
2CB
330
2
100
AcDbEntity
  8
0
100
AcDbCircle
 10
12.73182921934622
 20
0.596588787621906
 30
0.0
 40
0.126950586969819
100
AcDbArc
 50
345.4734521832155
 51
0.0000000000128274
  0
ARC
  5
2CC
330
2
100
AcDbEntity
  8
0
100
AcDbCircle
 10
12.73182921934625
 20
0.5965887876219558
 30
0.0
 40
0.1269505869697944
100
AcDbArc
 50
359.9999999999904
 51
14.52654781678728
  0
ARC
  5
2CD
330
2
100
AcDbEntity
  8
0
100
AcDbCircle
 10
12.76985271452236
 20
0.606441130762418
 30
0.0
 40
0.0876713959042287
100
AcDbArc
 50
14.5265478168122
 51
32.02810666662388
  0
ARC
  5
2CE
330
2
100
AcDbEntity
  8
0
100
AcDbCircle
 10
12.79385614004603
 20
0.6214565133842154
 30
0.0
 40
0.0593583926698542
100
AcDbArc
 50
32.0281066666065
 51
56.48917704432745
  0
ARC
  5
2CF
330
2
100
AcDbEntity
  8
0
100
AcDbCircle
 10
12.80893115860982
 20
0.6442230369988433
 30
0.0
 40
0.0320532506230895
100
AcDbArc
 50
56.48917704432444
 51
89.99999999999365
  0
ARC
  5
2D0
330
2
100
AcDbEntity
  8
0
100
AcDbCircle
 10
12.80893115860981
 20
2.363405390051247
 30
0.0
 40
0.2864983002371666
100
AcDbArc
 50
270.0000000000028
 51
286.0310365777447
  0
ARC
  5
2D1
330
2
100
AcDbEntity
  8
0
100
AcDbCircle
 10
12.82987314269637
 20
2.290521042114149
 30
0.0
 40
0.2106649640867779
100
AcDbArc
 50
286.0310365777373
 51
304.7482755454288
  0
ARC
  5
2D2
330
2
100
AcDbEntity
  8
0
100
AcDbCircle
 10
12.86186939946605
 20
2.244395664410098
 30
0.0
 40
0.1545284259354786
100
AcDbArc
 50
304.7482755454359
 51
329.15752901129
  0
ARC
  5
2D3
330
2
100
AcDbEntity
  8
0
100
AcDbCircle
 10
12.91068846835584
 20
2.215244589814086
 30
0.0
 40
0.0976681881821232
100
AcDbArc
 50
329.1575290112829
 51
359.9999999999959
  0
ARC
  5
2D4
330
2
100
AcDbEntity
  8
0
100
AcDbCircle
 10
12.91068846835582
 20
2.215244589814075
 30
0.0
 40
0.0976681881821371
100
AcDbArc
 50
0.0000000000020842
 51
30.84247098871468
  0
ARC
  5
2D5
330
2
100
AcDbEntity
  8
0
100
AcDbCircle
 10
12.86186939946607
 20
2.186093515218063
 30
0.0
 40
0.1545284259354653
100
AcDbArc
 50
30.84247098871452
 51
55.25172445456879
  0
ARC
  5
2D6
330
2
100
AcDbEntity
  8
0
100
AcDbCircle
 10
12.82987314269635
 20
2.139968137514012
 30
0.0
 40
0.2106649640867889
100
AcDbArc
 50
55.25172445456511
 51
73.96896342225647
  0
ARC
  5
2D7
330
2
100
AcDbEntity
  8
0
100
AcDbCircle
 10
12.80893115860981
 20
2.067083789576921
 30
0.0
 40
0.2864983002371627
100
AcDbArc
 50
73.96896342225512
 51
89.99999999999716
  0
ARC
  5
2D8
330
2
100
AcDbEntity
  8
0
100
AcDbCircle
 10
12.80893115860982
 20
2.153040862880816
 30
0.0
 40
0.0468087730667364
100
AcDbArc
 50
270.0000000000044
 51
302.607921015198
  0
ARC
  5
2D9
330
2
100
AcDbEntity
  8
0
100
AcDbCircle
 10
12.78988865431804
 20
2.1828077296249
 30
0.0
 40
0.0821454866301448
100
AcDbArc
 50
302.607921015195
 51
327.0773280975502
  0
ARC
  5
2DA
330
2
100
AcDbEntity
  8
0
100
AcDbCircle
 10
12.759630743005
 20
2.202399438621169
 30
0.0
 40
0.1181923486076141
100
AcDbArc
 50
327.0773280975463
 51
344.9866289979987
  0
ARC
  5
2DB
330
2
100
AcDbEntity
  8
0
100
AcDbCircle
 10
12.71173669667166
 20
2.215244589814079
 30
0.0
 40
0.1677790160026763
100
AcDbArc
 50
344.9866289980054
 51
0.0000000000024265
  0
ARC
  5
2DC
330
2
100
AcDbEntity
  8
0
100
AcDbCircle
 10
12.71173669667169
 20
2.215244589814093
 30
0.0
 40
0.167779016002644
100
AcDbArc
 50
359.9999999999976
 51
15.0133710019951
  0
ARC
  5
2DD
330
2
100
AcDbEntity
  8
0
100
AcDbCircle
 10
12.759630743005
 20
2.228089741006999
 30
0.0
 40
0.11819234860761
100
AcDbArc
 50
15.0133710020001
 51
32.92267190245313
  0
ARC
  5
2DE
330
2
100
AcDbEntity
  8
0
100
AcDbCircle
 10
12.78988865431804
 20
2.247681450003265
 30
0.0
 40
0.0821454866301446
100
AcDbArc
 50
32.92267190244989
 51
57.39207898480503
  0
ARC
  5
2DF
330
2
100
AcDbEntity
  8
0
100
AcDbCircle
 10
12.80893115860982
 20
2.277448316747348
 30
0.0
 40
0.0468087730667357
100
AcDbArc
 50
57.39207898480197
 51
89.99999999999565
  0
ARC
  5
2E0
330
2
100
AcDbEntity
  8
0
100
AcDbCircle
 10
12.80893115860982
 20
2.167610340437166
 30
0.0
 40
0.0320532506230862
100
AcDbArc
 50
270.0000000000064
 51
303.5108229556791
  0
ARC
  5
2E1
330
2
100
AcDbEntity
  8
0
100
AcDbCircle
 10
12.79385614004603
 20
2.190376864051798
 30
0.0
 40
0.0593583926698537
100
AcDbArc
 50
303.5108229556726
 51
327.9718933333935
  0
ARC
  5
2E2
330
2
100
AcDbEntity
  8
0
100
AcDbCircle
 10
12.76985271452235
 20
2.205392246673599
 30
0.0
 40
0.0876713959042334
100
AcDbArc
 50
327.9718933333754
 51
345.4734521831862
  0
ARC
  5
2E3
330
2
100
AcDbEntity
  8
0
100
AcDbCircle
 10
12.73182921934622
 20
2.215244589814057
 30
0.0
 40
0.126950586969819
100
AcDbArc
 50
345.4734521832155
 51
0.0000000000128274
  0
ARC
  5
2E4
330
2
100
AcDbEntity
  8
0
100
AcDbCircle
 10
12.73182921934625
 20
2.215244589814107
 30
0.0
 40
0.1269505869697944
100
AcDbArc
 50
359.9999999999904
 51
14.52654781678728
  0
ARC
  5
2E5
330
2
100
AcDbEntity
  8
0
100
AcDbCircle
 10
12.76985271452236
 20
2.225096932954569
 30
0.0
 40
0.0876713959042287
100
AcDbArc
 50
14.5265478168122
 51
32.02810666662388
  0
ARC
  5
2E6
330
2
100
AcDbEntity
  8
0
100
AcDbCircle
 10
12.79385614004603
 20
2.240112315576367
 30
0.0
 40
0.0593583926698542
100
AcDbArc
 50
32.0281066666065
 51
56.48917704432745
  0
ARC
  5
2E7
330
2
100
AcDbEntity
  8
0
100
AcDbCircle
 10
12.80893115860982
 20
2.262878839190995
 30
0.0
 40
0.0320532506230895
100
AcDbArc
 50
56.48917704432444
 51
89.99999999999365
  0
ARC
  5
2E8
330
2
100
AcDbEntity
  8
0
100
AcDbCircle
 10
12.80893115860981
 20
6.062765837421329
 30
0.0
 40
0.2864983002371666
100
AcDbArc
 50
270.0000000000028
 51
286.0310365777447
  0
ARC
  5
2E9
330
2
100
AcDbEntity
  8
0
100
AcDbCircle
 10
12.82987314269637
 20
5.989881489484231
 30
0.0
 40
0.2106649640867779
100
AcDbArc
 50
286.0310365777373
 51
304.7482755454288
  0
ARC
  5
2EA
330
2
100
AcDbEntity
  8
0
100
AcDbCircle
 10
12.86186939946605
 20
5.94375611178018
 30
0.0
 40
0.1545284259354786
100
AcDbArc
 50
304.7482755454359
 51
329.15752901129
  0
ARC
  5
2EB
330
2
100
AcDbEntity
  8
0
100
AcDbCircle
 10
12.91068846835584
 20
5.914605037184169
 30
0.0
 40
0.0976681881821232
100
AcDbArc
 50
329.1575290112829
 51
359.9999999999959
  0
ARC
  5
2EC
330
2
100
AcDbEntity
  8
0
100
AcDbCircle
 10
12.91068846835582
 20
5.914605037184158
 30
0.0
 40
0.0976681881821371
100
AcDbArc
 50
0.0000000000020842
 51
30.84247098871468
  0
ARC
  5
2ED
330
2
100
AcDbEntity
  8
0
100
AcDbCircle
 10
12.86186939946607
 20
5.885453962588146
 30
0.0
 40
0.1545284259354653
100
AcDbArc
 50
30.84247098871452
 51
55.25172445456879
  0
ARC
  5
2EE
330
2
100
AcDbEntity
  8
0
100
AcDbCircle
 10
12.82987314269635
 20
5.839328584884095
 30
0.0
 40
0.2106649640867889
100
AcDbArc
 50
55.25172445456511
 51
73.96896342225647
  0
ARC
  5
2EF
330
2
100
AcDbEntity
  8
0
100
AcDbCircle
 10
12.80893115860981
 20
5.766444236947004
 30
0.0
 40
0.2864983002371627
100
AcDbArc
 50
73.96896342225512
 51
89.99999999999716
  0
ARC
  5
2F0
330
2
100
AcDbEntity
  8
0
100
AcDbCircle
 10
12.80893115860981
 20
3.626251976108796
 30
0.0
 40
0.2864983002371666
100
AcDbArc
 50
270.0000000000028
 51
286.0310365777447
  0
ARC
  5
2F1
330
2
100
AcDbEntity
  8
0
100
AcDbCircle
 10
12.82987314269637
 20
3.553367628171698
 30
0.0
 40
0.2106649640867779
100
AcDbArc
 50
286.0310365777373
 51
304.7482755454288
  0
ARC
  5
2F2
330
2
100
AcDbEntity
  8
0
100
AcDbCircle
 10
12.86186939946605
 20
3.507242250467646
 30
0.0
 40
0.1545284259354786
100
AcDbArc
 50
304.7482755454359
 51
329.15752901129
  0
ARC
  5
2F3
330
2
100
AcDbEntity
  8
0
100
AcDbCircle
 10
12.91068846835584
 20
3.478091175871635
 30
0.0
 40
0.0976681881821232
100
AcDbArc
 50
329.1575290112829
 51
359.9999999999959
  0
ARC
  5
2F4
330
2
100
AcDbEntity
  8
0
100
AcDbCircle
 10
12.91068846835582
 20
3.478091175871624
 30
0.0
 40
0.0976681881821371
100
AcDbArc
 50
0.0000000000020842
 51
30.84247098871468
  0
ARC
  5
2F5
330
2
100
AcDbEntity
  8
0
100
AcDbCircle
 10
12.86186939946607
 20
3.448940101275612
 30
0.0
 40
0.1545284259354653
100
AcDbArc
 50
30.84247098871452
 51
55.25172445456879
  0
ARC
  5
2F6
330
2
100
AcDbEntity
  8
0
100
AcDbCircle
 10
12.82987314269635
 20
3.402814723571561
 30
0.0
 40
0.2106649640867889
100
AcDbArc
 50
55.25172445456511
 51
73.96896342225647
  0
ARC
  5
2F7
330
2
100
AcDbEntity
  8
0
100
AcDbCircle
 10
12.80893115860981
 20
3.32993037563447
 30
0.0
 40
0.2864983002371627
100
AcDbArc
 50
73.96896342225512
 51
89.99999999999716
  0
ARC
  5
2F8
330
2
100
AcDbEntity
  8
0
100
AcDbCircle
 10
12.80893115860982
 20
3.415887448938365
 30
0.0
 40
0.0468087730667364
100
AcDbArc
 50
270.0000000000044
 51
302.607921015198
  0
ARC
  5
2F9
330
2
100
AcDbEntity
  8
0
100
AcDbCircle
 10
12.78988865431804
 20
3.445654315682448
 30
0.0
 40
0.0821454866301448
100
AcDbArc
 50
302.607921015195
 51
327.0773280975502
  0
ARC
  5
2FA
330
2
100
AcDbEntity
  8
0
100
AcDbCircle
 10
12.759630743005
 20
3.465246024678718
 30
0.0
 40
0.1181923486076141
100
AcDbArc
 50
327.0773280975463
 51
344.9866289979987
  0
ARC
  5
2FB
330
2
100
AcDbEntity
  8
0
100
AcDbCircle
 10
12.71173669667166
 20
3.478091175871628
 30
0.0
 40
0.1677790160026763
100
AcDbArc
 50
344.9866289980054
 51
0.0000000000024265
  0
ARC
  5
2FC
330
2
100
AcDbEntity
  8
0
100
AcDbCircle
 10
12.71173669667169
 20
3.478091175871642
 30
0.0
 40
0.167779016002644
100
AcDbArc
 50
359.9999999999976
 51
15.0133710019951
  0
ARC
  5
2FD
330
2
100
AcDbEntity
  8
0
100
AcDbCircle
 10
12.759630743005
 20
3.490936327064548
 30
0.0
 40
0.11819234860761
100
AcDbArc
 50
15.0133710020001
 51
32.92267190245313
  0
ARC
  5
2FE
330
2
100
AcDbEntity
  8
0
100
AcDbCircle
 10
12.78988865431804
 20
3.510528036060814
 30
0.0
 40
0.0821454866301446
100
AcDbArc
 50
32.92267190244989
 51
57.39207898480503
  0
ARC
  5
2FF
330
2
100
AcDbEntity
  8
0
100
AcDbCircle
 10
12.80893115860982
 20
3.540294902804897
 30
0.0
 40
0.0468087730667357
100
AcDbArc
 50
57.39207898480197
 51
89.99999999999565
  0
ARC
  5
300
330
2
100
AcDbEntity
  8
0
100
AcDbCircle
 10
12.80893115860982
 20
3.430456926494715
 30
0.0
 40
0.0320532506230862
100
AcDbArc
 50
270.0000000000064
 51
303.5108229556791
  0
ARC
  5
301
330
2
100
AcDbEntity
  8
0
100
AcDbCircle
 10
12.79385614004603
 20
3.453223450109347
 30
0.0
 40
0.0593583926698537
100
AcDbArc
 50
303.5108229556726
 51
327.9718933333935
  0
ARC
  5
302
330
2
100
AcDbEntity
  8
0
100
AcDbCircle
 10
12.76985271452235
 20
3.468238832731148
 30
0.0
 40
0.0876713959042334
100
AcDbArc
 50
327.9718933333754
 51
345.4734521831862
  0
ARC
  5
303
330
2
100
AcDbEntity
  8
0
100
AcDbCircle
 10
12.73182921934622
 20
3.478091175871606
 30
0.0
 40
0.126950586969819
100
AcDbArc
 50
345.4734521832155
 51
0.0000000000128274
  0
ARC
  5
304
330
2
100
AcDbEntity
  8
0
100
AcDbCircle
 10
12.73182921934625
 20
3.478091175871656
 30
0.0
 40
0.1269505869697944
100
AcDbArc
 50
359.9999999999904
 51
14.52654781678728
  0
ARC
  5
305
330
2
100
AcDbEntity
  8
0
100
AcDbCircle
 10
12.76985271452236
 20
3.487943519012118
 30
0.0
 40
0.0876713959042287
100
AcDbArc
 50
14.5265478168122
 51
32.02810666662388
  0
ARC
  5
306
330
2
100
AcDbEntity
  8
0
100
AcDbCircle
 10
12.79385614004603
 20
3.502958901633916
 30
0.0
 40
0.0593583926698542
100
AcDbArc
 50
32.0281066666065
 51
56.48917704432745
  0
ARC
  5
307
330
2
100
AcDbEntity
  8
0
100
AcDbCircle
 10
12.80893115860982
 20
3.525725425248544
 30
0.0
 40
0.0320532506230895
100
AcDbArc
 50
56.48917704432444
 51
89.99999999999365
  0
ARC
  5
308
330
2
100
AcDbEntity
  8
0
100
AcDbCircle
 10
12.80893115860982
 20
5.852401310250899
 30
0.0
 40
0.0468087730667364
100
AcDbArc
 50
270.0000000000044
 51
302.607921015198
  0
ARC
  5
309
330
2
100
AcDbEntity
  8
0
100
AcDbCircle
 10
12.78988865431804
 20
5.882168176994982
 30
0.0
 40
0.0821454866301448
100
AcDbArc
 50
302.607921015195
 51
327.0773280975502
  0
ARC
  5
30A
330
2
100
AcDbEntity
  8
0
100
AcDbCircle
 10
12.759630743005
 20
5.901759885991252
 30
0.0
 40
0.1181923486076141
100
AcDbArc
 50
327.0773280975463
 51
344.9866289979987
  0
ARC
  5
30B
330
2
100
AcDbEntity
  8
0
100
AcDbCircle
 10
12.71173669667166
 20
5.914605037184161
 30
0.0
 40
0.1677790160026763
100
AcDbArc
 50
344.9866289980054
 51
0.0000000000024265
  0
ARC
  5
30C
330
2
100
AcDbEntity
  8
0
100
AcDbCircle
 10
12.71173669667169
 20
5.914605037184176
 30
0.0
 40
0.167779016002644
100
AcDbArc
 50
359.9999999999976
 51
15.0133710019951
  0
ARC
  5
30D
330
2
100
AcDbEntity
  8
0
100
AcDbCircle
 10
12.759630743005
 20
5.927450188377081
 30
0.0
 40
0.11819234860761
100
AcDbArc
 50
15.0133710020001
 51
32.92267190245313
  0
ARC
  5
30E
330
2
100
AcDbEntity
  8
0
100
AcDbCircle
 10
12.78988865431804
 20
5.947041897373348
 30
0.0
 40
0.0821454866301446
100
AcDbArc
 50
32.92267190244989
 51
57.39207898480503
  0
ARC
  5
30F
330
2
100
AcDbEntity
  8
0
100
AcDbCircle
 10
12.80893115860982
 20
5.976808764117431
 30
0.0
 40
0.0468087730667357
100
AcDbArc
 50
57.39207898480197
 51
89.99999999999565
  0
ARC
  5
310
330
2
100
AcDbEntity
  8
0
100
AcDbCircle
 10
12.80893115860982
 20
5.866970787807249
 30
0.0
 40
0.0320532506230862
100
AcDbArc
 50
270.0000000000064
 51
303.5108229556791
  0
ARC
  5
311
330
2
100
AcDbEntity
  8
0
100
AcDbCircle
 10
12.79385614004603
 20
5.889737311421881
 30
0.0
 40
0.0593583926698537
100
AcDbArc
 50
303.5108229556726
 51
327.9718933333935
  0
ARC
  5
312
330
2
100
AcDbEntity
  8
0
100
AcDbCircle
 10
12.76985271452235
 20
5.904752694043681
 30
0.0
 40
0.0876713959042334
100
AcDbArc
 50
327.9718933333754
 51
345.4734521831862
  0
ARC
  5
313
330
2
100
AcDbEntity
  8
0
100
AcDbCircle
 10
12.73182921934622
 20
5.91460503718414
 30
0.0
 40
0.126950586969819
100
AcDbArc
 50
345.4734521832155
 51
0.0000000000128274
  0
ARC
  5
314
330
2
100
AcDbEntity
  8
0
100
AcDbCircle
 10
12.73182921934625
 20
5.91460503718419
 30
0.0
 40
0.1269505869697944
100
AcDbArc
 50
359.9999999999904
 51
14.52654781678728
  0
ARC
  5
315
330
2
100
AcDbEntity
  8
0
100
AcDbCircle
 10
12.76985271452236
 20
5.924457380324652
 30
0.0
 40
0.0876713959042287
100
AcDbArc
 50
14.5265478168122
 51
32.02810666662388
  0
ARC
  5
316
330
2
100
AcDbEntity
  8
0
100
AcDbCircle
 10
12.79385614004603
 20
5.939472762946449
 30
0.0
 40
0.0593583926698542
100
AcDbArc
 50
32.0281066666065
 51
56.48917704432745
  0
ARC
  5
317
330
2
100
AcDbEntity
  8
0
100
AcDbCircle
 10
12.80893115860982
 20
5.962239286561077
 30
0.0
 40
0.0320532506230895
100
AcDbArc
 50
56.48917704432444
 51
89.99999999999365
  0
ARC
  5
318
330
2
100
AcDbEntity
  8
0
100
AcDbCircle
 10
12.80893115860981
 20
7.932706511852706
 30
0.0
 40
0.2864983002371666
100
AcDbArc
 50
270.0000000000028
 51
286.0310365777447
  0
ARC
  5
319
330
2
100
AcDbEntity
  8
0
100
AcDbCircle
 10
12.82987314269637
 20
7.859822163915608
 30
0.0
 40
0.2106649640867779
100
AcDbArc
 50
286.0310365777373
 51
304.7482755454288
  0
ARC
  5
31A
330
2
100
AcDbEntity
  8
0
100
AcDbCircle
 10
12.86186939946605
 20
7.813696786211557
 30
0.0
 40
0.1545284259354786
100
AcDbArc
 50
304.7482755454359
 51
329.15752901129
  0
ARC
  5
31B
330
2
100
AcDbEntity
  8
0
100
AcDbCircle
 10
12.91068846835584
 20
7.784545711615545
 30
0.0
 40
0.0976681881821232
100
AcDbArc
 50
329.1575290112829
 51
359.9999999999959
  0
ARC
  5
31C
330
2
100
AcDbEntity
  8
0
100
AcDbCircle
 10
12.91068846835582
 20
7.784545711615534
 30
0.0
 40
0.0976681881821371
100
AcDbArc
 50
0.0000000000020842
 51
30.84247098871468
  0
ARC
  5
31D
330
2
100
AcDbEntity
  8
0
100
AcDbCircle
 10
12.86186939946607
 20
7.755394637019522
 30
0.0
 40
0.1545284259354653
100
AcDbArc
 50
30.84247098871452
 51
55.25172445456879
  0
ARC
  5
31E
330
2
100
AcDbEntity
  8
0
100
AcDbCircle
 10
12.82987314269635
 20
7.709269259315471
 30
0.0
 40
0.2106649640867889
100
AcDbArc
 50
55.25172445456511
 51
73.96896342225647
  0
ARC
  5
31F
330
2
100
AcDbEntity
  8
0
100
AcDbCircle
 10
12.80893115860981
 20
7.63638491137838
 30
0.0
 40
0.2864983002371627
100
AcDbArc
 50
73.96896342225512
 51
89.99999999999716
  0
ARC
  5
320
330
2
100
AcDbEntity
  8
0
100
AcDbCircle
 10
12.80893115860982
 20
7.722341984682275
 30
0.0
 40
0.0468087730667364
100
AcDbArc
 50
270.0000000000044
 51
302.607921015198
  0
ARC
  5
321
330
2
100
AcDbEntity
  8
0
100
AcDbCircle
 10
12.78988865431804
 20
7.752108851426359
 30
0.0
 40
0.0821454866301448
100
AcDbArc
 50
302.607921015195
 51
327.0773280975502
  0
ARC
  5
322
330
2
100
AcDbEntity
  8
0
100
AcDbCircle
 10
12.759630743005
 20
7.771700560422628
 30
0.0
 40
0.1181923486076141
100
AcDbArc
 50
327.0773280975463
 51
344.9866289979987
  0
ARC
  5
323
330
2
100
AcDbEntity
  8
0
100
AcDbCircle
 10
12.71173669667166
 20
7.784545711615538
 30
0.0
 40
0.1677790160026763
100
AcDbArc
 50
344.9866289980054
 51
0.0000000000024265
  0
ARC
  5
324
330
2
100
AcDbEntity
  8
0
100
AcDbCircle
 10
12.71173669667169
 20
7.784545711615552
 30
0.0
 40
0.167779016002644
100
AcDbArc
 50
359.9999999999976
 51
15.0133710019951
  0
ARC
  5
325
330
2
100
AcDbEntity
  8
0
100
AcDbCircle
 10
12.759630743005
 20
7.797390862808458
 30
0.0
 40
0.11819234860761
100
AcDbArc
 50
15.0133710020001
 51
32.92267190245313
  0
ARC
  5
326
330
2
100
AcDbEntity
  8
0
100
AcDbCircle
 10
12.78988865431804
 20
7.816982571804724
 30
0.0
 40
0.0821454866301446
100
AcDbArc
 50
32.92267190244989
 51
57.39207898480503
  0
ARC
  5
327
330
2
100
AcDbEntity
  8
0
100
AcDbCircle
 10
12.80893115860982
 20
7.846749438548807
 30
0.0
 40
0.0468087730667357
100
AcDbArc
 50
57.39207898480197
 51
89.99999999999565
  0
ARC
  5
328
330
2
100
AcDbEntity
  8
0
100
AcDbCircle
 10
12.80893115860982
 20
7.736911462238625
 30
0.0
 40
0.0320532506230862
100
AcDbArc
 50
270.0000000000064
 51
303.5108229556791
  0
ARC
  5
329
330
2
100
AcDbEntity
  8
0
100
AcDbCircle
 10
12.79385614004603
 20
7.759677985853257
 30
0.0
 40
0.0593583926698537
100
AcDbArc
 50
303.5108229556726
 51
327.9718933333935
  0
ARC
  5
32A
330
2
100
AcDbEntity
  8
0
100
AcDbCircle
 10
12.76985271452235
 20
7.774693368475058
 30
0.0
 40
0.0876713959042334
100
AcDbArc
 50
327.9718933333754
 51
345.4734521831862
  0
ARC
  5
32B
330
2
100
AcDbEntity
  8
0
100
AcDbCircle
 10
12.73182921934622
 20
7.784545711615516
 30
0.0
 40
0.126950586969819
100
AcDbArc
 50
345.4734521832155
 51
0.0000000000128274
  0
ARC
  5
32C
330
2
100
AcDbEntity
  8
0
100
AcDbCircle
 10
12.73182921934625
 20
7.784545711615566
 30
0.0
 40
0.1269505869697944
100
AcDbArc
 50
359.9999999999904
 51
14.52654781678728
  0
ARC
  5
32D
330
2
100
AcDbEntity
  8
0
100
AcDbCircle
 10
12.76985271452236
 20
7.794398054756028
 30
0.0
 40
0.0876713959042287
100
AcDbArc
 50
14.5265478168122
 51
32.02810666662388
  0
ARC
  5
32E
330
2
100
AcDbEntity
  8
0
100
AcDbCircle
 10
12.79385614004603
 20
7.809413437377826
 30
0.0
 40
0.0593583926698542
100
AcDbArc
 50
32.0281066666065
 51
56.48917704432745
  0
ARC
  5
32F
330
2
100
AcDbEntity
  8
0
100
AcDbCircle
 10
12.80893115860982
 20
7.832179960992454
 30
0.0
 40
0.0320532506230895
100
AcDbArc
 50
56.48917704432444
 51
89.99999999999365
  0
LINE
  5
37F
330
2
100
AcDbEntity
  8
0
100
AcDbLine
 10
-0.0001774245930424
 20
16.26206930732298
 30
0.0
 11
-0.1104860824581433
 21
16.37237796518808
 31
0.0
  0
LINE
  5
380
330
2
100
AcDbEntity
  8
0
100
AcDbLine
 10
0.1101312332720585
 20
16.37237796518808
 30
0.0
 11
-0.0001774245930424
 21
16.26206930732298
 31
0.0
  0
LINE
  5
381
330
2
100
AcDbEntity
  8
0
100
AcDbLine
 10
-0.1104860824581433
 20
16.37237796518808
 30
0.0
 11
-0.0001774245930424
 21
16.48268662305318
 31
0.0
  0
LINE
  5
382
330
2
100
AcDbEntity
  8
0
100
AcDbLine
 10
-0.0001774245930424
 20
16.48268662305318
 30
0.0
 11
0.1101312332720585
 21
16.37237796518808
 31
0.0
  0
LINE
  5
3D7
330
2
100
AcDbEntity
  8
0
100
AcDbLine
 10
-13.8441288275429
 20
9.074469732454423
 30
0.0
 11
-13.84412882754295
 21
0.2707357309112322
 31
0.0
  0
LINE
  5
3D8
330
2
100
AcDbEntity
  8
0
100
AcDbLine
 10
-13.9066288275429
 20
9.074469732454423
 30
0.0
 11
-13.9066288275429
 21
0.2707357309112322
 31
0.0
  0
LINE
  5
3D9
330
2
100
AcDbEntity
  8
0
100
AcDbLine
 10
-12.79385614004603
 20
5.939472762946449
 30
0.0
 11
-12.79385614004603
 21
6.216147762946454
 31
0.0
  0
ARC
  5
3DA
330
2
100
AcDbEntity
  8
0
100
AcDbCircle
 10
-12.81479812413258
 20
6.153086715246518
 30
0.0
 40
0.2106649640867779
100
AcDbArc
 50
235.2517244545713
 51
253.9689634222627
  0
ARC
  5
3DB
330
2
100
AcDbEntity
  8
0
100
AcDbCircle
 10
-12.77481363575425
 20
6.045373402757269
 30
0.0
 40
0.0821454866301448
100
AcDbArc
 50
212.9226719024499
 51
237.392078984805
  0
LINE
  5
3DC
330
2
100
AcDbEntity
  8
0
100
AcDbLine
 10
-12.5316288275429
 20
5.824469732454423
 30
0.0
 11
-12.5316288275429
 21
6.324469732454423
 31
0.0
  0
LINE
  5
3DD
330
2
100
AcDbEntity
  8
0
100
AcDbLine
 10
-12.22622334124247
 20
1.607406153384465
 30
0.0
 11
-10.87183157069312
 21
0.299717547336817
 31
0.0
  0
LINE
  5
3DE
330
2
100
AcDbEntity
  8
0
  6
HIDDEN
100
AcDbLine
 10
-10.76640951373112
 20
0.1522554160193703
 30
0.0
 11
-13.76640951373109
 21
0.1522554160193703
 31
0.0
  0
LINE
  5
3DF
330
2
100
AcDbEntity
  8
0
100
AcDbLine
 10
-10.76640951373112
 20
0.0897554160193703
 30
0.0
 11
-13.76640951373109
 21
0.0897554160193703
 31
0.0
  0
ARC
  5
3E0
330
2
100
AcDbEntity
  8
0
100
AcDbCircle
 10
-11.2191288275429
 20
-0.0599831829718855
 30
0.0
 40
0.5
100
AcDbArc
 50
25.11757623782306
 51
46.00508600525413
  0
LINE
  5
3E1
330
2
100
AcDbEntity
  8
0
100
AcDbLine
 10
-10.76640951373112
 20
0.1522554160193703
 30
0.0
 11
-10.76640951373112
 21
0.0897554160193703
 31
0.0
  0
LINE
  5
3E2
330
2
100
AcDbEntity
  8
0
100
AcDbLine
 10
-12.79385614004603
 20
0.6214565133842154
 30
0.0
 11
-12.79385614004603
 21
0.8981315133842198
 31
0.0
  0
ARC
  5
3E3
330
2
100
AcDbEntity
  8
0
100
AcDbCircle
 10
-12.79385614004602
 20
0.907954813621382
 30
0.0
 40
0.2864983002371666
100
AcDbArc
 50
253.9689634222553
 51
269.9999999999972
  0
ARC
  5
3E4
330
2
100
AcDbEntity
  8
0
100
AcDbCircle
 10
-12.81479812413258
 20
0.835070465684284
 30
0.0
 40
0.2106649640867779
100
AcDbArc
 50
235.2517244545713
 51
253.9689634222627
  0
ARC
  5
3E5
330
2
100
AcDbEntity
  8
0
100
AcDbCircle
 10
-12.84679438090225
 20
0.7889450879802329
 30
0.0
 40
0.1545284259354786
100
AcDbArc
 50
210.84247098871
 51
235.2517244545641
  0
ARC
  5
3E6
330
2
100
AcDbEntity
  8
0
100
AcDbCircle
 10
-12.89561344979204
 20
0.7597940133842212
 30
0.0
 40
0.0976681881821232
100
AcDbArc
 50
180.0000000000042
 51
210.8424709887172
  0
ARC
  5
3E7
330
2
100
AcDbEntity
  8
0
100
AcDbCircle
 10
-12.89561344979203
 20
0.7597940133842105
 30
0.0
 40
0.0976681881821371
100
AcDbArc
 50
149.1575290112853
 51
179.9999999999979
  0
ARC
  5
3E8
330
2
100
AcDbEntity
  8
0
100
AcDbCircle
 10
-12.84679438090227
 20
0.7306429387881988
 30
0.0
 40
0.1545284259354653
100
AcDbArc
 50
124.7482755454312
 51
149.1575290112855
  0
ARC
  5
3E9
330
2
100
AcDbEntity
  8
0
100
AcDbCircle
 10
-12.81479812413256
 20
0.6845175610841476
 30
0.0
 40
0.2106649640867889
100
AcDbArc
 50
106.0310365777435
 51
124.7482755454349
  0
ARC
  5
3EA
330
2
100
AcDbEntity
  8
0
100
AcDbCircle
 10
-12.79385614004602
 20
0.6116332131470568
 30
0.0
 40
0.2864983002371627
100
AcDbArc
 50
90.00000000000284
 51
106.0310365777449
  0
ARC
  5
3EB
330
2
100
AcDbEntity
  8
0
100
AcDbCircle
 10
-12.79385614004603
 20
0.6975902864509518
 30
0.0
 40
0.0468087730667364
100
AcDbArc
 50
237.392078984802
 51
269.9999999999956
  0
ARC
  5
3EC
330
2
100
AcDbEntity
  8
0
100
AcDbCircle
 10
-12.77481363575425
 20
0.7273571531950349
 30
0.0
 40
0.0821454866301448
100
AcDbArc
 50
212.9226719024499
 51
237.392078984805
  0
ARC
  5
3ED
330
2
100
AcDbEntity
  8
0
100
AcDbCircle
 10
-12.74455572444121
 20
0.7469488621913047
 30
0.0
 40
0.1181923486076141
100
AcDbArc
 50
195.0133710020014
 51
212.9226719024537
  0
ARC
  5
3EE
330
2
100
AcDbEntity
  8
0
100
AcDbCircle
 10
-12.69666167810787
 20
0.759794013384214
 30
0.0
 40
0.1677790160026763
100
AcDbArc
 50
179.9999999999976
 51
195.0133710019946
  0
ARC
  5
3EF
330
2
100
AcDbEntity
  8
0
100
AcDbCircle
 10
-12.6966616781079
 20
0.7597940133842283
 30
0.0
 40
0.167779016002644
100
AcDbArc
 50
164.9866289980049
 51
180.0000000000025
  0
ARC
  5
3F0
330
2
100
AcDbEntity
  8
0
100
AcDbCircle
 10
-12.74455572444121
 20
0.772639164577134
 30
0.0
 40
0.11819234860761
100
AcDbArc
 50
147.0773280975469
 51
164.9866289979999
  0
ARC
  5
3F1
330
2
100
AcDbEntity
  8
0
100
AcDbCircle
 10
-12.77481363575425
 20
0.7922308735734003
 30
0.0
 40
0.0821454866301446
100
AcDbArc
 50
122.607921015195
 51
147.0773280975501
  0
ARC
  5
3F2
330
2
100
AcDbEntity
  8
0
100
AcDbCircle
 10
-12.79385614004603
 20
0.8219977403174834
 30
0.0
 40
0.0468087730667357
100
AcDbArc
 50
90.00000000000435
 51
122.607921015198
  0
ARC
  5
3F3
330
2
100
AcDbEntity
  8
0
100
AcDbCircle
 10
-12.79385614004603
 20
0.7121597640073016
 30
0.0
 40
0.0320532506230862
100
AcDbArc
 50
236.4891770443209
 51
269.9999999999936
  0
ARC
  5
3F4
330
2
100
AcDbEntity
  8
0
100
AcDbCircle
 10
-12.77878112148224
 20
0.7349262876219331
 30
0.0
 40
0.0593583926698537
100
AcDbArc
 50
212.0281066666065
 51
236.4891770443275
  0
ARC
  5
3F5
330
2
100
AcDbEntity
  8
0
100
AcDbCircle
 10
-12.75477769595856
 20
0.749941670243734
 30
0.0
 40
0.0876713959042334
100
AcDbArc
 50
194.5265478168138
 51
212.0281066666247
  0
ARC
  5
3F6
330
2
100
AcDbEntity
  8
0
100
AcDbCircle
 10
-12.71675420078243
 20
0.7597940133841927
 30
0.0
 40
0.126950586969819
100
AcDbArc
 50
179.9999999999872
 51
194.5265478167845
  0
ARC
  5
3F7
330
2
100
AcDbEntity
  8
0
100
AcDbCircle
 10
-12.71675420078245
 20
0.7597940133842425
 30
0.0
 40
0.1269505869697944
100
AcDbArc
 50
165.4734521832127
 51
180.0000000000096
  0
ARC
  5
3F8
330
2
100
AcDbEntity
  8
0
100
AcDbCircle
 10
-12.75477769595857
 20
0.7696463565247047
 30
0.0
 40
0.0876713959042287
100
AcDbArc
 50
147.9718933333761
 51
165.4734521831878
  0
ARC
  5
3F9
330
2
100
AcDbEntity
  8
0
100
AcDbCircle
 10
-12.77878112148224
 20
0.7846617391465021
 30
0.0
 40
0.0593583926698542
100
AcDbArc
 50
123.5108229556726
 51
147.9718933333935
  0
ARC
  5
3FA
330
2
100
AcDbEntity
  8
0
100
AcDbCircle
 10
-12.79385614004603
 20
0.80742826276113
 30
0.0
 40
0.0320532506230895
100
AcDbArc
 50
90.00000000000637
 51
123.5108229556756
  0
LINE
  5
3FB
330
2
100
AcDbEntity
  8
0
100
AcDbLine
 10
-13.9066288275429
 20
0.2707357309112322
 30
0.0
 11
-13.8441288275429
 21
0.2707357309112322
 31
0.0
  0
ARC
  5
3FC
330
2
100
AcDbEntity
  8
0
100
AcDbCircle
 10
-14.2191288275429
 20
-0.0599831829718855
 30
0.0
 40
0.5
100
AcDbArc
 50
25.11757623782321
 51
41.40962210927817
  0
LINE
  5
3FD
330
2
100
AcDbEntity
  8
0
100
AcDbLine
 10
-13.76640951373109
 20
0.1522554160193703
 30
0.0
 11
-13.76640951373109
 21
0.0897554160193703
 31
0.0
  0
LINE
  5
3FE
330
2
100
AcDbEntity
  8
0
100
AcDbLine
 10
-12.5316288275429
 20
2.326807614001877
 30
0.0
 11
-12.5316288275429
 21
4.199469732454423
 31
0.0
  0
ARC
  5
3FF
330
2
100
AcDbEntity
  8
0
100
AcDbCircle
 10
-11.5316288275429
 20
2.326807614001877
 30
0.0
 40
1.0
100
AcDbArc
 50
180.0
 51
226.0050860052541
  0
LINE
  5
400
330
2
100
AcDbEntity
  8
0
100
AcDbLine
 10
-12.79385614004603
 20
2.240112315576367
 30
0.0
 11
-12.79385614004603
 21
2.516787315576371
 31
0.0
  0
ARC
  5
401
330
2
100
AcDbEntity
  8
0
100
AcDbCircle
 10
-12.79385614004602
 20
2.526610615813533
 30
0.0
 40
0.2864983002371666
100
AcDbArc
 50
253.9689634222553
 51
269.9999999999972
  0
ARC
  5
402
330
2
100
AcDbEntity
  8
0
100
AcDbCircle
 10
-12.81479812413258
 20
2.453726267876435
 30
0.0
 40
0.2106649640867779
100
AcDbArc
 50
235.2517244545713
 51
253.9689634222627
  0
ARC
  5
403
330
2
100
AcDbEntity
  8
0
100
AcDbCircle
 10
-12.84679438090225
 20
2.407600890172384
 30
0.0
 40
0.1545284259354786
100
AcDbArc
 50
210.84247098871
 51
235.2517244545641
  0
ARC
  5
404
330
2
100
AcDbEntity
  8
0
100
AcDbCircle
 10
-12.89561344979204
 20
2.378449815576373
 30
0.0
 40
0.0976681881821232
100
AcDbArc
 50
180.0000000000042
 51
210.8424709887172
  0
ARC
  5
405
330
2
100
AcDbEntity
  8
0
100
AcDbCircle
 10
-12.89561344979203
 20
2.378449815576362
 30
0.0
 40
0.0976681881821371
100
AcDbArc
 50
149.1575290112853
 51
179.9999999999979
  0
ARC
  5
406
330
2
100
AcDbEntity
  8
0
100
AcDbCircle
 10
-12.84679438090227
 20
2.34929874098035
 30
0.0
 40
0.1545284259354653
100
AcDbArc
 50
124.7482755454312
 51
149.1575290112855
  0
ARC
  5
407
330
2
100
AcDbEntity
  8
0
100
AcDbCircle
 10
-12.81479812413256
 20
2.303173363276299
 30
0.0
 40
0.2106649640867889
100
AcDbArc
 50
106.0310365777435
 51
124.7482755454349
  0
ARC
  5
408
330
2
100
AcDbEntity
  8
0
100
AcDbCircle
 10
-12.79385614004602
 20
2.230289015339208
 30
0.0
 40
0.2864983002371627
100
AcDbArc
 50
90.00000000000284
 51
106.0310365777449
  0
ARC
  5
409
330
2
100
AcDbEntity
  8
0
100
AcDbCircle
 10
-12.79385614004603
 20
2.316246088643103
 30
0.0
 40
0.0468087730667364
100
AcDbArc
 50
237.392078984802
 51
269.9999999999956
  0
ARC
  5
40A
330
2
100
AcDbEntity
  8
0
100
AcDbCircle
 10
-12.77481363575425
 20
2.346012955387186
 30
0.0
 40
0.0821454866301448
100
AcDbArc
 50
212.9226719024499
 51
237.392078984805
  0
ARC
  5
40B
330
2
100
AcDbEntity
  8
0
100
AcDbCircle
 10
-12.74455572444121
 20
2.365604664383456
 30
0.0
 40
0.1181923486076141
100
AcDbArc
 50
195.0133710020014
 51
212.9226719024537
  0
ARC
  5
40C
330
2
100
AcDbEntity
  8
0
100
AcDbCircle
 10
-12.69666167810787
 20
2.378449815576365
 30
0.0
 40
0.1677790160026763
100
AcDbArc
 50
179.9999999999976
 51
195.0133710019946
  0
ARC
  5
40D
330
2
100
AcDbEntity
  8
0
100
AcDbCircle
 10
-12.6966616781079
 20
2.37844981557638
 30
0.0
 40
0.167779016002644
100
AcDbArc
 50
164.9866289980049
 51
180.0000000000025
  0
ARC
  5
40E
330
2
100
AcDbEntity
  8
0
100
AcDbCircle
 10
-12.74455572444121
 20
2.391294966769285
 30
0.0
 40
0.11819234860761
100
AcDbArc
 50
147.0773280975469
 51
164.9866289979999
  0
ARC
  5
40F
330
2
100
AcDbEntity
  8
0
100
AcDbCircle
 10
-12.77481363575425
 20
2.410886675765552
 30
0.0
 40
0.0821454866301446
100
AcDbArc
 50
122.607921015195
 51
147.0773280975501
  0
ARC
  5
410
330
2
100
AcDbEntity
  8
0
100
AcDbCircle
 10
-12.79385614004603
 20
2.440653542509635
 30
0.0
 40
0.0468087730667357
100
AcDbArc
 50
90.00000000000435
 51
122.607921015198
  0
ARC
  5
411
330
2
100
AcDbEntity
  8
0
100
AcDbCircle
 10
-12.79385614004603
 20
2.330815566199453
 30
0.0
 40
0.0320532506230862
100
AcDbArc
 50
236.4891770443209
 51
269.9999999999936
  0
ARC
  5
412
330
2
100
AcDbEntity
  8
0
100
AcDbCircle
 10
-12.77878112148224
 20
2.353582089814085
 30
0.0
 40
0.0593583926698537
100
AcDbArc
 50
212.0281066666065
 51
236.4891770443275
  0
ARC
  5
413
330
2
100
AcDbEntity
  8
0
100
AcDbCircle
 10
-12.75477769595856
 20
2.368597472435885
 30
0.0
 40
0.0876713959042334
100
AcDbArc
 50
194.5265478168138
 51
212.0281066666247
  0
ARC
  5
414
330
2
100
AcDbEntity
  8
0
100
AcDbCircle
 10
-12.71675420078243
 20
2.378449815576344
 30
0.0
 40
0.126950586969819
100
AcDbArc
 50
179.9999999999872
 51
194.5265478167845
  0
ARC
  5
415
330
2
100
AcDbEntity
  8
0
100
AcDbCircle
 10
-12.71675420078245
 20
2.378449815576394
 30
0.0
 40
0.1269505869697944
100
AcDbArc
 50
165.4734521832127
 51
180.0000000000096
  0
ARC
  5
416
330
2
100
AcDbEntity
  8
0
100
AcDbCircle
 10
-12.75477769595857
 20
2.388302158716856
 30
0.0
 40
0.0876713959042287
100
AcDbArc
 50
147.9718933333761
 51
165.4734521831878
  0
ARC
  5
417
330
2
100
AcDbEntity
  8
0
100
AcDbCircle
 10
-12.77878112148224
 20
2.403317541338653
 30
0.0
 40
0.0593583926698542
100
AcDbArc
 50
123.5108229556726
 51
147.9718933333935
  0
ARC
  5
418
330
2
100
AcDbEntity
  8
0
100
AcDbCircle
 10
-12.79385614004603
 20
2.426084064953281
 30
0.0
 40
0.0320532506230895
100
AcDbArc
 50
90.00000000000637
 51
123.5108229556756
  0
ARC
  5
419
330
2
100
AcDbEntity
  8
0
100
AcDbCircle
 10
-13.8441288275429
 20
2.02725541601937
 30
0.0
 40
0.1875000000000025
100
AcDbArc
 50
270.0
 51
90.0
  0
LINE
  5
41A
330
2
100
AcDbEntity
  8
0
100
AcDbLine
 10
-12.8441288275429
 20
4.511969732454423
 30
0.0
 11
-12.8441288275429
 21
5.511969732454423
 31
0.0
  0
LINE
  5
41B
330
2
100
AcDbEntity
  8
0
100
AcDbLine
 10
-12.79385614004603
 20
3.502958901633916
 30
0.0
 11
-12.79385614004603
 21
3.77963390163392
 31
0.0
  0
ARC
  5
41C
330
2
100
AcDbEntity
  8
0
100
AcDbCircle
 10
-12.79385614004602
 20
3.789457201871082
 30
0.0
 40
0.2864983002371666
100
AcDbArc
 50
253.9689634222553
 51
269.9999999999972
  0
ARC
  5
41D
330
2
100
AcDbEntity
  8
0
100
AcDbCircle
 10
-12.81479812413258
 20
3.716572853933984
 30
0.0
 40
0.2106649640867779
100
AcDbArc
 50
235.2517244545713
 51
253.9689634222627
  0
ARC
  5
41E
330
2
100
AcDbEntity
  8
0
100
AcDbCircle
 10
-12.84679438090225
 20
3.670447476229933
 30
0.0
 40
0.1545284259354786
100
AcDbArc
 50
210.84247098871
 51
235.2517244545641
  0
ARC
  5
41F
330
2
100
AcDbEntity
  8
0
100
AcDbCircle
 10
-12.89561344979204
 20
3.641296401633921
 30
0.0
 40
0.0976681881821232
100
AcDbArc
 50
180.0000000000042
 51
210.8424709887172
  0
ARC
  5
420
330
2
100
AcDbEntity
  8
0
100
AcDbCircle
 10
-12.89561344979203
 20
3.641296401633911
 30
0.0
 40
0.0976681881821371
100
AcDbArc
 50
149.1575290112853
 51
179.9999999999979
  0
ARC
  5
421
330
2
100
AcDbEntity
  8
0
100
AcDbCircle
 10
-12.84679438090227
 20
3.612145327037899
 30
0.0
 40
0.1545284259354653
100
AcDbArc
 50
124.7482755454312
 51
149.1575290112855
  0
ARC
  5
422
330
2
100
AcDbEntity
  8
0
100
AcDbCircle
 10
-12.81479812413256
 20
3.566019949333848
 30
0.0
 40
0.2106649640867889
100
AcDbArc
 50
106.0310365777435
 51
124.7482755454349
  0
ARC
  5
423
330
2
100
AcDbEntity
  8
0
100
AcDbCircle
 10
-12.79385614004602
 20
3.493135601396757
 30
0.0
 40
0.2864983002371627
100
AcDbArc
 50
90.00000000000284
 51
106.0310365777449
  0
ARC
  5
424
330
2
100
AcDbEntity
  8
0
100
AcDbCircle
 10
-12.79385614004603
 20
3.579092674700652
 30
0.0
 40
0.0468087730667364
100
AcDbArc
 50
237.392078984802
 51
269.9999999999956
  0
ARC
  5
425
330
2
100
AcDbEntity
  8
0
100
AcDbCircle
 10
-12.77481363575425
 20
3.608859541444735
 30
0.0
 40
0.0821454866301448
100
AcDbArc
 50
212.9226719024499
 51
237.392078984805
  0
ARC
  5
426
330
2
100
AcDbEntity
  8
0
100
AcDbCircle
 10
-12.74455572444121
 20
3.628451250441005
 30
0.0
 40
0.1181923486076141
100
AcDbArc
 50
195.0133710020014
 51
212.9226719024537
  0
ARC
  5
427
330
2
100
AcDbEntity
  8
0
100
AcDbCircle
 10
-12.69666167810787
 20
3.641296401633914
 30
0.0
 40
0.1677790160026763
100
AcDbArc
 50
179.9999999999976
 51
195.0133710019946
  0
ARC
  5
428
330
2
100
AcDbEntity
  8
0
100
AcDbCircle
 10
-12.6966616781079
 20
3.641296401633928
 30
0.0
 40
0.167779016002644
100
AcDbArc
 50
164.9866289980049
 51
180.0000000000025
  0
ARC
  5
429
330
2
100
AcDbEntity
  8
0
100
AcDbCircle
 10
-12.74455572444121
 20
3.654141552826834
 30
0.0
 40
0.11819234860761
100
AcDbArc
 50
147.0773280975469
 51
164.9866289979999
  0
ARC
  5
42A
330
2
100
AcDbEntity
  8
0
100
AcDbCircle
 10
-12.77481363575425
 20
3.6737332618231
 30
0.0
 40
0.0821454866301446
100
AcDbArc
 50
122.607921015195
 51
147.0773280975501
  0
ARC
  5
42B
330
2
100
AcDbEntity
  8
0
100
AcDbCircle
 10
-12.79385614004603
 20
3.703500128567184
 30
0.0
 40
0.0468087730667357
100
AcDbArc
 50
90.00000000000435
 51
122.607921015198
  0
ARC
  5
42C
330
2
100
AcDbEntity
  8
0
100
AcDbCircle
 10
-12.79385614004603
 20
3.593662152257002
 30
0.0
 40
0.0320532506230862
100
AcDbArc
 50
236.4891770443209
 51
269.9999999999936
  0
ARC
  5
42D
330
2
100
AcDbEntity
  8
0
100
AcDbCircle
 10
-12.77878112148224
 20
3.616428675871633
 30
0.0
 40
0.0593583926698537
100
AcDbArc
 50
212.0281066666065
 51
236.4891770443275
  0
ARC
  5
42E
330
2
100
AcDbEntity
  8
0
100
AcDbCircle
 10
-12.75477769595856
 20
3.631444058493434
 30
0.0
 40
0.0876713959042334
100
AcDbArc
 50
194.5265478168138
 51
212.0281066666247
  0
ARC
  5
42F
330
2
100
AcDbEntity
  8
0
100
AcDbCircle
 10
-12.71675420078243
 20
3.641296401633893
 30
0.0
 40
0.126950586969819
100
AcDbArc
 50
179.9999999999872
 51
194.5265478167845
  0
ARC
  5
430
330
2
100
AcDbEntity
  8
0
100
AcDbCircle
 10
-12.71675420078245
 20
3.641296401633943
 30
0.0
 40
0.1269505869697944
100
AcDbArc
 50
165.4734521832127
 51
180.0000000000096
  0
ARC
  5
431
330
2
100
AcDbEntity
  8
0
100
AcDbCircle
 10
-12.75477769595857
 20
3.651148744774405
 30
0.0
 40
0.0876713959042287
100
AcDbArc
 50
147.9718933333761
 51
165.4734521831878
  0
ARC
  5
432
330
2
100
AcDbEntity
  8
0
100
AcDbCircle
 10
-12.77878112148224
 20
3.666164127396202
 30
0.0
 40
0.0593583926698542
100
AcDbArc
 50
123.5108229556726
 51
147.9718933333935
  0
ARC
  5
433
330
2
100
AcDbEntity
  8
0
100
AcDbCircle
 10
-12.79385614004603
 20
3.68893065101083
 30
0.0
 40
0.0320532506230895
100
AcDbArc
 50
90.00000000000637
 51
123.5108229556756
  0
ARC
  5
434
330
2
100
AcDbEntity
  8
0
100
AcDbCircle
 10
-12.6878788275429
 20
4.199469732454423
 30
0.0
 40
0.15625
100
AcDbArc
 50
0.000000000000007
 51
90.0
  0
ARC
  5
435
330
2
100
AcDbEntity
  8
0
100
AcDbCircle
 10
-12.6878788275429
 20
4.511969732454423
 30
0.0
 40
0.15625
100
AcDbArc
 50
180.0
 51
269.9999999999999
  0
LINE
  5
436
330
2
100
AcDbEntity
  8
0
100
AcDbLine
 10
-12.6878788275429
 20
4.355719732454423
 30
0.0
 11
-12.6878788275429
 21
4.355719732454423
 31
0.0
  0
ARC
  5
437
330
2
100
AcDbEntity
  8
0
100
AcDbCircle
 10
-12.6878788275429
 20
5.824469732454423
 30
0.0
 40
0.15625
100
AcDbArc
 50
270.0
 51
359.9999999999999
  0
ARC
  5
438
330
2
100
AcDbEntity
  8
0
100
AcDbCircle
 10
-12.6878788275429
 20
5.511969732454423
 30
0.0
 40
0.15625
100
AcDbArc
 50
90.0
 51
180.0
  0
LINE
  5
439
330
2
100
AcDbEntity
  8
0
100
AcDbLine
 10
-12.6878788275429
 20
5.668219732454423
 30
0.0
 11
-12.6878788275429
 21
5.668219732454423
 31
0.0
  0
ARC
  5
43A
330
2
100
AcDbEntity
  8
0
100
AcDbCircle
 10
-12.79385614004602
 20
6.225971063183616
 30
0.0
 40
0.2864983002371666
100
AcDbArc
 50
253.9689634222553
 51
269.9999999999972
  0
ARC
  5
43B
330
2
100
AcDbEntity
  8
0
100
AcDbCircle
 10
-12.79385614004603
 20
6.015606536013186
 30
0.0
 40
0.0468087730667364
100
AcDbArc
 50
237.392078984802
 51
269.9999999999956
  0
ARC
  5
43C
330
2
100
AcDbEntity
  8
0
100
AcDbCircle
 10
-12.6878788275429
 20
8.511969732454423
 30
0.0
 40
0.15625
100
AcDbArc
 50
180.0
 51
269.9999999999999
  0
LINE
  5
43D
330
2
100
AcDbEntity
  8
0
100
AcDbLine
 10
-12.8441288275429
 20
6.636969732454423
 30
0.0
 11
-12.8441288275429
 21
7.261969732454423
 31
0.0
  0
ARC
  5
43E
330
2
100
AcDbEntity
  8
0
100
AcDbCircle
 10
-12.6878788275429
 20
6.636969732454423
 30
0.0
 40
0.15625
100
AcDbArc
 50
180.0
 51
269.9999999999999
  0
ARC
  5
43F
330
2
100
AcDbEntity
  8
0
100
AcDbCircle
 10
-12.6878788275429
 20
6.324469732454423
 30
0.0
 40
0.15625
100
AcDbArc
 50
0.000000000000007
 51
90.0
  0
LINE
  5
440
330
2
100
AcDbEntity
  8
0
100
AcDbLine
 10
-12.6878788275429
 20
6.480719732454423
 30
0.0
 11
-12.6878788275429
 21
6.480719732454423
 31
0.0
  0
ARC
  5
441
330
2
100
AcDbEntity
  8
0
100
AcDbCircle
 10
-12.84679438090225
 20
6.106961337542467
 30
0.0
 40
0.1545284259354786
100
AcDbArc
 50
210.84247098871
 51
235.2517244545641
  0
ARC
  5
442
330
2
100
AcDbEntity
  8
0
100
AcDbCircle
 10
-12.89561344979204
 20
6.077810262946455
 30
0.0
 40
0.0976681881821232
100
AcDbArc
 50
180.0000000000042
 51
210.8424709887172
  0
ARC
  5
443
330
2
100
AcDbEntity
  8
0
100
AcDbCircle
 10
-12.89561344979203
 20
6.077810262946445
 30
0.0
 40
0.0976681881821371
100
AcDbArc
 50
149.1575290112853
 51
179.9999999999979
  0
ARC
  5
444
330
2
100
AcDbEntity
  8
0
100
AcDbCircle
 10
-12.84679438090227
 20
6.048659188350433
 30
0.0
 40
0.1545284259354653
100
AcDbArc
 50
124.7482755454312
 51
149.1575290112855
  0
ARC
  5
445
330
2
100
AcDbEntity
  8
0
100
AcDbCircle
 10
-12.81479812413256
 20
6.002533810646382
 30
0.0
 40
0.2106649640867889
100
AcDbArc
 50
106.0310365777435
 51
124.7482755454349
  0
ARC
  5
446
330
2
100
AcDbEntity
  8
0
100
AcDbCircle
 10
-12.79385614004602
 20
5.929649462709291
 30
0.0
 40
0.2864983002371627
100
AcDbArc
 50
90.00000000000284
 51
106.0310365777449
  0
ARC
  5
447
330
2
100
AcDbEntity
  8
0
100
AcDbCircle
 10
-12.74455572444121
 20
6.064965111753539
 30
0.0
 40
0.1181923486076141
100
AcDbArc
 50
195.0133710020014
 51
212.9226719024537
  0
ARC
  5
448
330
2
100
AcDbEntity
  8
0
100
AcDbCircle
 10
-12.69666167810787
 20
6.077810262946448
 30
0.0
 40
0.1677790160026763
100
AcDbArc
 50
179.9999999999976
 51
195.0133710019946
  0
ARC
  5
449
330
2
100
AcDbEntity
  8
0
100
AcDbCircle
 10
-12.6966616781079
 20
6.077810262946462
 30
0.0
 40
0.167779016002644
100
AcDbArc
 50
164.9866289980049
 51
180.0000000000025
  0
ARC
  5
44A
330
2
100
AcDbEntity
  8
0
100
AcDbCircle
 10
-12.74455572444121
 20
6.090655414139368
 30
0.0
 40
0.11819234860761
100
AcDbArc
 50
147.0773280975469
 51
164.9866289979999
  0
ARC
  5
44B
330
2
100
AcDbEntity
  8
0
100
AcDbCircle
 10
-12.77481363575425
 20
6.110247123135634
 30
0.0
 40
0.0821454866301446
100
AcDbArc
 50
122.607921015195
 51
147.0773280975501
  0
ARC
  5
44C
330
2
100
AcDbEntity
  8
0
100
AcDbCircle
 10
-12.79385614004603
 20
6.140013989879718
 30
0.0
 40
0.0468087730667357
100
AcDbArc
 50
90.00000000000435
 51
122.607921015198
  0
ARC
  5
44D
330
2
100
AcDbEntity
  8
0
100
AcDbCircle
 10
-12.79385614004603
 20
6.030176013569536
 30
0.0
 40
0.0320532506230862
100
AcDbArc
 50
236.4891770443209
 51
269.9999999999936
  0
ARC
  5
44E
330
2
100
AcDbEntity
  8
0
100
AcDbCircle
 10
-12.77878112148224
 20
6.052942537184167
 30
0.0
 40
0.0593583926698537
100
AcDbArc
 50
212.0281066666065
 51
236.4891770443275
  0
ARC
  5
44F
330
2
100
AcDbEntity
  8
0
100
AcDbCircle
 10
-12.75477769595856
 20
6.067957919805968
 30
0.0
 40
0.0876713959042334
100
AcDbArc
 50
194.5265478168138
 51
212.0281066666247
  0
ARC
  5
450
330
2
100
AcDbEntity
  8
0
100
AcDbCircle
 10
-12.71675420078243
 20
6.077810262946427
 30
0.0
 40
0.126950586969819
100
AcDbArc
 50
179.9999999999872
 51
194.5265478167845
  0
ARC
  5
451
330
2
100
AcDbEntity
  8
0
100
AcDbCircle
 10
-12.71675420078245
 20
6.077810262946477
 30
0.0
 40
0.1269505869697944
100
AcDbArc
 50
165.4734521832127
 51
180.0000000000096
  0
ARC
  5
452
330
2
100
AcDbEntity
  8
0
100
AcDbCircle
 10
-12.75477769595857
 20
6.087662606086939
 30
0.0
 40
0.0876713959042287
100
AcDbArc
 50
147.9718933333761
 51
165.4734521831878
  0
ARC
  5
453
330
2
100
AcDbEntity
  8
0
100
AcDbCircle
 10
-12.77878112148224
 20
6.102677988708736
 30
0.0
 40
0.0593583926698542
100
AcDbArc
 50
123.5108229556726
 51
147.9718933333935
  0
ARC
  5
454
330
2
100
AcDbEntity
  8
0
100
AcDbCircle
 10
-12.79385614004603
 20
6.125444512323364
 30
0.0
 40
0.0320532506230895
100
AcDbArc
 50
90.00000000000637
 51
123.5108229556756
  0
LINE
  5
455
330
2
100
AcDbEntity
  8
0
100
AcDbLine
 10
-12.79385614004603
 20
7.809413437377826
 30
0.0
 11
-12.79385614004603
 21
8.08608843737783
 31
0.0
  0
ARC
  5
456
330
2
100
AcDbEntity
  8
0
100
AcDbCircle
 10
-12.84679438090225
 20
7.976902011973843
 30
0.0
 40
0.1545284259354786
100
AcDbArc
 50
210.84247098871
 51
235.2517244545641
  0
ARC
  5
457
330
2
100
AcDbEntity
  8
0
100
AcDbCircle
 10
-12.77481363575425
 20
7.915314077188645
 30
0.0
 40
0.0821454866301448
100
AcDbArc
 50
212.9226719024499
 51
237.392078984805
  0
LINE
  5
458
330
2
100
AcDbEntity
  8
0
100
AcDbLine
 10
-12.5316288275429
 20
7.574469732454423
 30
0.0
 11
-12.5316288275429
 21
8.199469732454423
 31
0.0
  0
ARC
  5
459
330
2
100
AcDbEntity
  8
0
100
AcDbCircle
 10
-12.6878788275429
 20
7.574469732454423
 30
0.0
 40
0.15625
100
AcDbArc
 50
270.0
 51
359.9999999999999
  0
ARC
  5
45A
330
2
100
AcDbEntity
  8
0
100
AcDbCircle
 10
-12.6878788275429
 20
7.261969732454423
 30
0.0
 40
0.15625
100
AcDbArc
 50
90.0
 51
180.0
  0
LINE
  5
45B
330
2
100
AcDbEntity
  8
0
100
AcDbLine
 10
-12.6878788275429
 20
7.418219732454423
 30
0.0
 11
-12.6878788275429
 21
7.418219732454423
 31
0.0
  0
ARC
  5
45C
330
2
100
AcDbEntity
  8
0
100
AcDbCircle
 10
-12.79385614004602
 20
8.095911737614992
 30
0.0
 40
0.2864983002371666
100
AcDbArc
 50
253.9689634222553
 51
269.9999999999972
  0
ARC
  5
45D
330
2
100
AcDbEntity
  8
0
100
AcDbCircle
 10
-12.81479812413258
 20
8.023027389677894
 30
0.0
 40
0.2106649640867779
100
AcDbArc
 50
235.2517244545713
 51
253.9689634222627
  0
ARC
  5
45E
330
2
100
AcDbEntity
  8
0
100
AcDbCircle
 10
-12.79385614004603
 20
7.885547210444562
 30
0.0
 40
0.0468087730667364
100
AcDbArc
 50
237.392078984802
 51
269.9999999999956
  0
ARC
  5
45F
330
2
100
AcDbEntity
  8
0
100
AcDbCircle
 10
-12.6878788275429
 20
8.199469732454423
 30
0.0
 40
0.15625
100
AcDbArc
 50
0.000000000000007
 51
90.0
  0
LINE
  5
460
330
2
100
AcDbEntity
  8
0
100
AcDbLine
 10
-12.6878788275429
 20
8.355719732454423
 30
0.0
 11
-12.6878788275429
 21
8.355719732454423
 31
0.0
  0
ARC
  5
461
330
2
100
AcDbEntity
  8
0
100
AcDbCircle
 10
-12.89561344979204
 20
7.947750937377831
 30
0.0
 40
0.0976681881821232
100
AcDbArc
 50
180.0000000000042
 51
210.8424709887172
  0
ARC
  5
462
330
2
100
AcDbEntity
  8
0
100
AcDbCircle
 10
-12.89561344979203
 20
7.947750937377821
 30
0.0
 40
0.0976681881821371
100
AcDbArc
 50
149.1575290112853
 51
179.9999999999979
  0
ARC
  5
463
330
2
100
AcDbEntity
  8
0
100
AcDbCircle
 10
-12.84679438090227
 20
7.918599862781809
 30
0.0
 40
0.1545284259354653
100
AcDbArc
 50
124.7482755454312
 51
149.1575290112855
  0
ARC
  5
464
330
2
100
AcDbEntity
  8
0
100
AcDbCircle
 10
-12.81479812413256
 20
7.872474485077758
 30
0.0
 40
0.2106649640867889
100
AcDbArc
 50
106.0310365777435
 51
124.7482755454349
  0
ARC
  5
465
330
2
100
AcDbEntity
  8
0
100
AcDbCircle
 10
-12.79385614004602
 20
7.799590137140667
 30
0.0
 40
0.2864983002371627
100
AcDbArc
 50
90.00000000000284
 51
106.0310365777449
  0
ARC
  5
466
330
2
100
AcDbEntity
  8
0
100
AcDbCircle
 10
-12.74455572444121
 20
7.934905786184915
 30
0.0
 40
0.1181923486076141
100
AcDbArc
 50
195.0133710020014
 51
212.9226719024537
  0
ARC
  5
467
330
2
100
AcDbEntity
  8
0
100
AcDbCircle
 10
-12.69666167810787
 20
7.947750937377824
 30
0.0
 40
0.1677790160026763
100
AcDbArc
 50
179.9999999999976
 51
195.0133710019946
  0
ARC
  5
468
330
2
100
AcDbEntity
  8
0
100
AcDbCircle
 10
-12.6966616781079
 20
7.947750937377839
 30
0.0
 40
0.167779016002644
100
AcDbArc
 50
164.9866289980049
 51
180.0000000000025
  0
ARC
  5
469
330
2
100
AcDbEntity
  8
0
100
AcDbCircle
 10
-12.74455572444121
 20
7.960596088570744
 30
0.0
 40
0.11819234860761
100
AcDbArc
 50
147.0773280975469
 51
164.9866289979999
  0
ARC
  5
46A
330
2
100
AcDbEntity
  8
0
100
AcDbCircle
 10
-12.77481363575425
 20
7.980187797567011
 30
0.0
 40
0.0821454866301446
100
AcDbArc
 50
122.607921015195
 51
147.0773280975501
  0
ARC
  5
46B
330
2
100
AcDbEntity
  8
0
100
AcDbCircle
 10
-12.79385614004603
 20
8.009954664311094
 30
0.0
 40
0.0468087730667357
100
AcDbArc
 50
90.00000000000435
 51
122.607921015198
  0
ARC
  5
46C
330
2
100
AcDbEntity
  8
0
100
AcDbCircle
 10
-12.79385614004603
 20
7.900116688000912
 30
0.0
 40
0.0320532506230862
100
AcDbArc
 50
236.4891770443209
 51
269.9999999999936
  0
ARC
  5
46D
330
2
100
AcDbEntity
  8
0
100
AcDbCircle
 10
-12.77878112148224
 20
7.922883211615543
 30
0.0
 40
0.0593583926698537
100
AcDbArc
 50
212.0281066666065
 51
236.4891770443275
  0
ARC
  5
46E
330
2
100
AcDbEntity
  8
0
100
AcDbCircle
 10
-12.75477769595856
 20
7.937898594237344
 30
0.0
 40
0.0876713959042334
100
AcDbArc
 50
194.5265478168138
 51
212.0281066666247
  0
ARC
  5
46F
330
2
100
AcDbEntity
  8
0
100
AcDbCircle
 10
-12.71675420078243
 20
7.947750937377803
 30
0.0
 40
0.126950586969819
100
AcDbArc
 50
179.9999999999872
 51
194.5265478167845
  0
ARC
  5
470
330
2
100
AcDbEntity
  8
0
100
AcDbCircle
 10
-12.71675420078245
 20
7.947750937377853
 30
0.0
 40
0.1269505869697944
100
AcDbArc
 50
165.4734521832127
 51
180.0000000000096
  0
ARC
  5
471
330
2
100
AcDbEntity
  8
0
100
AcDbCircle
 10
-12.75477769595857
 20
7.957603280518315
 30
0.0
 40
0.0876713959042287
100
AcDbArc
 50
147.9718933333761
 51
165.4734521831878
  0
ARC
  5
472
330
2
100
AcDbEntity
  8
0
100
AcDbCircle
 10
-12.77878112148224
 20
7.972618663140112
 30
0.0
 40
0.0593583926698542
100
AcDbArc
 50
123.5108229556726
 51
147.9718933333935
  0
ARC
  5
473
330
2
100
AcDbEntity
  8
0
100
AcDbCircle
 10
-12.79385614004603
 20
7.99538518675474
 30
0.0
 40
0.0320532506230895
100
AcDbArc
 50
90.00000000000637
 51
123.5108229556756
  0
LINE
  5
474
330
2
100
AcDbEntity
  8
0
100
AcDbLine
 10
-13.9066288275429
 20
9.074469732454423
 30
0.0
 11
-12.8441288275429
 21
9.074469732454423
 31
0.0
  0
LINE
  5
475
330
2
100
AcDbEntity
  8
0
100
AcDbLine
 10
-12.8441288275429
 20
8.511969732454423
 30
0.0
 11
-12.8441288275429
 21
9.074469732454423
 31
0.0
  0
ENDSEC
  0
SECTION
  2
OBJECTS
  0
DICTIONARY
  5
9
330
0
100
AcDbDictionary
281
     1
  3
ACAD_COLOR
350
47B
  3
ACAD_GROUP
350
23
  3
ACAD_LAYOUT
350
D
  3
ACAD_MATERIAL
350
47A
  3
ACAD_MLINESTYLE
350
24
  3
ACAD_PLOTSETTINGS
350
25
  3
ACAD_PLOTSTYLENAME
350
8
  3
ACAD_TABLESTYLE
350
47C
  3
ACDBHEADERROUNDTRIPXREC
350
494
  3
AcDbVariableDictionary
350
124
  0
DICTIONARY
  5
47B
102
{ACAD_REACTORS
330
9
102
}
330
9
100
AcDbDictionary
281
     1
  0
DICTIONARY
  5
23
102
{ACAD_REACTORS
330
9
102
}
330
9
100
AcDbDictionary
281
     1
  0
DICTIONARY
  5
D
102
{ACAD_REACTORS
330
9
102
}
330
9
100
AcDbDictionary
281
     1
  3
Layout1
350
13
  3
Model
350
C
  0
DICTIONARY
  5
47A
102
{ACAD_REACTORS
330
9
102
}
330
9
100
AcDbDictionary
281
     1
  0
DICTIONARY
  5
24
102
{ACAD_REACTORS
330
9
102
}
330
9
100
AcDbDictionary
281
     1
  3
STANDARD
350
27
  0
DICTIONARY
  5
25
102
{ACAD_REACTORS
330
9
102
}
330
9
100
AcDbDictionary
281
     1
  0
ACDBDICTIONARYWDFLT
  5
8
102
{ACAD_REACTORS
330
9
102
}
330
9
100
AcDbDictionary
281
     1
  3
Normal
350
7
100
AcDbDictionaryWithDefault
340
7
  0
DICTIONARY
  5
47C
102
{ACAD_REACTORS
330
9
102
}
330
9
100
AcDbDictionary
281
     1
  3
Standard
350
47D
  0
DICTIONARY
  5
494
102
{ACAD_REACTORS
330
9
102
}
330
9
100
AcDbDictionary
281
     1
  3
COLORDICT
350
495
  3
MATERIALDICT
350
496
  0
DICTIONARY
  5
124
102
{ACAD_REACTORS
330
9
102
}
330
9
100
AcDbDictionary
281
     1
  3
CTABLESTYLE
350
491
  3
HIDETEXT
350
493
  0
LAYOUT
  5
13
102
{ACAD_REACTORS
330
D
102
}
102
{ACAD_XDICTIONARY
360
497
102
}
330
D
100
AcDbPlotSettings
  1

  2
C:\ACAD2000\plotters\HP LaserJet 2100 Series PS.pc3
  4

  6

 40
0.0
 41
0.0
 42
0.0
 43
0.0
 44
0.0
 45
0.0
 46
0.0
 47
0.0
 48
0.0
 49
0.0
140
0.0
141
0.0
142
1.0
143
1.0
 70
   688
 72
     0
 73
     0
 74
     5
  7

 75
    16
147
1.0
148
0.0
149
0.0
100
AcDbLayout
  1
Layout1
 70
     0
 71
     1
 10
0.0
 20
0.0
 11
12.0
 21
9.0
 12
0.0
 22
0.0
 32
0.0
 14
1.000000000000000E+20
 24
1.000000000000000E+20
 34
1.000000000000000E+20
 15
-1.000000000000000E+20
 25
-1.000000000000000E+20
 35
-1.000000000000000E+20
146
0.0
 13
0.0
 23
0.0
 33
0.0
 16
1.0
 26
0.0
 36
0.0
 17
0.0
 27
1.0
 37
0.0
 76
     0
330
E
  0
LAYOUT
  5
C
102
{ACAD_REACTORS
330
D
102
}
102
{ACAD_XDICTIONARY
360
499
102
}
330
D
100
AcDbPlotSettings
  1

  2
HP LaserJet 2100 Series PS
  4
Letter
  6

 40
5.365749835968018
 41
5.408073902130127
 42
5.132904052734375
 43
5.090576171875
 44
215.8999938964844
 45
279.3999938964844
 46
0.0
 47
0.0
 48
0.0
 49
0.0
140
0.0
141
0.0
142
1.0
143
5.193734373688032
 70
 28336
 72
     0
 73
     1
 74
     2
  7

 75
     0
147
0.1925396887961961
148
0.0
149
0.0
100
AcDbLayout
  1
Model
 70
     1
 71
     0
 10
0.0
 20
0.0
 11
12.0
 21
9.0
 12
0.0
 22
0.0
 32
0.0
 14
0.0
 24
0.0
 34
0.0
 15
0.0
 25
0.0
 35
0.0
146
0.0
 13
0.0
 23
0.0
 33
0.0
 16
1.0
 26
0.0
 36
0.0
 17
0.0
 27
1.0
 37
0.0
 76
     0
330
2
  0
MLINESTYLE
  5
27
102
{ACAD_REACTORS
330
24
102
}
330
24
100
AcDbMlineStyle
  2
STANDARD
 70
     0
  3

 62
   256
 51
90.0
 52
90.0
 71
     2
 49
0.5
 62
   256
  6
BYLAYER
 49
-0.5
 62
   256
  6
BYLAYER
  0
ACDBPLACEHOLDER
  5
7
102
{ACAD_REACTORS
330
8
102
}
330
8
  0
ACAD_PROXY_OBJECT
  5
47D
102
{ACAD_REACTORS
330
47C
102
}
330
47C
100
AcDbProxyObject
 90
      499
 91
      513
 95
   983063
 70
     0
 93
     1841
310
4214DD185B99185C9928B81E85EB51B8AE3F2E07A17AD46E2B8FC02B5E8DC0F42B1CFD028000000C1008070000C3001FDFF8000000C1003FBFF000000182007F7FE00000030400FEFFC00000060801FDFF8000000C1003FBFF00000018200000000000000681FA0B0000001820100E000186003FBFF000000182007F7FE000
310
00030400FEFFC00000060801FDFF8000000C1003FBFF000000182007F7FE000000304000AD7A3703D0AC73F4160000003040201C00030C007F7FE00000030400FEFFC00000060801FDFF8000000C1003FBFF000000182007F7FE00000030400FEFFC000000608000
340
16
340
16
340
16
 94
        0
  0
XRECORD
  5
495
102
{ACAD_REACTORS
330
494
102
}
330
494
100
AcDbXrecord
340
47B
  0
XRECORD
  5
496
102
{ACAD_REACTORS
330
494
102
}
330
494
100
AcDbXrecord
340
47A
  0
DICTIONARYVAR
  5
491
102
{ACAD_REACTORS
330
124
102
}
330
124
100
DictionaryVariables
280
     0
  1
STANDARD
  0
DICTIONARYVAR
  5
493
102
{ACAD_REACTORS
330
124
102
}
330
124
100
DictionaryVariables
280
     0
  1
0
  0
DICTIONARY
  5
497
330
13
100
AcDbDictionary
280
     1
281
     1
  3
ACAD_XREC_ROUNDTRIP
360
498
  0
DICTIONARY
  5
499
330
C
100
AcDbDictionary
280
     1
281
     1
  3
ACAD_XREC_ROUNDTRIP
360
49A
  0
XRECORD
  5
498
102
{ACAD_REACTORS
330
497
102
}
330
497
100
AcDbXrecord
102
SHADEPLOT
 70
     0
102
SHADEPLOTRESLEVEL
 70
     2
102
SHADEPLOTCUSTOMDPI
 70
   300
  0
XRECORD
  5
49A
102
{ACAD_REACTORS
330
499
102
}
330
499
100
AcDbXrecord
102
SHADEPLOT
 70
     0
102
SHADEPLOTRESLEVEL
 70
     2
102
SHADEPLOTCUSTOMDPI
 70
   300
  0
ENDSEC
  0
EOF
