  0
SECTION
  2
HEADER
  9
$ACADVER
  1
AC1015
  9
$ACADMAINTVER
 70
    20
  9
$DWGCODEPAGE
  3
ANSI_1252
  9
$INSBASE
 10
0.0
 20
0.0
 30
0.0
  9
$EXTMIN
 10
-1.256505412668246
 20
-0.0000000000000036
 30
0.0
  9
$EXTMAX
 10
1.256506603542862
 20
12.37499999999999
 30
0.0
  9
$LIMMIN
 10
0.0
 20
0.0
  9
$LIMMAX
 10
32.0
 20
42.0
  9
$ORTHOMODE
 70
     1
  9
$REGENMODE
 70
     1
  9
$FILLMODE
 70
     1
  9
$QTEXTMODE
 70
     0
  9
$MIRRTEXT
 70
     0
  9
$LTSCALE
 40
0.5
  9
$ATTMODE
 70
     1
  9
$TEXTSIZE
 40
0.36
  9
$TRACEWID
 40
0.05
  9
$TEXTSTYLE
  7
STANDARD
  9
$CLAYER
  8
0
  9
$CELTYPE
  6
BYLAYER
  9
$CECOLOR
 62
   256
  9
$CELTSCALE
 40
1.0
  9
$DISPSILH
 70
     0
  9
$DIMSCALE
 40
4.0
  9
$DIMASZ
 40
0.125
  9
$DIMEXO
 40
0.062
  9
$DIMDLI
 40
0.375
  9
$DIMRND
 40
0.0
  9
$DIMDLE
 40
0.0
  9
$DIMEXE
 40
0.08
  9
$DIMTP
 40
0.0
  9
$DIMTM
 40
0.0
  9
$DIMTXT
 40
0.09
  9
$DIMCEN
 40
-0.0078125
  9
$DIMTSZ
 40
0.0
  9
$DIMTOL
 70
     0
  9
$DIMLIM
 70
     0
  9
$DIMTIH
 70
     1
  9
$DIMTOH
 70
     1
  9
$DIMSE1
 70
     0
  9
$DIMSE2
 70
     0
  9
$DIMTAD
 70
     0
  9
$DIMZIN
 70
     0
  9
$DIMBLK
  1

  9
$DIMASO
 70
     0
  9
$DIMSHO
 70
     0
  9
$DIMPOST
  1

  9
$DIMAPOST
  1

  9
$DIMALT
 70
     1
  9
$DIMALTD
 70
     2
  9
$DIMALTF
 40
25.4
  9
$DIMLFAC
 40
1.0
  9
$DIMTOFL
 70
     0
  9
$DIMTVP
 40
0.0
  9
$DIMTIX
 70
     0
  9
$DIMSOXD
 70
     0
  9
$DIMSAH
 70
     0
  9
$DIMBLK1
  1

  9
$DIMBLK2
  1

  9
$DIMSTYLE
  2
STANDARD
  9
$DIMCLRD
 70
     0
  9
$DIMCLRE
 70
     0
  9
$DIMCLRT
 70
     0
  9
$DIMTFAC
 40
1.0
  9
$DIMGAP
 40
0.09
  9
$DIMJUST
 70
     0
  9
$DIMSD1
 70
     0
  9
$DIMSD2
 70
     0
  9
$DIMTOLJ
 70
     1
  9
$DIMTZIN
 70
     0
  9
$DIMALTZ
 70
     0
  9
$DIMALTTZ
 70
     0
  9
$DIMUPT
 70
     0
  9
$DIMDEC
 70
     3
  9
$DIMTDEC
 70
     3
  9
$DIMALTU
 70
     2
  9
$DIMALTTD
 70
     2
  9
$DIMTXSTY
  7
STANDARD
  9
$DIMAUNIT
 70
     0
  9
$DIMADEC
 70
     0
  9
$DIMALTRND
 40
0.0
  9
$DIMAZIN
 70
     0
  9
$DIMDSEP
 70
    46
  9
$DIMATFIT
 70
     3
  9
$DIMFRAC
 70
     2
  9
$DIMLDRBLK
  1

  9
$DIMLUNIT
 70
     2
  9
$DIMLWD
 70
    -2
  9
$DIMLWE
 70
    -2
  9
$DIMTMOVE
 70
     2
  9
$LUNITS
 70
     2
  9
$LUPREC
 70
     4
  9
$SKETCHINC
 40
0.1
  9
$FILLETRAD
 40
0.0
  9
$AUNITS
 70
     0
  9
$AUPREC
 70
     0
  9
$MENU
  1
qa
  9
$ELEVATION
 40
0.0
  9
$PELEVATION
 40
0.0
  9
$THICKNESS
 40
0.0
  9
$LIMCHECK
 70
     0
  9
$CHAMFERA
 40
0.4375
  9
$CHAMFERB
 40
0.4375
  9
$CHAMFERC
 40
0.0
  9
$CHAMFERD
 40
0.0
  9
$SKPOLY
 70
     0
  9
$TDCREATE
 40
2450162.525605093
  9
$TDUCREATE
 40
2450162.817271759
  9
$TDUPDATE
 40
2455369.447484468
  9
$TDUUPDATE
 40
2455369.739151134
  9
$TDINDWG
 40
0.5816237153
  9
$TDUSRTIMER
 40
0.5816237153
  9
$USRTIMER
 70
     1
  9
$ANGBASE
 50
0.0
  9
$ANGDIR
 70
     0
  9
$PDMODE
 70
     0
  9
$PDSIZE
 40
0.0
  9
$PLINEWID
 40
0.0
  9
$SPLFRAME
 70
     0
  9
$SPLINETYPE
 70
     6
  9
$SPLINESEGS
 70
     8
  9
$HANDSEED
  5
1D30
  9
$SURFTAB1
 70
     6
  9
$SURFTAB2
 70
     6
  9
$SURFTYPE
 70
     6
  9
$SURFU
 70
     6
  9
$SURFV
 70
     6
  9
$UCSBASE
  2

  9
$UCSNAME
  2

  9
$UCSORG
 10
0.0
 20
0.0
 30
0.0
  9
$UCSXDIR
 10
1.0
 20
0.0
 30
0.0
  9
$UCSYDIR
 10
0.0
 20
1.0
 30
0.0
  9
$UCSORTHOREF
  2

  9
$UCSORTHOVIEW
 70
     0
  9
$UCSORGTOP
 10
0.0
 20
0.0
 30
0.0
  9
$UCSORGBOTTOM
 10
0.0
 20
0.0
 30
0.0
  9
$UCSORGLEFT
 10
0.0
 20
0.0
 30
0.0
  9
$UCSORGRIGHT
 10
0.0
 20
0.0
 30
0.0
  9
$UCSORGFRONT
 10
0.0
 20
0.0
 30
0.0
  9
$UCSORGBACK
 10
0.0
 20
0.0
 30
0.0
  9
$PUCSBASE
  2

  9
$PUCSNAME
  2

  9
$PUCSORG
 10
0.0
 20
0.0
 30
0.0
  9
$PUCSXDIR
 10
1.0
 20
0.0
 30
0.0
  9
$PUCSYDIR
 10
0.0
 20
1.0
 30
0.0
  9
$PUCSORTHOREF
  2

  9
$PUCSORTHOVIEW
 70
     0
  9
$PUCSORGTOP
 10
0.0
 20
0.0
 30
0.0
  9
$PUCSORGBOTTOM
 10
0.0
 20
0.0
 30
0.0
  9
$PUCSORGLEFT
 10
0.0
 20
0.0
 30
0.0
  9
$PUCSORGRIGHT
 10
0.0
 20
0.0
 30
0.0
  9
$PUCSORGFRONT
 10
0.0
 20
0.0
 30
0.0
  9
$PUCSORGBACK
 10
0.0
 20
0.0
 30
0.0
  9
$USERI1
 70
     0
  9
$USERI2
 70
     0
  9
$USERI3
 70
     0
  9
$USERI4
 70
     0
  9
$USERI5
 70
     0
  9
$USERR1
 40
0.0
  9
$USERR2
 40
0.0
  9
$USERR3
 40
0.0
  9
$USERR4
 40
0.0
  9
$USERR5
 40
0.0
  9
$WORLDVIEW
 70
     1
  9
$SHADEDGE
 70
     3
  9
$SHADEDIF
 70
    70
  9
$TILEMODE
 70
     1
  9
$MAXACTVP
 70
    16
  9
$PINSBASE
 10
0.0
 20
0.0
 30
0.0
  9
$PLIMCHECK
 70
     0
  9
$PEXTMIN
 10
1.000000000000000E+20
 20
1.000000000000000E+20
 30
1.000000000000000E+20
  9
$PEXTMAX
 10
-1.000000000000000E+20
 20
-1.000000000000000E+20
 30
-1.000000000000000E+20
  9
$PLIMMIN
 10
0.0
 20
0.0
  9
$PLIMMAX
 10
12.0
 20
9.0
  9
$UNITMODE
 70
     0
  9
$VISRETAIN
 70
     0
  9
$PLINEGEN
 70
     0
  9
$PSLTSCALE
 70
     0
  9
$TREEDEPTH
 70
  3020
  9
$CMLSTYLE
  2
STANDARD
  9
$CMLJUST
 70
     0
  9
$CMLSCALE
 40
1.0
  9
$PROXYGRAPHICS
 70
     1
  9
$MEASUREMENT
 70
     0
  9
$CELWEIGHT
370
    -1
  9
$ENDCAPS
280
     0
  9
$JOINSTYLE
280
     0
  9
$LWDISPLAY
290
     0
  9
$INSUNITS
 70
     0
  9
$HYPERLINKBASE
  1

  9
$STYLESHEET
  1
monochrome.ctb
  9
$XEDIT
290
     1
  9
$CEPSNTYPE
380
     0
  9
$PSTYLEMODE
290
     1
  9
$FINGERPRINTGUID
  2
{3B65D5EE-E00B-11D6-BE3F-00508B5FCD51}
  9
$VERSIONGUID
  2
{6A70B7B6-5C05-467B-B02C-72E8064A7CE6}
  9
$EXTNAMES
290
     1
  9
$PSVPSCALE
 40
0.0
  9
$OLESTARTUP
290
     0
  0
ENDSEC
  0
SECTION
  2
CLASSES
  0
CLASS
  1
DICTIONARYVAR
  2
AcDbDictionaryVar
  3
ObjectDBX Classes
 90
        0
280
     0
281
     0
  0
CLASS
  1
ACDBDICTIONARYWDFLT
  2
AcDbDictionaryWithDefault
  3
ObjectDBX Classes
 90
        0
280
     0
281
     0
  0
CLASS
  1
ACDBPLACEHOLDER
  2
AcDbPlaceHolder
  3
ObjectDBX Classes
 90
        0
280
     0
281
     0
  0
CLASS
  1
LAYOUT
  2
AcDbLayout
  3
ObjectDBX Classes
 90
        0
280
     0
281
     0
  0
CLASS
  1
TABLESTYLE
  2
AcDbTableStyle
  3
ObjectDBX Classes
 90
     2047
280
     0
281
     0
  0
CLASS
  1
SORTENTSTABLE
  2
AcDbSortentsTable
  3
ObjectDBX Classes
 90
        0
280
     0
281
     0
  0
CLASS
  1
DIMASSOC
  2
AcDbDimAssoc
  3
"AcDbDimAssoc|Product Desc:     AcDim ARX App For Dimension|Company:          Autodesk, Inc.|WEB Address:      www.autodesk.com"
 90
    32768
280
     0
281
     0
  0
ENDSEC
  0
SECTION
  2
TABLES
  0
TABLE
  2
VPORT
  5
8
330
0
100
AcDbSymbolTable
 70
     2
  0
VPORT
  5
1D2A
330
8
100
AcDbSymbolTableRecord
100
AcDbViewportTableRecord
  2
*Active
 70
     0
 10
0.0
 20
0.0
 11
1.0
 21
1.0
 12
3.907023448985821
 22
10.12290016244854
 13
0.0
 23
0.0
 14
0.063
 24
0.063
 15
0.25
 25
0.25
 16
0.0
 26
0.0
 36
1.0
 17
0.0
 27
0.0
 37
0.0
 40
29.88661782624017
 41
1.902325581395348
 42
50.0
 43
0.0
 44
0.0
 50
0.0
 51
0.0
 71
     0
 72
   100
 73
     1
 74
     0
 75
     0
 76
     0
 77
     0
 78
     0
281
     0
 65
     1
110
0.0
120
0.0
130
0.0
111
1.0
121
0.0
131
0.0
112
0.0
122
1.0
132
0.0
 79
     0
146
0.0
  0
ENDTAB
  0
TABLE
  2
LTYPE
  5
5
330
0
100
AcDbSymbolTable
 70
     2
  0
LTYPE
  5
11
330
5
100
AcDbSymbolTableRecord
100
AcDbLinetypeTableRecord
  2
BYBLOCK
 70
     0
  3

 72
    65
 73
     0
 40
0.0
  0
LTYPE
  5
12
330
5
100
AcDbSymbolTableRecord
100
AcDbLinetypeTableRecord
  2
BYLAYER
 70
     0
  3

 72
    65
 73
     0
 40
0.0
  0
LTYPE
  5
13
330
5
100
AcDbSymbolTableRecord
100
AcDbLinetypeTableRecord
  2
CONTINUOUS
 70
     0
  3
Solid line
 72
    65
 73
     0
 40
0.0
  0
LTYPE
  5
2D
330
5
100
AcDbSymbolTableRecord
100
AcDbLinetypeTableRecord
  2
HIDDEN
 70
     0
  3
_ _ _ _ _ _ _ _ _ _ _ _ _ _ _ _ _ _ _ _ _ _ _
 72
    65
 73
     2
 40
0.375
 49
0.25
 74
     0
 49
-0.125
 74
     0
  0
ENDTAB
  0
TABLE
  2
LAYER
  5
2
102
{ACAD_XDICTIONARY
360
D5E
102
}
330
0
100
AcDbSymbolTable
 70
     4
  0
LAYER
  5
E
330
2
100
AcDbSymbolTableRecord
100
AcDbLayerTableRecord
  2
0
 70
     0
 62
     7
  6
CONTINUOUS
370
    -3
390
579
  0
LAYER
  5
34
330
2
100
AcDbSymbolTableRecord
100
AcDbLayerTableRecord
  2
NOTE
 70
     0
 62
     1
  6
CONTINUOUS
370
    -3
390
579
  0
LAYER
  5
39
330
2
100
AcDbSymbolTableRecord
100
AcDbLayerTableRecord
  2
DIM
 70
     0
 62
     5
  6
CONTINUOUS
370
    -3
390
579
  0
LAYER
  5
12FC
330
2
100
AcDbSymbolTableRecord
100
AcDbLayerTableRecord
  2
Defpoints
 70
     0
 62
     7
  6
CONTINUOUS
290
     0
370
    -3
390
579
1001
RAK
1000
{ACET-LAYISO
1070
     0
1070
    -7
1000
Continuous
1071
       -3
1071
        0
1005
579
1000
ACET-LAYISO}
  0
ENDTAB
  0
TABLE
  2
STYLE
  5
3
330
0
100
AcDbSymbolTable
 70
     1
  0
STYLE
  5
F
330
3
100
AcDbSymbolTableRecord
100
AcDbTextStyleTableRecord
  2
STANDARD
 70
     0
 40
0.0
 41
1.0
 50
0.0
 71
     0
 42
0.36
  3
TXT
  4

  0
ENDTAB
  0
TABLE
  2
VIEW
  5
6
330
0
100
AcDbSymbolTable
 70
     0
  0
ENDTAB
  0
TABLE
  2
UCS
  5
7
330
0
100
AcDbSymbolTable
 70
     0
  0
ENDTAB
  0
TABLE
  2
APPID
  5
9
330
0
100
AcDbSymbolTable
 70
     6
  0
APPID
  5
10
330
9
100
AcDbSymbolTableRecord
100
AcDbRegAppTableRecord
  2
ACAD
 70
     0
  0
APPID
  5
82D
330
9
100
AcDbSymbolTableRecord
100
AcDbRegAppTableRecord
  2
ACAD_DSTYLE_DIMTEXT_FILL
 70
     0
  0
APPID
  5
98A
330
9
100
AcDbSymbolTableRecord
100
AcDbRegAppTableRecord
  2
CONTENTBLOCKICON
 70
     0
  0
APPID
  5
D5D
330
9
100
AcDbSymbolTableRecord
100
AcDbRegAppTableRecord
  2
ACAD_PSEXT
 70
     0
  0
APPID
  5
DB5
330
9
100
AcDbSymbolTableRecord
100
AcDbRegAppTableRecord
  2
RAK
 70
     0
  0
APPID
  5
18A8
330
9
100
AcDbSymbolTableRecord
100
AcDbRegAppTableRecord
  2
DCO15
 70
     0
  0
ENDTAB
  0
TABLE
  2
DIMSTYLE
  5
A
330
0
100
AcDbSymbolTable
 70
     1
100
AcDbDimStyleTable
 71
     1
340
4DD
  0
DIMSTYLE
105
4DD
330
A
100
AcDbSymbolTableRecord
100
AcDbDimStyleTableRecord
  2
STANDARD
 70
     0
340
F
  0
ENDTAB
  0
TABLE
  2
BLOCK_RECORD
  5
1
330
0
100
AcDbSymbolTable
 70
     0
  0
BLOCK_RECORD
  5
17
102
{ACAD_XDICTIONARY
360
5EB
102
}
330
1
100
AcDbSymbolTableRecord
100
AcDbBlockTableRecord
  2
*MODEL_SPACE
340
57C
  0
BLOCK_RECORD
  5
14
102
{ACAD_XDICTIONARY
360
5E9
102
}
330
1
100
AcDbSymbolTableRecord
100
AcDbBlockTableRecord
  2
*PAPER_SPACE
340
57D
  0
ENDTAB
  0
ENDSEC
  0
SECTION
  2
BLOCKS
  0
BLOCK
  5
49
330
17
100
AcDbEntity
  8
0
100
AcDbBlockBegin
  2
*MODEL_SPACE
 70
     0
 10
0.0
 20
0.0
 30
0.0
  3
*MODEL_SPACE
  1

  0
ENDBLK
  5
4A
330
17
100
AcDbEntity
  8
0
100
AcDbBlockEnd
  0
BLOCK
  5
47
330
14
100
AcDbEntity
 67
     1
  8
0
100
AcDbBlockBegin
  2
*PAPER_SPACE
 70
     0
 10
0.0
 20
0.0
 30
0.0
  3
*PAPER_SPACE
  1

  0
ENDBLK
  5
48
330
14
100
AcDbEntity
 67
     1
  8
0
100
AcDbBlockEnd
  0
ENDSEC
  0
SECTION
  2
ENTITIES
  0
TEXT
  5
39F
330
17
100
AcDbEntity
  8
DIM
100
AcDbText
 10
-0.2246067791323583
 20
0.0
 30
0.0
 40
0.36
  1
.
100
AcDbText
  0
TEXT
  5
415
330
17
100
AcDbEntity
  8
DIM
100
AcDbText
 10
14.93846334400804
 20
21.0944638759405
 30
0.0
 40
0.36
  1
   
 50
359.9999999999988
 11
14.93846334400805
 21
21.2744638759405
 31
0.0
100
AcDbText
 73
     2
  0
TEXT
  5
468
330
17
100
AcDbEntity
  8
DIM
100
AcDbText
 10
13.55232669162668
 20
10.34149078419336
 30
0.0
 40
0.36
  1
   
 72
     1
 11
14.09232669162668
 21
10.52149078419336
 31
0.0
100
AcDbText
 73
     2
  0
LINE
  5
113B
330
17
100
AcDbEntity
  8
0
100
AcDbLine
 10
-1.250000000000003
 20
11.93749999999999
 30
0.0
 11
-1.250000000000003
 21
6.798902002698252
 31
0.0
  0
LINE
  5
113C
330
17
100
AcDbEntity
  8
0
100
AcDbLine
 10
1.249999999999996
 20
11.93749999999999
 30
0.0
 11
1.249999999999996
 21
6.79890200269823
 31
0.0
  0
CIRCLE
  5
11CF
330
17
100
AcDbEntity
  8
0
100
AcDbCircle
 10
-0.3125000000000035
 20
11.87499999999999
 30
0.0
 40
0.0925
  0
CIRCLE
  5
11D0
330
17
100
AcDbEntity
  8
0
100
AcDbCircle
 10
0.8749999999999964
 20
11.87499999999999
 30
0.0
 40
0.0925
  0
CIRCLE
  5
11D1
330
17
100
AcDbEntity
  8
0
100
AcDbCircle
 10
0.3124999999999964
 20
10.99999999999999
 30
0.0
 40
0.0925
  0
CIRCLE
  5
11D2
330
17
100
AcDbEntity
  8
0
100
AcDbCircle
 10
-0.8750000000000035
 20
10.99999999999999
 30
0.0
 40
0.0925
  0
CIRCLE
  5
11D3
330
17
100
AcDbEntity
  8
0
100
AcDbCircle
 10
-0.4375000000000036
 20
10.12499999999998
 30
0.0
 40
0.0925
  0
CIRCLE
  5
11D4
330
17
100
AcDbEntity
  8
0
100
AcDbCircle
 10
0.7499999999999965
 20
10.12499999999998
 30
0.0
 40
0.0925
  0
CIRCLE
  5
11D7
330
17
100
AcDbEntity
  8
0
100
AcDbCircle
 10
-0.3125000000000035
 20
11.87499999999999
 30
0.0
 40
0.0925
  0
CIRCLE
  5
11D8
330
17
100
AcDbEntity
  8
0
100
AcDbCircle
 10
0.8749999999999964
 20
11.87499999999999
 30
0.0
 40
0.0925
  0
CIRCLE
  5
11D9
330
17
100
AcDbEntity
  8
0
100
AcDbCircle
 10
-0.8750000000000035
 20
11.00000000000001
 30
0.0
 40
0.0925
  0
CIRCLE
  5
11DA
330
17
100
AcDbEntity
  8
0
100
AcDbCircle
 10
0.3124999999999964
 20
11.00000000000001
 30
0.0
 40
0.0925
  0
CIRCLE
  5
11DC
330
17
100
AcDbEntity
  8
0
100
AcDbCircle
 10
-0.4375000000000036
 20
10.12499999999999
 30
0.0
 40
0.0925
  0
CIRCLE
  5
11DE
330
17
100
AcDbEntity
  8
0
100
AcDbCircle
 10
-0.3125000000000035
 20
8.374999999999996
 30
0.0
 40
0.0925
  0
CIRCLE
  5
11DF
330
17
100
AcDbEntity
  8
0
100
AcDbCircle
 10
0.8749999999999964
 20
8.374999999999996
 30
0.0
 40
0.0925
  0
CIRCLE
  5
1210
330
17
100
AcDbEntity
  8
0
100
AcDbCircle
 10
-0.3125000000000035
 20
6.624999999999996
 30
0.0
 40
0.097125
  0
CIRCLE
  5
1211
330
17
100
AcDbEntity
  8
0
100
AcDbCircle
 10
0.6249999999999965
 20
6.624999999999996
 30
0.0
 40
0.097125
  0
CIRCLE
  5
1212
330
17
100
AcDbEntity
  8
0
100
AcDbCircle
 10
-0.0000000000000036
 20
4.874999999999996
 30
0.0
 40
0.097125
  0
CIRCLE
  5
1213
330
17
100
AcDbEntity
  8
0
100
AcDbCircle
 10
-0.0000000000000036
 20
3.999999999999996
 30
0.0
 40
0.097125
  0
CIRCLE
  5
1214
330
17
100
AcDbEntity
  8
0
100
AcDbCircle
 10
0.3124999999999964
 20
7.499999999999996
 30
0.0
 40
0.097125
  0
CIRCLE
  5
1215
330
17
100
AcDbEntity
  8
0
100
AcDbCircle
 10
-0.8750000000000035
 20
7.499999999999996
 30
0.0
 40
0.097125
  0
CIRCLE
  5
1216
330
17
100
AcDbEntity
  8
0
100
AcDbCircle
 10
0.3124999999999964
 20
5.749999999999996
 30
0.0
 40
0.097125
  0
LINE
  5
1230
330
17
100
AcDbEntity
  8
0
100
AcDbLine
 10
0.8124999999999964
 20
12.37499999999999
 30
0.0
 11
-0.8125000000000035
 21
12.37499999999999
 31
0.0
  0
LINE
  5
1231
330
17
100
AcDbEntity
  8
0
100
AcDbLine
 10
0.8124999999999964
 20
12.37499999999999
 30
0.0
 11
1.249999999999996
 21
11.93749999999999
 31
0.0
  0
LINE
  5
1232
330
17
100
AcDbEntity
  8
0
100
AcDbLine
 10
-0.8125000000000035
 20
12.37499999999999
 30
0.0
 11
-1.250000000000003
 21
11.93749999999999
 31
0.0
  0
CIRCLE
  5
1620
330
17
100
AcDbEntity
  8
0
100
AcDbCircle
 10
-0.6250000000000036
 20
5.749999999999996
 30
0.0
 40
0.097125
  0
LINE
  5
1634
330
17
100
AcDbEntity
  8
0
100
AcDbLine
 10
-0.9687500000000035
 20
-0.0000000000000036
 30
0.0
 11
-0.9687500000000035
 21
0.4399999999999942
 31
0.0
  0
ARC
  5
1635
330
17
100
AcDbEntity
  8
0
100
AcDbCircle
 10
-1.031250000000003
 20
0.3749999999999964
 30
0.0
 40
0.0625
100
AcDbArc
 50
0.0
 51
96.45736332746494
  0
LINE
  5
1636
330
17
100
AcDbEntity
  8
0
100
AcDbLine
 10
0.9687500000000035
 20
-0.0000000000000036
 30
0.0
 11
0.9687500000000035
 21
0.4400000000000013
 31
0.0
  0
ARC
  5
1637
330
17
100
AcDbEntity
  8
0
100
AcDbCircle
 10
1.031249999999996
 20
0.3749999999999964
 30
0.0
 40
0.0625
100
AcDbArc
 50
83.54263667253894
 51
180.0
  0
ARC
  5
1639
330
17
100
AcDbEntity
  8
0
100
AcDbCircle
 10
3.249999999999996
 20
6.79890200269823
 30
0.0
 40
2.0
100
AcDbArc
 50
180.0
 51
184.6229331810384
  0
CIRCLE
  5
163E
330
17
100
AcDbEntity
  8
0
100
AcDbCircle
 10
0.4374999999999965
 20
9.249999999999996
 30
0.0
 40
0.0925
  0
CIRCLE
  5
163F
330
17
100
AcDbEntity
  8
0
100
AcDbCircle
 10
-0.7500000000000036
 20
9.249999999999996
 30
0.0
 40
0.0925
  0
LINE
  5
1641
330
17
100
AcDbEntity
  8
0
100
AcDbLine
 10
0.9687500000000035
 20
0.0000000000000036
 30
0.0
 11
-0.9687500000000035
 21
-0.0000000000000036
 31
0.0
  0
LINE
  5
1642
330
17
100
AcDbEntity
  8
0
  6
HIDDEN
100
AcDbLine
 10
0.9687500000000035
 20
0.110000000000003
 30
0.0
 11
-0.9244718023630618
 21
0.1099999999999959
 31
0.0
  0
ARC
  5
1643
330
17
100
AcDbEntity
  8
0
100
AcDbCircle
 10
-3.250000000000003
 20
6.798902002698252
 30
0.0
 40
2.0
100
AcDbArc
 50
355.3774901253835
 51
0.0
  0
LINE
  5
1644
330
17
100
AcDbEntity
  8
0
100
AcDbLine
 10
-1.102658270190804
 20
2.280684906040765
 30
0.0
 11
-1.034404793335159
 21
0.3261610553627285
 31
0.0
  0
LINE
  5
1645
330
17
100
AcDbEntity
  8
0
100
AcDbLine
 10
-1.212591261162916
 20
2.276845961403761
 30
0.0
 11
-1.144337784307257
 21
0.3223221107254481
 31
0.0
  0
ARC
  5
1646
330
17
100
AcDbEntity
  8
0
100
AcDbCircle
 10
8.891250000000145
 20
2.62967987306602
 30
0.0
 40
10.11
100
AcDbArc
 50
179.9999999999887
 51
181.9999999999999
  0
LINE
  5
1647
330
17
100
AcDbEntity
  8
0
100
AcDbLine
 10
1.102658270191408
 20
2.280684906058308
 30
0.0
 11
1.038246077979241
 21
0.436161055362728
 31
0.0
  0
ARC
  5
1648
330
17
100
AcDbEntity
  8
0
  6
HIDDEN
100
AcDbCircle
 10
0.9283130870071367
 20
0.4400000000000013
 30
0.0
 40
0.11
100
AcDbArc
 50
270.0000000000002
 51
358.0000000000002
  0
ARC
  5
1649
330
17
100
AcDbEntity
  8
0
100
AcDbCircle
 10
0.9283130870071367
 20
0.4400000000000013
 30
0.0
 40
0.22
100
AcDbArc
 50
270.0
 51
358.0
  0
LINE
  5
164A
330
17
100
AcDbEntity
  8
0
100
AcDbLine
 10
1.212591261163506
 20
2.276845961421155
 30
0.0
 11
1.148179068951339
 21
0.4323221107254476
 31
0.0
  0
ARC
  5
164B
330
17
100
AcDbEntity
  8
0
100
AcDbCircle
 10
-8.891249999999548
 20
2.629679873083407
 30
0.0
 40
10.11
100
AcDbArc
 50
358.0000000000001
 51
0.0
  0
LINE
  5
164C
330
17
100
AcDbEntity
  8
0
100
AcDbLine
 10
-1.108749999999847
 20
2.62967987306769
 30
0.0
 11
-1.108749999999094
 21
6.500016736559633
 31
0.0
  0
ARC
  5
164D
330
17
100
AcDbEntity
  8
0
100
AcDbCircle
 10
8.891250000000152
 20
2.62967987306575
 30
0.0
 40
10.0
100
AcDbArc
 50
179.9999999999889
 51
181.9999999999999
  0
LINE
  5
164E
330
17
100
AcDbEntity
  8
0
100
AcDbLine
 10
-1.218749999999854
 20
2.629679873068003
 30
0.0
 11
-1.218749999999094
 21
6.500016736559654
 31
0.0
  0
LINE
  5
164F
330
17
100
AcDbEntity
  8
0
100
AcDbLine
 10
1.108750000000451
 20
2.629679873083279
 30
0.0
 11
1.108750000000451
 21
6.500000000000003
 31
0.0
  0
ARC
  5
1650
330
17
100
AcDbEntity
  8
0
100
AcDbCircle
 10
-8.891249999999548
 20
2.629679873083286
 30
0.0
 40
10.0
100
AcDbArc
 50
358.0000000000001
 51
359.9999999999999
  0
LINE
  5
1651
330
17
100
AcDbEntity
  8
0
100
AcDbLine
 10
1.218750000000451
 20
2.629679873083407
 30
0.0
 11
1.218750000000451
 21
6.500000000000003
 31
0.0
  0
ARC
  5
1652
330
17
100
AcDbEntity
  8
0
100
AcDbCircle
 10
1.48875000000056
 20
6.500000000000003
 30
0.0
 40
0.38
100
AcDbArc
 50
128.9235181311619
 51
180.0
  0
ARC
  5
1653
330
17
100
AcDbEntity
  8
0
100
AcDbCircle
 10
1.48875000000056
 20
6.500000000000003
 30
0.0
 40
0.27
100
AcDbArc
 50
149.3346341700248
 51
180.0
  0
ARC
  5
1654
330
17
100
AcDbEntity
  8
0
100
AcDbCircle
 10
-1.488750000000113
 20
6.500016736559704
 30
0.0
 40
0.38
100
AcDbArc
 50
359.9999999999892
 51
51.07647658998082
  0
ARC
  5
1655
330
17
100
AcDbEntity
  8
0
100
AcDbCircle
 10
-1.488750000000113
 20
6.500016736559704
 30
0.0
 40
0.27
100
AcDbArc
 50
359.9999999999894
 51
30.66487033632161
  0
LINE
  5
1656
330
17
100
AcDbEntity
  8
0
  6
HIDDEN
100
AcDbLine
 10
0.9283130870071367
 20
0.2200000000000024
 30
0.0
 11
-0.9244718023630618
 21
0.2200000000000024
 31
0.0
  0
ARC
  5
1657
330
17
100
AcDbEntity
  8
0
  6
HIDDEN
100
AcDbCircle
 10
-0.9244718023630618
 20
0.3300000000000018
 30
0.0
 40
0.11
100
AcDbArc
 50
181.9999999999998
 51
270.0000000000002
  0
ARC
  5
1658
330
17
100
AcDbEntity
  8
0
100
AcDbCircle
 10
-0.9244718023630618
 20
0.3300000000000018
 30
0.0
 40
0.22
100
AcDbArc
 50
182.0
 51
270.0000000000002
  0
LINE
  5
1659
330
17
100
AcDbEntity
  8
0
  6
HIDDEN
100
AcDbLine
 10
0.9283130870071367
 20
0.3300000000000018
 30
0.0
 11
-0.9687500000000035
 21
0.3299999999999947
 31
0.0
  0
LINE
  5
165A
330
17
100
AcDbEntity
  8
0
100
AcDbLine
 10
0.9687500000000035
 20
0.4400000000000013
 30
0.0
 11
-0.9687500000000035
 21
0.4399999999999942
 31
0.0
  0
MTEXT
  5
1B3E
330
17
100
AcDbEntity
  8
NOTE
100
AcDbMText
 10
-10.29192825211903
 20
25.65348000329697
 30
0.0
 40
0.36
 41
0.0
 71
     1
 72
     1
  1
\A1;
 73
     1
 44
1.0
1001
ACAD
1000
MTEXTBEGIN
1070
    73
1070
     1
1070
    44
1040
1.0
1070
    74
1070
     0
1000
MTEXTEND
  0
MTEXT
  5
1B42
330
17
100
AcDbEntity
  8
NOTE
100
AcDbMText
 10
-17.23047889114089
 20
25.75191562206118
 30
0.0
 40
0.36
 41
0.0
 71
     9
 72
     1
  1
\A1;
 73
     1
 44
1.0
1001
ACAD
1000
MTEXTBEGIN
1070
    73
1070
     1
1070
    44
1040
1.0
1070
    74
1070
     0
1000
MTEXTEND
  0
ENDSEC
  0
SECTION
  2
OBJECTS
  0
DICTIONARY
  5
C
330
0
100
AcDbDictionary
281
     1
  3
ACAD_COLOR
350
822
  3
ACAD_GROUP
350
D
  3
ACAD_LAYOUT
350
57A
  3
ACAD_MATERIAL
350
821
  3
ACAD_MLINESTYLE
350
1A
  3
ACAD_PLOTSETTINGS
350
57B
  3
ACAD_PLOTSTYLENAME
350
578
  3
ACAD_TABLESTYLE
350
823
  3
ACDBHEADERROUNDTRIPXREC
350
1D2B
  3
ACDBVARIABLEDICTIONARY
350
4B
  3
AEC_CLASSIFICATION_SYSTEM_DEFS
350
1A5E
  3
ASE_INDEX_DICTIONARY
350
1904
  0
DICTIONARY
  5
D5E
330
2
100
AcDbDictionary
280
     1
281
     1
  3
ACAD_LAYERFILTERS
360
1CBD
  3
ACAD_LAYERSTATES
360
D5F
  3
ACLYDICTIONARY
360
1CBC
  0
DICTIONARY
  5
5EB
330
17
100
AcDbDictionary
280
     1
281
     1
  3
ACAD_LAYOUTSELFREF
360
7BF
  3
ACAD_SORTENTS
360
1BDA
  0
DICTIONARY
  5
5E9
330
14
100
AcDbDictionary
280
     1
281
     1
  3
ACAD_LAYOUTSELFREF
360
7BE
  0
DICTIONARY
  5
822
102
{ACAD_REACTORS
330
C
102
}
330
C
100
AcDbDictionary
281
     1
  0
DICTIONARY
  5
D
102
{ACAD_REACTORS
330
C
102
}
330
C
100
AcDbDictionary
281
     1
  0
DICTIONARY
  5
57A
102
{ACAD_REACTORS
330
C
102
}
330
C
100
AcDbDictionary
281
     1
  3
Layout1
350
57D
  3
Model
350
57C
  0
DICTIONARY
  5
821
102
{ACAD_REACTORS
330
C
102
}
330
C
100
AcDbDictionary
281
     1
  0
DICTIONARY
  5
1A
102
{ACAD_REACTORS
330
C
102
}
330
C
100
AcDbDictionary
281
     1
  3
STANDARD
350
1B
  0
DICTIONARY
  5
57B
102
{ACAD_REACTORS
330
C
102
}
330
C
100
AcDbDictionary
281
     1
  0
ACDBDICTIONARYWDFLT
  5
578
102
{ACAD_REACTORS
330
C
102
}
330
C
100
AcDbDictionary
281
     1
  3
Normal
350
579
100
AcDbDictionaryWithDefault
340
579
  0
DICTIONARY
  5
823
102
{ACAD_REACTORS
330
C
102
}
330
C
100
AcDbDictionary
281
     1
  3
Standard
350
824
  0
DICTIONARY
  5
1D2B
102
{ACAD_REACTORS
330
C
102
}
330
C
100
AcDbDictionary
281
     1
  0
DICTIONARY
  5
4B
102
{ACAD_REACTORS
330
C
102
}
330
C
100
AcDbDictionary
281
     1
  3
CTABLESTYLE
350
8BC
  3
DIMADEC
350
4C
  3
DIMASSOC
350
9BD
  3
PROJECTNAME
350
9BE
  0
DICTIONARY
  5
1A5E
102
{ACAD_REACTORS
330
C
102
}
330
C
100
AcDbDictionary
281
     1
  0
DICTIONARY
  5
1904
102
{ACAD_REACTORS
330
C
102
}
330
C
100
AcDbDictionary
281
     1
  3
ASEBlockHierarchyIndexRecord
350
1905
1001
DCO15
1040
1649410545.125
  0
DICTIONARY
  5
1CBD
102
{ACAD_REACTORS
330
D5E
102
}
330
D5E
100
AcDbDictionary
281
     1
  0
DICTIONARY
  5
D5F
102
{ACAD_REACTORS
330
D5E
102
}
330
D5E
100
AcDbDictionary
281
     1
  0
DICTIONARY
  5
1CBC
102
{ACAD_REACTORS
330
D5E
102
}
330
D5E
100
AcDbDictionary
281
     1
1001
ACAD
1000
<All
  0
XRECORD
  5
7BF
102
{ACAD_REACTORS
330
5EB
102
}
330
5EB
100
AcDbXrecord
280
     1
340
17
  0
SORTENTSTABLE
  5
1BDA
102
{ACAD_REACTORS
330
5EB
102
}
330
5EB
100
AcDbSortentsTable
330
17
331
164A
  5
164A
331
1213
  5
1213
331
1652
  5
1652
331
165A
  5
165A
331
113C
  5
113C
331
11D4
  5
11D4
331
1643
  5
1643
331
11DC
  5
11DC
331
1B42
  5
1B45
331
164B
  5
164B
331
1214
  5
1214
331
1653
  5
1653
331
1634
  5
1634
331
1644
  5
1644
331
164C
  5
164C
331
1215
  5
1215
331
1654
  5
1654
331
1635
  5
1635
331
1645
  5
1645
331
11DE
  5
11DE
331
164D
  5
164D
331
1216
  5
1216
331
1655
  5
1655
331
1636
  5
1636
331
11CF
  5
11CF
331
163E
  5
163E
331
11D7
  5
11D7
331
1646
  5
1646
331
11DF
  5
11DF
331
415
  5
415
331
164E
  5
164E
331
1656
  5
1656
331
11D0
  5
11D0
331
1637
  5
1637
331
163F
  5
163F
331
11D8
  5
11D8
331
1B3E
  5
1B41
331
1647
  5
1647
331
1210
  5
1210
331
1230
  5
1230
331
164F
  5
164F
331
1657
  5
1657
331
1620
  5
1620
331
11D1
  5
11D1
331
11D9
  5
11D9
331
39F
  5
39F
331
1211
  5
1211
331
1648
  5
1648
331
1650
  5
1650
331
1231
  5
1231
331
1658
  5
1658
331
1639
  5
1639
331
11D2
  5
11D2
331
1641
  5
1641
331
11DA
  5
11DA
331
468
  5
468
331
1649
  5
1649
331
1212
  5
1212
331
1651
  5
1651
331
1232
  5
1232
331
1659
  5
1659
331
113B
  5
113B
331
11D3
  5
11D3
331
1642
  5
1642
  0
XRECORD
  5
7BE
102
{ACAD_REACTORS
330
5E9
102
}
330
5E9
100
AcDbXrecord
280
     1
340
14
  0
LAYOUT
  5
57D
102
{ACAD_XDICTIONARY
360
1D2E
102
}
102
{ACAD_REACTORS
330
57A
102
}
330
57A
100
AcDbPlotSettings
  1

  2
HP LaserJet 2100 Series PS
  4

  6

 40
0.0
 41
0.0
 42
0.0
 43
0.0
 44
0.0
 45
0.0
 46
0.0
 47
0.0
 48
0.0
 49
0.0
140
0.0
141
0.0
142
1.0
143
1.0
 70
   688
 72
     0
 73
     0
 74
     5
  7
monochrome.ctb
 75
    16
147
1.0
148
0.0
149
0.0
100
AcDbLayout
  1
Layout1
 70
     0
 71
     1
 10
0.0
 20
0.0
 11
12.0
 21
9.0
 12
0.0
 22
0.0
 32
0.0
 14
1.000000000000000E+20
 24
1.000000000000000E+20
 34
1.000000000000000E+20
 15
-1.000000000000000E+20
 25
-1.000000000000000E+20
 35
-1.000000000000000E+20
146
0.0
 13
0.0
 23
0.0
 33
0.0
 16
1.0
 26
0.0
 36
0.0
 17
0.0
 27
1.0
 37
0.0
 76
     0
330
14
  0
LAYOUT
  5
57C
102
{ACAD_XDICTIONARY
360
1D2C
102
}
102
{ACAD_REACTORS
330
57A
102
}
330
57A
100
AcDbPlotSettings
  1

  2
HP LaserJet 2100 Series PS
  4
Letter
  6

 40
5.365749835968017
 41
5.535080909729003
 42
5.1964111328125
 43
5.027069091796875
 44
215.8999938964844
 45
279.3999938964844
 46
0.0
 47
0.0
 48
0.0375000000000005
 49
0.0375
140
15.7125
141
11.72142855819132
142
1.0
143
3.968191325090469
 70
 28336
 72
     0
 73
     0
 74
     2
  7
monochrome.ctb
 75
     0
147
0.2520039781542543
148
0.0
149
0.0
100
AcDbLayout
  1
Model
 70
     1
 71
     0
 10
0.0
 20
0.0
 11
12.0
 21
9.0
 12
0.0
 22
0.0
 32
0.0
 14
0.0
 24
0.0
 34
0.0
 15
0.0
 25
0.0
 35
0.0
146
0.0
 13
0.0
 23
0.0
 33
0.0
 16
1.0
 26
0.0
 36
0.0
 17
0.0
 27
1.0
 37
0.0
 76
     0
330
17
1001
ACAD_PSEXT
1000
HP LaserJet 2100 Series PS
1000
HP LaserJet 2100 Series PS
1000
LPT1:
1000

1070
     0
  0
MLINESTYLE
  5
1B
102
{ACAD_REACTORS
330
1A
102
}
330
1A
100
AcDbMlineStyle
  2
STANDARD
 70
     0
  3

 62
   256
 51
90.0
 52
90.0
 71
     2
 49
0.5
 62
   256
  6
BYLAYER
 49
-0.5
 62
   256
  6
BYLAYER
  0
ACDBPLACEHOLDER
  5
579
102
{ACAD_REACTORS
330
578
102
}
330
578
  0
TABLESTYLE
  5
824
102
{ACAD_REACTORS
330
823
102
}
330
823
100
AcDbTableStyle
  3
Standard
 70
     0
 71
     0
 40
0.06
 41
0.06
280
     0
281
     0
  7
STANDARD
140
0.18
170
     2
 62
     0
 63
     7
283
     0
274
    -2
284
     1
 64
     0
275
    -2
285
     1
 65
     0
276
    -2
286
     1
 66
     0
277
    -2
287
     1
 67
     0
278
    -2
288
     1
 68
     0
279
    -2
289
     1
 69
     0
  7
STANDARD
140
0.25
170
     5
 62
     0
 63
     7
283
     0
274
    -2
284
     1
 64
     0
275
    -2
285
     1
 65
     0
276
    -2
286
     1
 66
     0
277
    -2
287
     1
 67
     0
278
    -2
288
     1
 68
     0
279
    -2
289
     1
 69
     0
  7
STANDARD
140
0.18
170
     5
 62
     0
 63
     7
283
     0
274
    -2
284
     1
 64
     0
275
    -2
285
     1
 65
     0
276
    -2
286
     1
 66
     0
277
    -2
287
     1
 67
     0
278
    -2
288
     1
 68
     0
279
    -2
289
     1
 69
     0
  0
DICTIONARYVAR
  5
8BC
102
{ACAD_REACTORS
330
4B
102
}
330
4B
100
DictionaryVariables
280
     0
  1
STANDARD
  0
DICTIONARYVAR
  5
4C
102
{ACAD_REACTORS
330
4B
102
}
330
4B
100
DictionaryVariables
280
     0
  1
0
  0
DICTIONARYVAR
  5
9BD
102
{ACAD_REACTORS
330
4B
102
}
330
4B
100
DictionaryVariables
280
     0
  1
0
  0
DICTIONARYVAR
  5
9BE
102
{ACAD_REACTORS
330
4B
102
}
330
4B
100
DictionaryVariables
280
     0
  1

  0
XRECORD
  5
1905
102
{ACAD_REACTORS
330
1904
102
}
330
1904
100
AcDbXrecord
280
     1
330
0
330
0
330
0
330
0
330
0
330
0
330
0
330
0
330
0
330
0
330
0
330
0
330
0
330
0
330
0
  0
DICTIONARY
  5
1D2E
330
57D
100
AcDbDictionary
280
     1
281
     1
  3
ACAD_XREC_ROUNDTRIP
360
1D2F
  0
DICTIONARY
  5
1D2C
330
57C
100
AcDbDictionary
280
     1
281
     1
  3
ACAD_XREC_ROUNDTRIP
360
1D2D
  0
XRECORD
  5
1D2F
102
{ACAD_REACTORS
330
1D2E
102
}
330
1D2E
100
AcDbXrecord
280
     1
102
SHADEPLOT
 70
     0
102
SHADEPLOTRESLEVEL
 70
     2
102
SHADEPLOTCUSTOMDPI
 70
   300
  0
XRECORD
  5
1D2D
102
{ACAD_REACTORS
330
1D2C
102
}
330
1D2C
100
AcDbXrecord
280
     1
102
SHADEPLOT
 70
     0
102
SHADEPLOTRESLEVEL
 70
     2
102
SHADEPLOTCUSTOMDPI
 70
   300
  0
ENDSEC
  0
EOF
