  0
SECTION
  2
HEADER
  9
$ACADVER
  1
AC1015
  9
$ACADMAINTVER
 70
     6
  9
$DWGCODEPAGE
  3
ANSI_1252
  9
$INSBASE
 10
0.0
 20
0.0
 30
0.0
  9
$EXTMIN
 10
-9.732071540564508
 20
-0.0418362868352548
 30
-0.0000000000000053
  9
$EXTMAX
 10
19.09698058243174
 20
44.47898159677753
 30
0.0000000000000099
  9
$LIMMIN
 10
0.0
 20
0.0
  9
$LIMMAX
 10
32.0
 20
42.0
  9
$ORTHOMODE
 70
     1
  9
$REGENMODE
 70
     1
  9
$FILLMODE
 70
     1
  9
$QTEXTMODE
 70
     0
  9
$MIRRTEXT
 70
     0
  9
$LTSCALE
 40
0.5
  9
$ATTMODE
 70
     1
  9
$TEXTSIZE
 40
0.36
  9
$TRACEWID
 40
0.05
  9
$TEXTSTYLE
  7
STANDARD
  9
$CLAYER
  8
0
  9
$CELTYPE
  6
BYLAYER
  9
$CECOLOR
 62
   256
  9
$CELTSCALE
 40
1.0
  9
$DISPSILH
 70
     0
  9
$DIMSCALE
 40
4.0
  9
$DIMASZ
 40
0.125
  9
$DIMEXO
 40
0.062
  9
$DIMDLI
 40
0.375
  9
$DIMRND
 40
0.0
  9
$DIMDLE
 40
0.0
  9
$DIMEXE
 40
0.08
  9
$DIMTP
 40
0.0
  9
$DIMTM
 40
0.0
  9
$DIMTXT
 40
0.09
  9
$DIMCEN
 40
-0.0078125
  9
$DIMTSZ
 40
0.0
  9
$DIMTOL
 70
     0
  9
$DIMLIM
 70
     0
  9
$DIMTIH
 70
     1
  9
$DIMTOH
 70
     1
  9
$DIMSE1
 70
     0
  9
$DIMSE2
 70
     0
  9
$DIMTAD
 70
     0
  9
$DIMZIN
 70
     0
  9
$DIMBLK
  1

  9
$DIMASO
 70
     0
  9
$DIMSHO
 70
     0
  9
$DIMPOST
  1

  9
$DIMAPOST
  1

  9
$DIMALT
 70
     1
  9
$DIMALTD
 70
     2
  9
$DIMALTF
 40
25.4
  9
$DIMLFAC
 40
1.0
  9
$DIMTOFL
 70
     0
  9
$DIMTVP
 40
0.0
  9
$DIMTIX
 70
     0
  9
$DIMSOXD
 70
     0
  9
$DIMSAH
 70
     0
  9
$DIMBLK1
  1

  9
$DIMBLK2
  1

  9
$DIMSTYLE
  2
STANDARD
  9
$DIMCLRD
 70
     0
  9
$DIMCLRE
 70
     0
  9
$DIMCLRT
 70
     0
  9
$DIMTFAC
 40
1.0
  9
$DIMGAP
 40
0.09
  9
$DIMJUST
 70
     0
  9
$DIMSD1
 70
     0
  9
$DIMSD2
 70
     0
  9
$DIMTOLJ
 70
     1
  9
$DIMTZIN
 70
     0
  9
$DIMALTZ
 70
     0
  9
$DIMALTTZ
 70
     0
  9
$DIMUPT
 70
     0
  9
$DIMDEC
 70
     5
  9
$DIMTDEC
 70
     5
  9
$DIMALTU
 70
     2
  9
$DIMALTTD
 70
     2
  9
$DIMTXSTY
  7
STANDARD
  9
$DIMAUNIT
 70
     0
  9
$DIMADEC
 70
     0
  9
$DIMALTRND
 40
0.0
  9
$DIMAZIN
 70
     0
  9
$DIMDSEP
 70
    46
  9
$DIMATFIT
 70
     3
  9
$DIMFRAC
 70
     2
  9
$DIMLDRBLK
  1

  9
$DIMLUNIT
 70
     5
  9
$DIMLWD
 70
    -2
  9
$DIMLWE
 70
    -2
  9
$DIMTMOVE
 70
     2
  9
$LUNITS
 70
     2
  9
$LUPREC
 70
     4
  9
$SKETCHINC
 40
0.1
  9
$FILLETRAD
 40
0.0
  9
$AUNITS
 70
     0
  9
$AUPREC
 70
     0
  9
$MENU
  1
qa
  9
$ELEVATION
 40
0.0
  9
$PELEVATION
 40
0.0
  9
$THICKNESS
 40
0.0
  9
$LIMCHECK
 70
     0
  9
$CHAMFERA
 40
0.4375
  9
$CHAMFERB
 40
0.4375
  9
$CHAMFERC
 40
0.0
  9
$CHAMFERD
 40
0.0
  9
$SKPOLY
 70
     0
  9
$TDCREATE
 40
2450162.817271759
  9
$TDUCREATE
 40
2450163.150605093
  9
$TDUPDATE
 40
2454903.979221134
  9
$TDUUPDATE
 40
2454904.312554468
  9
$TDINDWG
 40
0.4104695833
  9
$TDUSRTIMER
 40
0.4104695833
  9
$USRTIMER
 70
     1
  9
$ANGBASE
 50
0.0
  9
$ANGDIR
 70
     0
  9
$PDMODE
 70
     0
  9
$PDSIZE
 40
0.0
  9
$PLINEWID
 40
0.0
  9
$SPLFRAME
 70
     0
  9
$SPLINETYPE
 70
     6
  9
$SPLINESEGS
 70
     8
  9
$HANDSEED
  5
1CD2
  9
$SURFTAB1
 70
     6
  9
$SURFTAB2
 70
     6
  9
$SURFTYPE
 70
     6
  9
$SURFU
 70
     6
  9
$SURFV
 70
     6
  9
$UCSBASE
  2

  9
$UCSNAME
  2

  9
$UCSORG
 10
0.0
 20
0.0
 30
0.0
  9
$UCSXDIR
 10
1.0
 20
0.0
 30
0.0
  9
$UCSYDIR
 10
0.0
 20
1.0
 30
0.0
  9
$UCSORTHOREF
  2

  9
$UCSORTHOVIEW
 70
     0
  9
$UCSORGTOP
 10
0.0
 20
0.0
 30
0.0
  9
$UCSORGBOTTOM
 10
0.0
 20
0.0
 30
0.0
  9
$UCSORGLEFT
 10
0.0
 20
0.0
 30
0.0
  9
$UCSORGRIGHT
 10
0.0
 20
0.0
 30
0.0
  9
$UCSORGFRONT
 10
0.0
 20
0.0
 30
0.0
  9
$UCSORGBACK
 10
0.0
 20
0.0
 30
0.0
  9
$PUCSBASE
  2

  9
$PUCSNAME
  2

  9
$PUCSORG
 10
0.0
 20
0.0
 30
0.0
  9
$PUCSXDIR
 10
1.0
 20
0.0
 30
0.0
  9
$PUCSYDIR
 10
0.0
 20
1.0
 30
0.0
  9
$PUCSORTHOREF
  2

  9
$PUCSORTHOVIEW
 70
     0
  9
$PUCSORGTOP
 10
0.0
 20
0.0
 30
0.0
  9
$PUCSORGBOTTOM
 10
0.0
 20
0.0
 30
0.0
  9
$PUCSORGLEFT
 10
0.0
 20
0.0
 30
0.0
  9
$PUCSORGRIGHT
 10
0.0
 20
0.0
 30
0.0
  9
$PUCSORGFRONT
 10
0.0
 20
0.0
 30
0.0
  9
$PUCSORGBACK
 10
0.0
 20
0.0
 30
0.0
  9
$USERI1
 70
     0
  9
$USERI2
 70
     0
  9
$USERI3
 70
     0
  9
$USERI4
 70
     0
  9
$USERI5
 70
     0
  9
$USERR1
 40
0.0
  9
$USERR2
 40
0.0
  9
$USERR3
 40
0.0
  9
$USERR4
 40
0.0
  9
$USERR5
 40
0.0
  9
$WORLDVIEW
 70
     1
  9
$SHADEDGE
 70
     3
  9
$SHADEDIF
 70
    70
  9
$TILEMODE
 70
     1
  9
$MAXACTVP
 70
    16
  9
$PINSBASE
 10
0.0
 20
0.0
 30
0.0
  9
$PLIMCHECK
 70
     0
  9
$PEXTMIN
 10
1.000000000000000E+20
 20
1.000000000000000E+20
 30
1.000000000000000E+20
  9
$PEXTMAX
 10
-1.000000000000000E+20
 20
-1.000000000000000E+20
 30
-1.000000000000000E+20
  9
$PLIMMIN
 10
0.0
 20
0.0
  9
$PLIMMAX
 10
12.0
 20
9.0
  9
$UNITMODE
 70
     0
  9
$VISRETAIN
 70
     0
  9
$PLINEGEN
 70
     0
  9
$PSLTSCALE
 70
     0
  9
$TREEDEPTH
 70
  3020
  9
$CMLSTYLE
  2
STANDARD
  9
$CMLJUST
 70
     0
  9
$CMLSCALE
 40
1.0
  9
$PROXYGRAPHICS
 70
     1
  9
$MEASUREMENT
 70
     0
  9
$CELWEIGHT
370
    -1
  9
$ENDCAPS
280
     0
  9
$JOINSTYLE
280
     0
  9
$LWDISPLAY
290
     0
  9
$INSUNITS
 70
     0
  9
$HYPERLINKBASE
  1

  9
$STYLESHEET
  1
monochrome.ctb
  9
$XEDIT
290
     1
  9
$CEPSNTYPE
380
     0
  9
$PSTYLEMODE
290
     1
  9
$FINGERPRINTGUID
  2
{3B65D5EE-E00B-11D6-BE3F-00508B5FCD51}
  9
$VERSIONGUID
  2
{A5C28B9A-9CD0-4A53-B908-724356837DE8}
  9
$EXTNAMES
290
     1
  9
$PSVPSCALE
 40
0.0
  9
$OLESTARTUP
290
     0
  0
ENDSEC
  0
SECTION
  2
CLASSES
  0
CLASS
  1
DICTIONARYVAR
  2
AcDbDictionaryVar
  3
AutoCAD 2000
 90
        0
280
     0
281
     0
  0
CLASS
  1
LWPOLYLINE
  2
AcDbPolyline
  3
AutoCAD 2000
 90
        0
280
     0
281
     1
  0
CLASS
  1
ACDBDICTIONARYWDFLT
  2
AcDbDictionaryWithDefault
  3
AutoCAD 2000
 90
        0
280
     0
281
     0
  0
CLASS
  1
ACDBPLACEHOLDER
  2
AcDbPlaceHolder
  3
ObjectDBX Classes
 90
        0
280
     0
281
     0
  0
CLASS
  1
LAYOUT
  2
AcDbLayout
  3
ObjectDBX Classes
 90
        0
280
     0
281
     0
  0
CLASS
  1
LONG_TRANSACTION
  2
AcDbLongTransaction
  3
ObjectDBX Classes
 90
   -65536
280
     1
281
     0
  0
CLASS
  1
LWPOLYLINE
  2
AcDbPolyline
  3
AutoCAD 2000
 90
        0
280
     0
281
     1
  0
CLASS
  1
HATCH
  2
AcDbHatch
  3
AutoCAD 2000
 90
        0
280
     0
281
     1
  0
CLASS
  1
XRECORD
  2
AcDbXrecord
  3
AutoCAD 2000
 90
        0
280
     0
281
     0
  0
CLASS
  1
LONG_TRANSACTION
  2
AcDbLongTransaction
  3
ObjectDBX Classes
 90
   -65536
280
     1
281
     0
  0
CLASS
  1
LWPOLYLINE
  2
AcDbPolyline
  3
AutoCAD 2000
 90
        0
280
     0
281
     1
  0
CLASS
  1
HATCH
  2
AcDbHatch
  3
AutoCAD 2000
 90
        0
280
     0
281
     1
  0
CLASS
  1
XRECORD
  2
AcDbXrecord
  3
AutoCAD 2000
 90
        0
280
     0
281
     0
  0
CLASS
  1
LONG_TRANSACTION
  2
AcDbLongTransaction
  3
ObjectDBX Classes
 90
   -65536
280
     1
281
     0
  0
CLASS
  1
LWPOLYLINE
  2
AcDbPolyline
  3
AutoCAD 2000
 90
        0
280
     0
281
     1
  0
CLASS
  1
HATCH
  2
AcDbHatch
  3
AutoCAD 2000
 90
        0
280
     0
281
     1
  0
CLASS
  1
XRECORD
  2
AcDbXrecord
  3
AutoCAD 2000
 90
        0
280
     0
281
     0
  0
CLASS
  1
LONG_TRANSACTION
  2
AcDbLongTransaction
  3
ObjectDBX Classes
 90
   -65536
280
     1
281
     0
  0
CLASS
  1
LWPOLYLINE
  2
AcDbPolyline
  3
AutoCAD 2000
 90
        0
280
     0
281
     1
  0
CLASS
  1
HATCH
  2
AcDbHatch
  3
AutoCAD 2000
 90
        0
280
     0
281
     1
  0
CLASS
  1
XRECORD
  2
AcDbXrecord
  3
AutoCAD 2000
 90
        0
280
     0
281
     0
  0
CLASS
  1
LONG_TRANSACTION
  2
AcDbLongTransaction
  3
ObjectDBX Classes
 90
   -65536
280
     1
281
     0
  0
CLASS
  1
LWPOLYLINE
  2
AcDbPolyline
  3
AutoCAD 2000
 90
        0
280
     0
281
     1
  0
CLASS
  1
HATCH
  2
AcDbHatch
  3
AutoCAD 2000
 90
        0
280
     0
281
     1
  0
CLASS
  1
XRECORD
  2
AcDbXrecord
  3
AutoCAD 2000
 90
        0
280
     0
281
     0
  0
CLASS
  1
LONG_TRANSACTION
  2
AcDbLongTransaction
  3
ObjectDBX Classes
 90
   -65536
280
     1
281
     0
  0
CLASS
  1
LWPOLYLINE
  2
AcDbPolyline
  3
AutoCAD 2000
 90
        0
280
     0
281
     1
  0
CLASS
  1
HATCH
  2
AcDbHatch
  3
AutoCAD 2000
 90
        0
280
     0
281
     1
  0
CLASS
  1
XRECORD
  2
AcDbXrecord
  3
AutoCAD 2000
 90
        0
280
     0
281
     0
  0
CLASS
  1
LONG_TRANSACTION
  2
AcDbLongTransaction
  3
ObjectDBX Classes
 90
   -65536
280
     1
281
     0
  0
CLASS
  1
LWPOLYLINE
  2
AcDbPolyline
  3
AutoCAD 2000
 90
        0
280
     0
281
     1
  0
CLASS
  1
HATCH
  2
AcDbHatch
  3
AutoCAD 2000
 90
        0
280
     0
281
     1
  0
CLASS
  1
XRECORD
  2
AcDbXrecord
  3
AutoCAD 2000
 90
        0
280
     0
281
     0
  0
CLASS
  1
TABLESTYLE
  2
AcDbTableStyle
  3
ObjectDBX Classes
 90
     2047
280
     1
281
     0
  0
CLASS
  1
SORTENTSTABLE
  2
AcDbSortentsTable
  3
AutoCAD 2000
 90
        0
280
     0
281
     0
  0
CLASS
  1
DIMASSOC
  2
AcDbDimAssoc
  3
"AcDbDimAssoc|Product Desc:     AcDim ARX App For Dimension|Company:          Autodesk, Inc.|WEB Address:      www.autodesk.com"
 90
        0
280
     0
281
     0
  0
ENDSEC
  0
SECTION
  2
TABLES
  0
TABLE
  2
VPORT
  5
8
330
0
100
AcDbSymbolTable
 70
     3
  0
VPORT
  5
1CC1
330
8
100
AcDbSymbolTableRecord
100
AcDbViewportTableRecord
  2
*Active
 70
     0
 10
0.0
 20
0.0
 11
1.0
 21
1.0
 12
2.419296004099877
 22
11.68834722683932
 13
0.0
 23
0.0
 14
0.063
 24
0.063
 15
0.25
 25
0.25
 16
0.0
 26
0.0
 36
1.0
 17
0.0
 27
0.0
 37
0.0
 40
35.35267677674567
 41
1.703065134099617
 42
50.0
 43
0.0
 44
0.0
 50
0.0
 51
0.0
 71
     0
 72
   100
 73
     1
 74
     0
 75
     0
 76
     0
 77
     0
 78
     0
281
     0
 65
     1
110
0.0
120
0.0
130
0.0
111
1.0
121
0.0
131
0.0
112
0.0
122
1.0
132
0.0
 79
     0
146
0.0
  0
ENDTAB
  0
TABLE
  2
LTYPE
  5
5
330
0
100
AcDbSymbolTable
 70
     5
  0
LTYPE
  5
11
330
5
100
AcDbSymbolTableRecord
100
AcDbLinetypeTableRecord
  2
BYBLOCK
 70
     0
  3

 72
    65
 73
     0
 40
0.0
  0
LTYPE
  5
12
330
5
100
AcDbSymbolTableRecord
100
AcDbLinetypeTableRecord
  2
BYLAYER
 70
     0
  3

 72
    65
 73
     0
 40
0.0
  0
LTYPE
  5
13
330
5
100
AcDbSymbolTableRecord
100
AcDbLinetypeTableRecord
  2
CONTINUOUS
 70
     0
  3
Solid line
 72
    65
 73
     0
 40
0.0
  0
LTYPE
  5
2D
330
5
100
AcDbSymbolTableRecord
100
AcDbLinetypeTableRecord
  2
HIDDEN
 70
     0
  3
_ _ _ _ _ _ _ _ _ _ _ _ _ _ _ _ _ _ _ _ _ _ _
 72
    65
 73
     2
 40
0.375
 49
0.25
 74
     0
 49
-0.125
 74
     0
  0
ENDTAB
  0
TABLE
  2
LAYER
  5
2
102
{ACAD_XDICTIONARY
360
D5E
102
}
330
0
100
AcDbSymbolTable
 70
    16
  0
LAYER
  5
E
330
2
100
AcDbSymbolTableRecord
100
AcDbLayerTableRecord
  2
0
 70
     0
 62
     7
  6
CONTINUOUS
370
    -3
390
579
  0
LAYER
  5
39
330
2
100
AcDbSymbolTableRecord
100
AcDbLayerTableRecord
  2
DIM
 70
     0
 62
     5
  6
CONTINUOUS
370
    -3
390
579
  0
LAYER
  5
1385
330
2
100
AcDbSymbolTableRecord
100
AcDbLayerTableRecord
  2
Defpoints
 70
     0
 62
     7
  6
CONTINUOUS
290
     0
370
    -3
390
579
1001
RAK
1000
{ACET-LAYISO
1070
     0
1070
    -7
1000
Continuous
1071
       -3
1071
        0
1005
579
1000
ACET-LAYISO}
  0
ENDTAB
  0
TABLE
  2
STYLE
  5
3
330
0
100
AcDbSymbolTable
 70
     4
  0
STYLE
  5
F
330
3
100
AcDbSymbolTableRecord
100
AcDbTextStyleTableRecord
  2
STANDARD
 70
     0
 40
0.0
 41
1.0
 50
0.0
 71
     0
 42
0.36
  3
TXT
  4

  0
ENDTAB
  0
TABLE
  2
VIEW
  5
6
330
0
100
AcDbSymbolTable
 70
     0
  0
ENDTAB
  0
TABLE
  2
UCS
  5
7
330
0
100
AcDbSymbolTable
 70
     0
  0
ENDTAB
  0
TABLE
  2
APPID
  5
9
330
0
100
AcDbSymbolTable
 70
     6
  0
APPID
  5
10
330
9
100
AcDbSymbolTableRecord
100
AcDbRegAppTableRecord
  2
ACAD
 70
     0
  0
APPID
  5
82D
330
9
100
AcDbSymbolTableRecord
100
AcDbRegAppTableRecord
  2
ACAD_DSTYLE_DIMTEXT_FILL
 70
     0
  0
APPID
  5
98A
330
9
100
AcDbSymbolTableRecord
100
AcDbRegAppTableRecord
  2
CONTENTBLOCKICON
 70
     0
  0
APPID
  5
D5D
330
9
100
AcDbSymbolTableRecord
100
AcDbRegAppTableRecord
  2
ACAD_PSEXT
 70
     0
  0
APPID
  5
DB5
330
9
100
AcDbSymbolTableRecord
100
AcDbRegAppTableRecord
  2
RAK
 70
     0
  0
APPID
  5
1C2E
330
9
100
AcDbSymbolTableRecord
100
AcDbRegAppTableRecord
  2
DCO15
 70
     0
  0
ENDTAB
  0
TABLE
  2
DIMSTYLE
  5
A
330
0
100
AcDbSymbolTable
 70
     2
100
AcDbDimStyleTable
  0
DIMSTYLE
105
4DD
330
A
100
AcDbSymbolTableRecord
100
AcDbDimStyleTableRecord
  2
STANDARD
 70
     0
  3

  4

340
F
  0
ENDTAB
  0
TABLE
  2
BLOCK_RECORD
  5
1
330
0
100
AcDbSymbolTable
 70
    28
  0
BLOCK_RECORD
  5
17
102
{ACAD_XDICTIONARY
360
5EB
102
}
330
1
100
AcDbSymbolTableRecord
100
AcDbBlockTableRecord
  2
*MODEL_SPACE
340
57C
  0
BLOCK_RECORD
  5
14
330
1
100
AcDbSymbolTableRecord
100
AcDbBlockTableRecord
  2
*PAPER_SPACE
340
57D
  0
ENDTAB
  0
ENDSEC
  0
SECTION
  2
BLOCKS
  0
BLOCK
  5
49
330
17
100
AcDbEntity
  8
0
100
AcDbBlockBegin
  2
*MODEL_SPACE
 70
     0
 10
0.0
 20
0.0
 30
0.0
  3
*MODEL_SPACE
  1

  4

  0
ENDBLK
  5
4A
330
17
100
AcDbEntity
  8
0
100
AcDbBlockEnd
  0
BLOCK
  5
47
330
14
100
AcDbEntity
 67
     1
  8
0
100
AcDbBlockBegin
  2
*PAPER_SPACE
 70
     0
 10
0.0
 20
0.0
 30
0.0
  3
*PAPER_SPACE
  1

  4

  0
ENDBLK
  5
48
330
14
100
AcDbEntity
 67
     1
  8
0
100
AcDbBlockEnd
  0
ENDSEC
  0
SECTION
  2
ENTITIES
  0
LINE
  5
36C
330
17
100
AcDbEntity
  8
0
100
AcDbLine
 10
7.566299397955039
 20
0.2239999999999967
 30
0.0
 11
9.46282278983168
 21
6.837963069912679
 31
0.0
  0
LINE
  5
36F
330
17
100
AcDbEntity
  8
0
  6
HIDDEN
 62
     8
100
AcDbLine
 10
9.633113506513222
 20
0.200882272836445
 30
0.0
 11
9.441923339024047
 21
6.765078023297811
 31
0.0
  0
LINE
  5
378
330
17
100
AcDbEntity
  8
0
100
AcDbLine
 10
7.540299397955042
 20
0.3490000000000038
 30
0.0
 11
7.602142571174891
 21
0.3490000000000038
 31
0.0
  0
LINE
  5
379
330
17
100
AcDbEntity
  8
0
  6
HIDDEN
 62
     8
100
AcDbLine
 10
7.566299397955039
 20
0.2239999999999967
 30
0.0
 11
9.566299397955039
 21
0.2239999999999967
 31
0.0
  0
LINE
  5
37A
330
17
100
AcDbEntity
  8
0
100
AcDbLine
 10
9.534155472461929
 20
0.0989999999999966
 30
0.0
 11
7.540299397955042
 21
0.0989999999999966
 31
0.0
  0
LINE
  5
37B
330
17
100
AcDbEntity
  8
0
100
AcDbLine
 10
7.566299397955053
 20
0.2240000000000393
 30
0.0
 11
7.566299397955053
 21
0.125
 31
0.0
  0
LINE
  5
37C
330
17
100
AcDbEntity
  8
0
100
AcDbLine
 10
7.441299397955039
 20
0.1980000000000004
 30
0.0
 11
7.441299397955046
 21
0.2500000000000071
 31
0.0
  0
ARC
  5
37E
330
17
100
AcDbEntity
  8
0
100
AcDbCircle
 10
9.628799397955039
 20
0.3489999999999967
 30
0.0
 40
0.0625
100
AcDbArc
 50
91.66833744827828
 51
180.0
  0
LINE
  5
37F
330
17
100
AcDbEntity
  8
0
  6
HIDDEN
 62
     8
100
AcDbLine
 10
9.378799397955039
 20
0.4480000000000004
 30
0.0
 11
9.378799397955039
 21
0.3489999999999967
 31
0.0
  0
LINE
  5
380
330
17
100
AcDbEntity
  8
0
100
AcDbLine
 10
9.566299397955039
 20
0.125
 30
0.0
 11
9.566299397955039
 21
0.3489999999999967
 31
0.0
  0
LINE
  5
381
330
17
100
AcDbEntity
  8
0
100
AcDbLine
 10
9.62697978126538
 20
0.4114735063455086
 30
0.0
 11
9.72602176501093
 21
0.4114735063455228
 31
0.0
  0
LINE
  5
382
330
17
100
AcDbEntity
  8
0
100
AcDbLine
 10
0.7819999999999929
 20
15.875
 30
0.0
 11
-0.782
 21
15.875
 31
0.0
  0
LINE
  5
383
330
17
100
AcDbEntity
  8
0
100
AcDbLine
 10
-1.250000000000005
 20
15.37499999999998
 30
0.0
 11
-1.250000000000005
 21
6.89819291690409
 31
0.0
  0
LINE
  5
38C
330
17
100
AcDbEntity
  8
0
100
AcDbLine
 10
9.441299397955039
 20
15.875
 30
0.0
 11
9.441299397955039
 21
6.773192916904076
 31
0.0
  0
LINE
  5
38D
330
17
100
AcDbEntity
  8
0
100
AcDbLine
 10
1.249999999999995
 20
15.37499999999998
 30
0.0
 11
1.250000000000034
 21
6.898192916904087
 31
0.0
  0
ARC
  5
396
330
17
100
AcDbEntity
  8
0
100
AcDbCircle
 10
8.441299397955039
 20
6.903442916904076
 30
0.0
 40
1.0
100
AcDbArc
 50
344.0
 51
0.0
  0
LINE
  5
397
330
17
100
AcDbEntity
  8
0
100
AcDbLine
 10
9.540299397955042
 20
15.875
 30
0.0
 11
9.441299397955039
 21
15.875
 31
0.0
  0
LINE
  5
3AE
330
17
100
AcDbEntity
  8
0
100
AcDbLine
 10
7.566299397955053
 20
0.3490000000000464
 30
0.0
 11
7.566299397955053
 21
0.2500000000000071
 31
0.0
  0
LINE
  5
3B0
330
17
100
AcDbEntity
  8
0
  6
HIDDEN
 62
     8
100
AcDbLine
 10
7.602142571174891
 20
0.3490000000000038
 30
0.0
 11
9.566299397955039
 21
0.3489999999999967
 31
0.0
  0
TEXT
  5
415
330
17
100
AcDbEntity
  8
DIM
100
AcDbText
 10
14.93846334400804
 20
21.0944638759405
 30
0.0
 40
0.36
  1
   
 50
359.9999999999988
 11
14.93846334400805
 21
21.2744638759405
 31
0.0
100
AcDbText
 73
     2
  0
LINE
  5
41D
330
17
100
AcDbEntity
  8
0
  6
HIDDEN
 62
     8
100
AcDbLine
 10
8.160049397955039
 20
0.125
 30
0.0
 11
8.160049397955039
 21
0.2240000000000038
 31
0.0
  0
LINE
  5
41E
330
17
100
AcDbEntity
  8
0
  6
HIDDEN
 62
     8
100
AcDbLine
 10
8.160049397955039
 20
-0.0000000000000071
 30
0.0
 11
8.160049397955039
 21
0.0990000000000038
 31
0.0
  0
LINE
  5
41F
330
17
100
AcDbEntity
  8
0
  6
HIDDEN
 62
     8
100
AcDbLine
 10
8.160049397955039
 20
0.2500000000000071
 30
0.0
 11
8.160049397955039
 21
0.3490000000000038
 31
0.0
  0
LINE
  5
420
330
17
100
AcDbEntity
  8
0
  6
HIDDEN
 62
     8
100
AcDbLine
 10
8.847549397955039
 20
0.125
 30
0.0
 11
8.847549397955039
 21
0.2239999999999967
 31
0.0
  0
LINE
  5
421
330
17
100
AcDbEntity
  8
0
  6
HIDDEN
 62
     8
100
AcDbLine
 10
8.847549397955039
 20
0.0
 30
0.0
 11
8.847549397955039
 21
0.0990000000000038
 31
0.0
  0
LINE
  5
422
330
17
100
AcDbEntity
  8
0
  6
HIDDEN
 62
     8
100
AcDbLine
 10
8.847549397955039
 20
0.25
 30
0.0
 11
8.847549397955039
 21
0.3490000000000038
 31
0.0
  0
LINE
  5
44E
330
17
100
AcDbEntity
  8
0
100
AcDbLine
 10
7.540299397955042
 20
0.4480000000000075
 30
0.0
 11
7.630530364365018
 21
0.4480000000000075
 31
0.0
  0
LINE
  5
44F
330
17
100
AcDbEntity
  8
0
100
AcDbLine
 10
7.342299397955035
 20
0.1979999999999933
 30
0.0
 11
7.342299397955042
 21
0.2500000000000071
 31
0.0
  0
LINE
  5
450
330
17
100
AcDbEntity
  8
0
100
AcDbLine
 10
9.534155472461929
 20
0.0
 30
0.0
 11
7.540299397955035
 21
-0.0000000000000071
 31
0.0
  0
ARC
  5
451
330
17
100
AcDbEntity
  8
0
100
AcDbCircle
 10
7.540299397955042
 20
0.2500000000000071
 30
0.0
 40
0.099
100
AcDbArc
 50
90.0
 51
180.0
  0
ARC
  5
452
330
17
100
AcDbEntity
  8
0
100
AcDbCircle
 10
7.540299397955042
 20
0.1980000000000004
 30
0.0
 40
0.099
100
AcDbArc
 50
179.9999999999975
 51
270.0
  0
ARC
  5
453
330
17
100
AcDbEntity
  8
0
100
AcDbCircle
 10
7.540299397955042
 20
0.2500000000000071
 30
0.0
 40
0.198
100
AcDbArc
 50
89.99999999999989
 51
180.0
  0
ARC
  5
454
330
17
100
AcDbEntity
  8
0
100
AcDbCircle
 10
7.540299397955035
 20
0.1979999999999933
 30
0.0
 40
0.198
100
AcDbArc
 50
180.0
 51
270.0
  0
LINE
  5
455
330
17
100
AcDbEntity
  8
0
100
AcDbLine
 10
9.732071540564508
 20
0.2037645456728896
 30
0.0
 11
9.540257432006346
 21
6.789382272836441
 31
0.0
  0
ARC
  5
456
330
17
100
AcDbEntity
  8
0
100
AcDbCircle
 10
9.534155472461929
 20
0.1980000000000004
 30
0.0
 40
0.198
100
AcDbArc
 50
270.0000000000001
 51
1.668337448293342
  0
ARC
  5
457
330
17
100
AcDbEntity
  8
0
100
AcDbCircle
 10
9.534155472461929
 20
0.1980000000000004
 30
0.0
 40
0.099
100
AcDbArc
 50
270.0
 51
1.668337448293342
  0
LINE
  5
458
330
17
100
AcDbEntity
  8
0
100
AcDbLine
 10
7.566299397955053
 20
0.2500000000000071
 30
0.0
 11
7.573754777984771
 21
0.2500000000000071
 31
0.0
  0
LINE
  5
459
330
17
100
AcDbEntity
  8
0
100
AcDbLine
 10
7.566299397955039
 20
0.125
 30
0.0
 11
9.566299397955039
 21
0.125
 31
0.0
  0
LINE
  5
45A
330
17
100
AcDbEntity
  8
0
  6
HIDDEN
 62
     8
100
AcDbLine
 10
8.847549397955039
 20
0.3490000000000038
 30
0.0
 11
8.847549397955039
 21
0.4480000000000004
 31
0.0
  0
LINE
  5
45B
330
17
100
AcDbEntity
  8
0
  6
HIDDEN
 62
     8
100
AcDbLine
 10
8.160049397955039
 20
0.3490000000000038
 30
0.0
 11
8.160049397955039
 21
0.4480000000000004
 31
0.0
  0
LINE
  5
45C
330
17
100
AcDbEntity
  8
0
  6
HIDDEN
 62
     8
100
AcDbLine
 10
7.573754777984771
 20
0.2500000000000071
 30
0.0
 11
9.566299397955039
 21
0.25
 31
0.0
  0
LINE
  5
45D
330
17
100
AcDbEntity
  8
0
  6
HIDDEN
 62
     8
100
AcDbLine
 10
7.630530364365018
 20
0.4480000000000075
 30
0.0
 11
9.378799397955039
 21
0.4480000000000004
 31
0.0
  0
LINE
  5
45E
330
17
100
AcDbEntity
  8
0
100
AcDbLine
 10
9.540299397955042
 20
15.875
 30
0.0
 11
9.540257432006346
 21
6.789382272836441
 31
0.0
  0
ARC
  5
45F
330
17
100
AcDbEntity
  8
0
100
AcDbCircle
 10
7.540299397955042
 20
7.389237781546683
 30
0.0
 40
2.0
100
AcDbArc
 50
343.9999999999999
 51
0.0
  0
TEXT
  5
468
330
17
100
AcDbEntity
  8
DIM
100
AcDbText
 10
13.55232669162669
 20
10.34149078419337
 30
0.0
 40
0.36
  1
   
 72
     1
 11
14.09232669162669
 21
10.52149078419336
 31
0.0
100
AcDbText
 73
     2
  0
CIRCLE
  5
4EB
330
17
100
AcDbEntity
  8
0
100
AcDbCircle
 10
-0.3125000000000053
 20
15.375
 30
0.0
 40
0.0925
  0
CIRCLE
  5
4EC
330
17
100
AcDbEntity
  8
0
100
AcDbCircle
 10
0.8749999999999947
 20
15.375
 30
0.0
 40
0.0925
  0
CIRCLE
  5
4ED
330
17
100
AcDbEntity
  8
0
100
AcDbCircle
 10
0.3124999999999947
 20
14.5
 30
0.0
 40
0.0925
  0
CIRCLE
  5
4EE
330
17
100
AcDbEntity
  8
0
100
AcDbCircle
 10
-0.8750000000000053
 20
14.5
 30
0.0
 40
0.0925
  0
CIRCLE
  5
4EF
330
17
100
AcDbEntity
  8
0
100
AcDbCircle
 10
-0.4375000000000036
 20
13.62499999999998
 30
0.0
 40
0.0925
  0
CIRCLE
  5
4F0
330
17
100
AcDbEntity
  8
0
100
AcDbCircle
 10
0.7499999999999965
 20
13.62499999999998
 30
0.0
 40
0.0925
  0
CIRCLE
  5
4F3
330
17
100
AcDbEntity
  8
0
100
AcDbCircle
 10
-0.3125000000000053
 20
11.87499999999999
 30
0.0
 40
0.0925
  0
CIRCLE
  5
4F4
330
17
100
AcDbEntity
  8
0
100
AcDbCircle
 10
0.8749999999999947
 20
11.87499999999999
 30
0.0
 40
0.0925
  0
CIRCLE
  5
4F5
330
17
100
AcDbEntity
  8
0
100
AcDbCircle
 10
-0.8750000000000053
 20
11.00000000000001
 30
0.0
 40
0.0925
  0
CIRCLE
  5
4F6
330
17
100
AcDbEntity
  8
0
100
AcDbCircle
 10
0.3124999999999947
 20
11.00000000000001
 30
0.0
 40
0.0925
  0
CIRCLE
  5
4FA
330
17
100
AcDbEntity
  8
0
100
AcDbCircle
 10
-0.3125000000000053
 20
8.374999999999996
 30
0.0
 40
0.0925
  0
CIRCLE
  5
4FB
330
17
100
AcDbEntity
  8
0
100
AcDbCircle
 10
0.8749999999999947
 20
8.374999999999996
 30
0.0
 40
0.0925
  0
CIRCLE
  5
E56
330
17
100
AcDbEntity
  8
0
100
AcDbCircle
 10
-0.3125000000000053
 20
6.624999999999996
 30
0.0
 40
0.097125
  0
CIRCLE
  5
E57
330
17
100
AcDbEntity
  8
0
100
AcDbCircle
 10
0.6249999999999947
 20
6.624999999999996
 30
0.0
 40
0.097125
  0
CIRCLE
  5
E58
330
17
100
AcDbEntity
  8
0
100
AcDbCircle
 10
-0.0000000000000053
 20
4.874999999999996
 30
0.0
 40
0.097125
  0
CIRCLE
  5
E59
330
17
100
AcDbEntity
  8
0
100
AcDbCircle
 10
-0.0000000000000053
 20
3.999999999999996
 30
0.0
 40
0.097125
  0
CIRCLE
  5
E5A
330
17
100
AcDbEntity
  8
0
100
AcDbCircle
 10
0.3124999999999947
 20
7.499999999999996
 30
0.0
 40
0.097125
  0
CIRCLE
  5
E5B
330
17
100
AcDbEntity
  8
0
100
AcDbCircle
 10
-0.8750000000000053
 20
7.499999999999996
 30
0.0
 40
0.097125
  0
CIRCLE
  5
E5C
330
17
100
AcDbEntity
  8
0
100
AcDbCircle
 10
0.3124999999999947
 20
5.749999999999996
 30
0.0
 40
0.097125
  0
CIRCLE
  5
E5D
330
17
100
AcDbEntity
  8
0
100
AcDbCircle
 10
-0.6250000000000053
 20
5.749999999999996
 30
0.0
 40
0.097125
  0
LINE
  5
16C6
330
17
100
AcDbEntity
  8
0
100
AcDbLine
 10
-0.9687500000000036
 20
-0.0000000000000036
 30
0.0
 11
-0.9687500000000036
 21
0.4399999999999942
 31
0.0
  0
ARC
  5
16C7
330
17
100
AcDbEntity
  8
0
100
AcDbCircle
 10
-1.031250000000004
 20
0.3749999999999965
 30
0.0
 40
0.0625
100
AcDbArc
 50
0.0
 51
96.45736332746495
  0
LINE
  5
16C8
330
17
100
AcDbEntity
  8
0
100
AcDbLine
 10
0.9687500000000036
 20
-0.0000000000000036
 30
0.0
 11
0.9687500000000036
 21
0.4400000000000013
 31
0.0
  0
ARC
  5
16C9
330
17
100
AcDbEntity
  8
0
100
AcDbCircle
 10
1.031249999999996
 20
0.3749999999999965
 30
0.0
 40
0.0625
100
AcDbArc
 50
83.54263667253895
 51
180.0
  0
LINE
  5
16CA
330
17
100
AcDbEntity
  8
0
100
AcDbLine
 10
1.249999999999996
 20
6.798902002698231
 30
0.0
 11
1.249999999999996
 21
15.40700000000001
 31
0.0
  0
ARC
  5
16CB
330
17
100
AcDbEntity
  8
0
100
AcDbCircle
 10
3.249999999999996
 20
6.798902002698231
 30
0.0
 40
2.0
100
AcDbArc
 50
180.0
 51
184.6229331810384
  0
LINE
  5
16CD
330
17
100
AcDbEntity
  8
0
100
AcDbLine
 10
-1.250000000000004
 20
6.798902002698252
 30
0.0
 11
-1.250000000000004
 21
15.40699999999999
 31
0.0
  0
CIRCLE
  5
16D3
330
17
100
AcDbEntity
  8
0
100
AcDbCircle
 10
0.4374999999999965
 20
12.75
 30
0.0
 40
0.0925
  0
CIRCLE
  5
16D4
330
17
100
AcDbEntity
  8
0
100
AcDbCircle
 10
-0.7500000000000036
 20
12.75
 30
0.0
 40
0.0925
  0
CIRCLE
  5
16DA
330
17
100
AcDbEntity
  8
0
100
AcDbCircle
 10
0.7499999999999965
 20
10.12499999999998
 30
0.0
 40
0.0925
  0
CIRCLE
  5
16DB
330
17
100
AcDbEntity
  8
0
100
AcDbCircle
 10
0.4374999999999965
 20
9.249999999999996
 30
0.0
 40
0.0925
  0
CIRCLE
  5
16DC
330
17
100
AcDbEntity
  8
0
100
AcDbCircle
 10
-0.7500000000000036
 20
9.249999999999996
 30
0.0
 40
0.0925
  0
CIRCLE
  5
16DD
330
17
100
AcDbEntity
  8
0
100
AcDbCircle
 10
-0.4375000000000036
 20
10.12499999999998
 30
0.0
 40
0.0925
  0
LINE
  5
16E8
330
17
100
AcDbEntity
  8
0
100
AcDbLine
 10
0.9687500000000036
 20
0.0000000000000036
 30
0.0
 11
-0.9687500000000036
 21
-0.0000000000000036
 31
0.0
  0
LINE
  5
16E9
330
17
100
AcDbEntity
  8
0
  6
HIDDEN
100
AcDbLine
 10
0.9687500000000036
 20
0.110000000000003
 30
0.0
 11
-0.9244718023630618
 21
0.1099999999999959
 31
0.0
  0
ARC
  5
16EA
330
17
100
AcDbEntity
  8
0
100
AcDbCircle
 10
-3.250000000000004
 20
6.798902002698252
 30
0.0
 40
2.0
100
AcDbArc
 50
355.3774901253835
 51
0.0
  0
LINE
  5
16EB
330
17
100
AcDbEntity
  8
0
100
AcDbLine
 10
-1.102658270190805
 20
2.280684906040765
 30
0.0
 11
-1.03440479333516
 21
0.3261610553627286
 31
0.0
  0
LINE
  5
16EC
330
17
100
AcDbEntity
  8
0
100
AcDbLine
 10
-1.212591261162917
 20
2.276845961403762
 30
0.0
 11
-1.144337784307258
 21
0.3223221107254481
 31
0.0
  0
ARC
  5
16ED
330
17
100
AcDbEntity
  8
0
100
AcDbCircle
 10
8.891250000000145
 20
2.629679873066021
 30
0.0
 40
10.11
100
AcDbArc
 50
179.9999999999887
 51
181.9999999999999
  0
LINE
  5
16EE
330
17
100
AcDbEntity
  8
0
100
AcDbLine
 10
1.102658270191409
 20
2.280684906058308
 30
0.0
 11
1.038246077979242
 21
0.436161055362728
 31
0.0
  0
ARC
  5
16EF
330
17
100
AcDbEntity
  8
0
  6
HIDDEN
100
AcDbCircle
 10
0.9283130870071368
 20
0.4400000000000013
 30
0.0
 40
0.11
100
AcDbArc
 50
270.0000000000002
 51
358.0000000000002
  0
ARC
  5
16F0
330
17
100
AcDbEntity
  8
0
100
AcDbCircle
 10
0.9283130870071368
 20
0.4400000000000013
 30
0.0
 40
0.22
100
AcDbArc
 50
270.0
 51
358.0
  0
LINE
  5
16F1
330
17
100
AcDbEntity
  8
0
100
AcDbLine
 10
1.212591261163507
 20
2.276845961421156
 30
0.0
 11
1.14817906895134
 21
0.4323221107254476
 31
0.0
  0
ARC
  5
16F2
330
17
100
AcDbEntity
  8
0
100
AcDbCircle
 10
-8.891249999999548
 20
2.629679873083408
 30
0.0
 40
10.11
100
AcDbArc
 50
358.0000000000001
 51
0.0
  0
LINE
  5
16F3
330
17
100
AcDbEntity
  8
0
100
AcDbLine
 10
-1.108749999999848
 20
2.629679873067691
 30
0.0
 11
-1.108749999999095
 21
6.500016736559633
 31
0.0
  0
ARC
  5
16F4
330
17
100
AcDbEntity
  8
0
100
AcDbCircle
 10
8.891250000000152
 20
2.629679873065751
 30
0.0
 40
10.0
100
AcDbArc
 50
179.9999999999889
 51
181.9999999999999
  0
LINE
  5
16F5
330
17
100
AcDbEntity
  8
0
100
AcDbLine
 10
-1.218749999999854
 20
2.629679873068003
 30
0.0
 11
-1.218749999999094
 21
6.500016736559655
 31
0.0
  0
LINE
  5
16F6
330
17
100
AcDbEntity
  8
0
100
AcDbLine
 10
1.108750000000452
 20
2.62967987308328
 30
0.0
 11
1.108750000000452
 21
6.500000000000004
 31
0.0
  0
ARC
  5
16F7
330
17
100
AcDbEntity
  8
0
100
AcDbCircle
 10
-8.891249999999548
 20
2.629679873083287
 30
0.0
 40
10.0
100
AcDbArc
 50
358.0000000000001
 51
359.9999999999999
  0
LINE
  5
16F8
330
17
100
AcDbEntity
  8
0
100
AcDbLine
 10
1.218750000000451
 20
2.629679873083408
 30
0.0
 11
1.218750000000451
 21
6.500000000000004
 31
0.0
  0
ARC
  5
16F9
330
17
100
AcDbEntity
  8
0
100
AcDbCircle
 10
1.488750000000561
 20
6.500000000000004
 30
0.0
 40
0.38
100
AcDbArc
 50
128.9235181311619
 51
180.0
  0
ARC
  5
16FA
330
17
100
AcDbEntity
  8
0
100
AcDbCircle
 10
1.488750000000561
 20
6.500000000000004
 30
0.0
 40
0.27
100
AcDbArc
 50
149.3346341700248
 51
180.0
  0
ARC
  5
16FB
330
17
100
AcDbEntity
  8
0
100
AcDbCircle
 10
-1.488750000000113
 20
6.500016736559704
 30
0.0
 40
0.38
100
AcDbArc
 50
359.9999999999892
 51
51.07647658998083
  0
ARC
  5
16FC
330
17
100
AcDbEntity
  8
0
100
AcDbCircle
 10
-1.488750000000113
 20
6.500016736559704
 30
0.0
 40
0.27
100
AcDbArc
 50
359.9999999999894
 51
30.66487033632161
  0
LINE
  5
170A
330
17
100
AcDbEntity
  8
0
  6
HIDDEN
100
AcDbLine
 10
0.9283130870071368
 20
0.2200000000000024
 30
0.0
 11
-0.9244718023630618
 21
0.2200000000000024
 31
0.0
  0
ARC
  5
170B
330
17
100
AcDbEntity
  8
0
  6
HIDDEN
100
AcDbCircle
 10
-0.9244718023630618
 20
0.3300000000000019
 30
0.0
 40
0.11
100
AcDbArc
 50
181.9999999999998
 51
270.0000000000002
  0
ARC
  5
170C
330
17
100
AcDbEntity
  8
0
100
AcDbCircle
 10
-0.9244718023630618
 20
0.3300000000000019
 30
0.0
 40
0.22
100
AcDbArc
 50
182.0
 51
270.0000000000002
  0
LINE
  5
170D
330
17
100
AcDbEntity
  8
0
  6
HIDDEN
100
AcDbLine
 10
0.9283130870071368
 20
0.3300000000000019
 30
0.0
 11
-0.9687500000000036
 21
0.3299999999999947
 31
0.0
  0
LINE
  5
170E
330
17
100
AcDbEntity
  8
0
100
AcDbLine
 10
0.9687500000000036
 20
0.4400000000000013
 30
0.0
 11
-0.9687500000000036
 21
0.4399999999999942
 31
0.0
  0
LINE
  5
17E1
330
17
100
AcDbEntity
  8
0
100
AcDbLine
 10
-1.250000000000004
 20
15.40699999999999
 30
0.0
 11
-0.782
 21
15.875
 31
0.0
  0
LINE
  5
17E2
330
17
100
AcDbEntity
  8
0
100
AcDbLine
 10
0.7819999999999929
 20
15.875
 30
0.0
 11
1.249999999999996
 21
15.40700000000001
 31
0.0
  0
LINE
  5
1C7A
330
17
100
AcDbEntity
  8
0
100
AcDbLine
 10
-0.9687500000000036
 20
22.42249926320958
 30
0.0
 11
-0.9687499999999965
 21
19.98249926320957
 31
0.0
  0
LINE
  5
1C7B
330
17
100
AcDbEntity
  8
0
100
AcDbLine
 10
0.9687500000000036
 20
22.42249926320958
 30
0.0
 11
0.96875
 21
19.98249926320957
 31
0.0
  0
LINE
  5
1C7C
330
17
100
AcDbEntity
  8
0
100
AcDbLine
 10
1.250000000000004
 20
22.42249926320956
 30
0.0
 11
-1.25
 21
22.42249926320958
 31
0.0
  0
ARC
  5
1C7D
330
17
100
AcDbEntity
  8
0
100
AcDbCircle
 10
-0.9243377843072587
 20
22.20249926320958
 30
0.0
 40
0.22
100
AcDbArc
 50
89.99999999999982
 51
180.0
  0
ARC
  5
1C7E
330
17
100
AcDbEntity
  8
0
100
AcDbCircle
 10
-0.9243377843072587
 20
22.20249926320958
 30
0.0
 40
0.11
100
AcDbArc
 50
113.8126575328286
 51
180.0
  0
LINE
  5
1C7F
330
17
100
AcDbEntity
  8
0
100
AcDbLine
 10
0.9687500000000036
 20
19.98249926320957
 30
0.0
 11
-0.9687500000000036
 21
19.98249926320958
 31
0.0
  0
LINE
  5
1C80
330
17
100
AcDbEntity
  8
0
  6
HIDDEN
 62
     8
100
AcDbLine
 10
0.9687500000000036
 20
20.09249926320956
 30
0.0
 11
-0.9687500000000036
 21
20.09249926320958
 31
0.0
  0
LINE
  5
1C81
330
17
100
AcDbEntity
  8
0
100
AcDbLine
 10
1.25
 20
22.42249926320958
 30
0.0
 11
1.249999999999996
 21
22.31249926320958
 31
0.0
  0
LINE
  5
1C82
330
17
100
AcDbEntity
  8
0
100
AcDbLine
 10
-1.25
 20
22.42249926320958
 30
0.0
 11
-1.25
 21
22.31249926320958
 31
0.0
  0
LINE
  5
1C83
330
17
100
AcDbEntity
  8
0
100
AcDbLine
 10
1.249999999999996
 20
22.31249926320958
 30
0.0
 11
1.18927558883302
 21
22.31249926320958
 31
0.0
  0
LINE
  5
1C84
330
17
100
AcDbEntity
  8
0
100
AcDbLine
 10
-1.18927558883302
 20
22.31249926320958
 30
0.0
 11
-1.25
 21
22.31249926320958
 31
0.0
  0
LINE
  5
1C85
330
17
100
AcDbEntity
  8
0
100
AcDbLine
 10
1.14817906895134
 20
22.20249926320956
 30
0.0
 11
-1.144337784307258
 21
22.20249926320958
 31
0.0
  0
LINE
  5
1C86
330
17
100
AcDbEntity
  8
0
100
AcDbLine
 10
1.14817906895134
 20
20.20249926320956
 30
0.0
 11
0.96875
 21
20.20249926320956
 31
0.0
  0
LINE
  5
1C87
330
17
100
AcDbEntity
  8
0
100
AcDbLine
 10
-0.9687499999999965
 20
20.20249926320958
 30
0.0
 11
-1.144337784307258
 21
20.20249926320958
 31
0.0
  0
LINE
  5
1C88
330
17
100
AcDbEntity
  8
0
100
AcDbLine
 10
1.14817906895134
 20
20.20249926320956
 30
0.0
 11
1.14817906895134
 21
22.20249926320956
 31
0.0
  0
ARC
  5
1C89
330
17
100
AcDbEntity
  8
0
100
AcDbCircle
 10
0.9281790689513407
 20
22.20249926320956
 30
0.0
 40
0.22
100
AcDbArc
 50
0.0
 51
90.00000000000003
  0
ARC
  5
1C8A
330
17
100
AcDbEntity
  8
0
100
AcDbCircle
 10
0.9281790689513407
 20
22.20249926320956
 30
0.0
 40
0.11
100
AcDbArc
 50
0.0
 51
68.35672831318324
  0
LINE
  5
1C8B
330
17
100
AcDbEntity
  8
0
100
AcDbLine
 10
-1.144337784307258
 20
20.20249926320958
 30
0.0
 11
-1.144337784307258
 21
22.20249926320958
 31
0.0
  0
ARC
  5
1C8C
330
17
100
AcDbEntity
  8
0
100
AcDbCircle
 10
0.9987500000004452
 20
22.20249926320957
 30
0.0
 40
0.22
100
AcDbArc
 50
357.9751974804702
 51
90.00000000000003
  0
LINE
  5
1C8D
330
17
100
AcDbEntity
  8
0
100
AcDbLine
 10
1.218612637696484
 20
22.19472619783358
 30
0.0
 11
1.14817906895134
 21
20.20249926320956
 31
0.0
  0
ARC
  5
1C8E
330
17
100
AcDbEntity
  8
0
100
AcDbCircle
 10
-0.9987500000004452
 20
22.20249926320957
 30
0.0
 40
0.22
100
AcDbArc
 50
90.00000000000021
 51
182.0248025195298
  0
LINE
  5
1C8F
330
17
100
AcDbEntity
  8
0
100
AcDbLine
 10
-1.218612637696484
 20
22.19472619783358
 30
0.0
 11
-1.14817906895134
 21
20.20249926320956
 31
0.0
  0
CIRCLE
  5
1C90
330
17
100
AcDbEntity
  8
0
100
AcDbCircle
 10
0.0
 20
21.11749926320958
 30
0.0
 40
0.34375
  0
LINE
  5
1C93
330
17
100
AcDbEntity
  8
0
100
AcDbLine
 10
-7.566299397955037
 20
0.2239999999999967
 30
0.0
 11
-9.462822789831678
 21
6.837963069912679
 31
0.0
  0
LINE
  5
1C94
330
17
100
AcDbEntity
  8
0
  6
HIDDEN
 62
     8
100
AcDbLine
 10
-9.633113506513221
 20
0.200882272836445
 30
0.0
 11
-9.441923339024045
 21
6.765078023297811
 31
0.0
  0
LINE
  5
1C95
330
17
100
AcDbEntity
  8
0
100
AcDbLine
 10
-7.540299397955041
 20
0.3490000000000038
 30
0.0
 11
-7.602142571174889
 21
0.3490000000000038
 31
0.0
  0
LINE
  5
1C96
330
17
100
AcDbEntity
  8
0
  6
HIDDEN
 62
     8
100
AcDbLine
 10
-7.566299397955037
 20
0.2239999999999967
 30
0.0
 11
-9.566299397955037
 21
0.2239999999999967
 31
0.0
  0
LINE
  5
1C97
330
17
100
AcDbEntity
  8
0
100
AcDbLine
 10
-9.534155472461928
 20
0.0989999999999966
 30
0.0
 11
-7.540299397955041
 21
0.0989999999999966
 31
0.0
  0
LINE
  5
1C98
330
17
100
AcDbEntity
  8
0
100
AcDbLine
 10
-7.566299397955051
 20
0.2240000000000393
 30
0.0
 11
-7.566299397955051
 21
0.125
 31
0.0
  0
LINE
  5
1C99
330
17
100
AcDbEntity
  8
0
100
AcDbLine
 10
-7.441299397955037
 20
0.1980000000000004
 30
0.0
 11
-7.441299397955044
 21
0.2500000000000071
 31
0.0
  0
ARC
  5
1C9A
330
17
100
AcDbEntity
  8
0
100
AcDbCircle
 10
-9.628799397955037
 20
0.3489999999999967
 30
0.0
 40
0.0625
100
AcDbArc
 50
0.000000000000007
 51
88.33166255172174
  0
LINE
  5
1C9B
330
17
100
AcDbEntity
  8
0
  6
HIDDEN
 62
     8
100
AcDbLine
 10
-9.378799397955037
 20
0.4480000000000004
 30
0.0
 11
-9.378799397955037
 21
0.3489999999999967
 31
0.0
  0
LINE
  5
1C9C
330
17
100
AcDbEntity
  8
0
100
AcDbLine
 10
-9.566299397955037
 20
0.125
 30
0.0
 11
-9.566299397955037
 21
0.3489999999999967
 31
0.0
  0
LINE
  5
1C9D
330
17
100
AcDbEntity
  8
0
100
AcDbLine
 10
-9.626979781265378
 20
0.4114735063455086
 30
0.0
 11
-9.726021765010929
 21
0.4114735063455228
 31
0.0
  0
LINE
  5
1C9E
330
17
100
AcDbEntity
  8
0
100
AcDbLine
 10
-9.441299397955037
 20
15.875
 30
0.0
 11
-9.441299397955037
 21
6.773192916904076
 31
0.0
  0
ARC
  5
1C9F
330
17
100
AcDbEntity
  8
0
100
AcDbCircle
 10
-8.441299397955037
 20
6.903442916904076
 30
0.0
 40
1.0
100
AcDbArc
 50
180.0
 51
196.0000000000001
  0
LINE
  5
1CA0
330
17
100
AcDbEntity
  8
0
100
AcDbLine
 10
-9.540299397955041
 20
15.875
 30
0.0
 11
-9.441299397955037
 21
15.875
 31
0.0
  0
LINE
  5
1CA1
330
17
100
AcDbEntity
  8
0
100
AcDbLine
 10
-7.566299397955051
 20
0.3490000000000464
 30
0.0
 11
-7.566299397955051
 21
0.2500000000000071
 31
0.0
  0
LINE
  5
1CA2
330
17
100
AcDbEntity
  8
0
  6
HIDDEN
 62
     8
100
AcDbLine
 10
-7.602142571174889
 20
0.3490000000000038
 30
0.0
 11
-9.566299397955037
 21
0.3489999999999967
 31
0.0
  0
LINE
  5
1CA3
330
17
100
AcDbEntity
  8
0
  6
HIDDEN
 62
     8
100
AcDbLine
 10
-8.160049397955037
 20
0.125
 30
0.0
 11
-8.160049397955037
 21
0.2240000000000038
 31
0.0
  0
LINE
  5
1CA4
330
17
100
AcDbEntity
  8
0
  6
HIDDEN
 62
     8
100
AcDbLine
 10
-8.160049397955037
 20
-0.0000000000000071
 30
0.0
 11
-8.160049397955037
 21
0.0990000000000038
 31
0.0
  0
LINE
  5
1CA5
330
17
100
AcDbEntity
  8
0
  6
HIDDEN
 62
     8
100
AcDbLine
 10
-8.160049397955037
 20
0.2500000000000071
 30
0.0
 11
-8.160049397955037
 21
0.3490000000000038
 31
0.0
  0
LINE
  5
1CA6
330
17
100
AcDbEntity
  8
0
  6
HIDDEN
 62
     8
100
AcDbLine
 10
-8.847549397955037
 20
0.125
 30
0.0
 11
-8.847549397955037
 21
0.2239999999999967
 31
0.0
  0
LINE
  5
1CA7
330
17
100
AcDbEntity
  8
0
  6
HIDDEN
 62
     8
100
AcDbLine
 10
-8.847549397955037
 20
0.0
 30
0.0
 11
-8.847549397955037
 21
0.0990000000000038
 31
0.0
  0
LINE
  5
1CA8
330
17
100
AcDbEntity
  8
0
  6
HIDDEN
 62
     8
100
AcDbLine
 10
-8.847549397955037
 20
0.25
 30
0.0
 11
-8.847549397955037
 21
0.3490000000000038
 31
0.0
  0
LINE
  5
1CA9
330
17
100
AcDbEntity
  8
0
100
AcDbLine
 10
-7.540299397955041
 20
0.4480000000000075
 30
0.0
 11
-7.630530364365017
 21
0.4480000000000075
 31
0.0
  0
LINE
  5
1CAA
330
17
100
AcDbEntity
  8
0
100
AcDbLine
 10
-7.342299397955033
 20
0.1979999999999933
 30
0.0
 11
-7.34229939795504
 21
0.2500000000000071
 31
0.0
  0
LINE
  5
1CAB
330
17
100
AcDbEntity
  8
0
100
AcDbLine
 10
-9.534155472461928
 20
0.0
 30
0.0
 11
-7.540299397955034
 21
-0.0000000000000071
 31
0.0
  0
ARC
  5
1CAC
330
17
100
AcDbEntity
  8
0
100
AcDbCircle
 10
-7.540299397955041
 20
0.2500000000000071
 30
0.0
 40
0.099
100
AcDbArc
 50
0.000000000000007
 51
90.0
  0
ARC
  5
1CAD
330
17
100
AcDbEntity
  8
0
100
AcDbCircle
 10
-7.540299397955041
 20
0.1980000000000004
 30
0.0
 40
0.099
100
AcDbArc
 50
270.0
 51
0.000000000002526
  0
ARC
  5
1CAE
330
17
100
AcDbEntity
  8
0
100
AcDbCircle
 10
-7.540299397955041
 20
0.2500000000000071
 30
0.0
 40
0.198
100
AcDbArc
 50
0.000000000000007
 51
90.00000000000011
  0
ARC
  5
1CAF
330
17
100
AcDbEntity
  8
0
100
AcDbCircle
 10
-7.540299397955034
 20
0.1979999999999933
 30
0.0
 40
0.198
100
AcDbArc
 50
270.0
 51
0.000000000000007
  0
LINE
  5
1CB0
330
17
100
AcDbEntity
  8
0
100
AcDbLine
 10
-9.732071540564506
 20
0.2037645456728896
 30
0.0
 11
-9.540257432006344
 21
6.789382272836441
 31
0.0
  0
ARC
  5
1CB1
330
17
100
AcDbEntity
  8
0
100
AcDbCircle
 10
-9.534155472461928
 20
0.1980000000000004
 30
0.0
 40
0.198
100
AcDbArc
 50
178.3316625517066
 51
269.9999999999999
  0
ARC
  5
1CB2
330
17
100
AcDbEntity
  8
0
100
AcDbCircle
 10
-9.534155472461928
 20
0.1980000000000004
 30
0.0
 40
0.099
100
AcDbArc
 50
178.3316625517066
 51
270.0
  0
LINE
  5
1CB3
330
17
100
AcDbEntity
  8
0
100
AcDbLine
 10
-7.566299397955051
 20
0.2500000000000071
 30
0.0
 11
-7.573754777984769
 21
0.2500000000000071
 31
0.0
  0
LINE
  5
1CB4
330
17
100
AcDbEntity
  8
0
100
AcDbLine
 10
-7.566299397955037
 20
0.125
 30
0.0
 11
-9.566299397955037
 21
0.125
 31
0.0
  0
LINE
  5
1CB5
330
17
100
AcDbEntity
  8
0
  6
HIDDEN
 62
     8
100
AcDbLine
 10
-8.847549397955037
 20
0.3490000000000038
 30
0.0
 11
-8.847549397955037
 21
0.4480000000000004
 31
0.0
  0
LINE
  5
1CB6
330
17
100
AcDbEntity
  8
0
  6
HIDDEN
 62
     8
100
AcDbLine
 10
-8.160049397955037
 20
0.3490000000000038
 30
0.0
 11
-8.160049397955037
 21
0.4480000000000004
 31
0.0
  0
LINE
  5
1CB7
330
17
100
AcDbEntity
  8
0
  6
HIDDEN
 62
     8
100
AcDbLine
 10
-7.573754777984769
 20
0.2500000000000071
 30
0.0
 11
-9.566299397955037
 21
0.25
 31
0.0
  0
LINE
  5
1CB8
330
17
100
AcDbEntity
  8
0
  6
HIDDEN
 62
     8
100
AcDbLine
 10
-7.630530364365017
 20
0.4480000000000075
 30
0.0
 11
-9.378799397955037
 21
0.4480000000000004
 31
0.0
  0
LINE
  5
1CB9
330
17
100
AcDbEntity
  8
0
100
AcDbLine
 10
-9.540299397955041
 20
15.875
 30
0.0
 11
-9.540257432006344
 21
6.789382272836441
 31
0.0
  0
ARC
  5
1CBA
330
17
100
AcDbEntity
  8
0
100
AcDbCircle
 10
-7.540299397955041
 20
7.389237781546683
 30
0.0
 40
2.0
100
AcDbArc
 50
180.0
 51
196.0000000000001
  0
ENDSEC
  0
SECTION
  2
OBJECTS
  0
DICTIONARY
  5
C
330
0
100
AcDbDictionary
281
     1
  3
ACAD_COLOR
350
822
  3
ACAD_GROUP
350
D
  3
ACAD_LAYOUT
350
57A
  3
ACAD_MATERIAL
350
821
  3
ACAD_MLINESTYLE
350
1A
  3
ACAD_PLOTSETTINGS
350
57B
  3
ACAD_PLOTSTYLENAME
350
578
  3
ACAD_TABLESTYLE
350
823
  3
ACDBHEADERROUNDTRIPXREC
350
1CCB
  3
ACDBVARIABLEDICTIONARY
350
4B
  3
ASE_INDEX_DICTIONARY
350
1C64
  0
DICTIONARY
  5
D5E
330
2
100
AcDbDictionary
280
     1
281
     1
  3
ACAD_LAYERFILTERS
360
1C92
  3
ACAD_LAYERSTATES
360
D5F
  3
ACLYDICTIONARY
360
1C91
  0
DICTIONARY
  5
5EB
330
17
100
AcDbDictionary
280
     1
281
     1
  3
ACAD_SORTENTS
360
166E
  0
DICTIONARY
  5
822
102
{ACAD_REACTORS
330
C
102
}
330
C
100
AcDbDictionary
281
     1
  0
DICTIONARY
  5
D
102
{ACAD_REACTORS
330
C
102
}
330
C
100
AcDbDictionary
281
     1
  0
DICTIONARY
  5
57A
102
{ACAD_REACTORS
330
C
102
}
330
C
100
AcDbDictionary
281
     1
  3
Layout1
350
57D
  3
Model
350
57C
  0
DICTIONARY
  5
821
102
{ACAD_REACTORS
330
C
102
}
330
C
100
AcDbDictionary
281
     1
  0
DICTIONARY
  5
1A
102
{ACAD_REACTORS
330
C
102
}
330
C
100
AcDbDictionary
281
     1
  3
STANDARD
350
1B
  0
DICTIONARY
  5
57B
102
{ACAD_REACTORS
330
C
102
}
330
C
100
AcDbDictionary
281
     1
  0
ACDBDICTIONARYWDFLT
  5
578
102
{ACAD_REACTORS
330
C
102
}
330
C
100
AcDbDictionary
281
     1
  3
Normal
350
579
100
AcDbDictionaryWithDefault
340
579
  0
DICTIONARY
  5
823
102
{ACAD_REACTORS
330
C
102
}
330
C
100
AcDbDictionary
281
     1
  3
Standard
350
824
  0
DICTIONARY
  5
1CCB
102
{ACAD_REACTORS
330
C
102
}
330
C
100
AcDbDictionary
281
     1
  3
COLORDICT
350
1CCC
  3
MATERIALDICT
350
1CCD
  0
DICTIONARY
  5
4B
102
{ACAD_REACTORS
330
C
102
}
330
C
100
AcDbDictionary
281
     1
  3
CTABLESTYLE
350
8BC
  3
DIMADEC
350
4C
  3
DIMASSOC
350
9BD
  0
DICTIONARY
  5
1C64
102
{ACAD_REACTORS
330
C
102
}
330
C
100
AcDbDictionary
281
     1
  3
ASEBlockHierarchyIndexRecord
350
1C65
1001
DCO15
1040
1649410716.186
  0
DICTIONARY
  5
1C92
102
{ACAD_REACTORS
330
D5E
102
}
330
D5E
100
AcDbDictionary
281
     1
  0
DICTIONARY
  5
D5F
102
{ACAD_REACTORS
330
D5E
102
}
330
D5E
100
AcDbDictionary
281
     1
  0
DICTIONARY
  5
1C91
102
{ACAD_REACTORS
330
D5E
102
}
330
D5E
100
AcDbDictionary
281
     1
1001
ACAD
1000
<All
  0
SORTENTSTABLE
  5
166E
102
{ACAD_REACTORS
330
5EB
102
}
330
5EB
100
AcDbSortentsTable
330
17
331
0
  5
4CD
331
382
  5
382
331
456
  5
456
331
450
  5
450
331
396
  5
396
331
E5C
  5
E5C
331
16F0
  5
16F0
331
451
  5
451
331
41D
  5
41D
331
397
  5
397
331
4FA
  5
4FA
331
45E
  5
45E
331
45D
  5
45D
331
38D
  5
38D
331
16CA
  5
16CA
331
468
  5
468
331
4F3
  5
4F3
331
420
  5
420
331
E56
  5
E56
331
36C
  5
36C
331
16F9
  5
16F9
331
16F2
  5
16F2
331
16E8
  5
16E8
331
16EB
  5
16EB
331
3B0
  5
3B0
331
36F
  5
36F
331
457
  5
457
331
16EA
  5
16EA
331
16EE
  5
16EE
331
16DA
  5
16DA
331
16C7
  5
16C7
331
38C
  5
38C
331
16E9
  5
16E9
331
458
  5
458
331
45C
  5
45C
331
16F7
  5
16F7
331
16ED
  5
16ED
331
455
  5
455
331
17E2
  5
17E2
331
E5B
  5
E5B
331
454
  5
454
331
44E
  5
44E
331
4F6
  5
4F6
331
3AE
  5
3AE
331
170D
  5
170D
331
16DD
  5
16DD
331
37C
  5
37C
331
16C8
  5
16C8
331
16C6
  5
16C6
331
4EB
  5
4EB
331
16EC
  5
16EC
331
16FC
  5
16FC
331
17E1
  5
17E1
331
16CB
  5
16CB
331
45A
  5
45A
331
415
  5
415
331
4EC
  5
4EC
331
E5D
  5
E5D
331
16F5
  5
16F5
331
459
  5
459
331
453
  5
453
331
37A
  5
37A
331
16EF
  5
16EF
331
4F0
  5
4F0
331
452
  5
452
331
44F
  5
44F
331
421
  5
421
331
170E
  5
170E
331
170A
  5
170A
331
41F
  5
41F
331
41E
  5
41E
331
16DB
  5
16DB
331
37E
  5
37E
331
E5A
  5
E5A
331
16F6
  5
16F6
331
4F4
  5
4F4
331
4ED
  5
4ED
331
45F
  5
45F
331
16DC
  5
16DC
331
378
  5
378
331
379
  5
379
331
16FB
  5
16FB
331
380
  5
380
331
E58
  5
E58
331
381
  5
381
331
16F4
  5
16F4
331
16D4
  5
16D4
331
45B
  5
45B
331
E59
  5
E59
331
170B
  5
170B
331
16FA
  5
16FA
331
4EF
  5
4EF
331
4EE
  5
4EE
331
16CD
  5
16CD
331
422
  5
422
331
37F
  5
37F
331
16C9
  5
16C9
331
37B
  5
37B
331
4FB
  5
4FB
331
16F1
  5
16F1
331
E57
  5
E57
331
16F8
  5
16F8
331
16D3
  5
16D3
331
16F3
  5
16F3
331
383
  5
383
331
170C
  5
170C
331
4F5
  5
4F5
  0
LAYOUT
  5
57D
102
{ACAD_REACTORS
330
57A
102
}
102
{ACAD_XDICTIONARY
360
1CCE
102
}
330
57A
100
AcDbPlotSettings
  1

  2
HP LaserJet 2100 Series PS
  4

  6

 40
0.0
 41
0.0
 42
0.0
 43
0.0
 44
0.0
 45
0.0
 46
0.0
 47
0.0
 48
0.0
 49
0.0
140
0.0
141
0.0
142
1.0
143
1.0
 70
   688
 72
     0
 73
     0
 74
     5
  7
monochrome.ctb
 75
    16
147
1.0
148
0.0
149
0.0
100
AcDbLayout
  1
Layout1
 70
     0
 71
     1
 10
0.0
 20
0.0
 11
12.0
 21
9.0
 12
0.0
 22
0.0
 32
0.0
 14
1.000000000000000E+20
 24
1.000000000000000E+20
 34
1.000000000000000E+20
 15
-1.000000000000000E+20
 25
-1.000000000000000E+20
 35
-1.000000000000000E+20
146
0.0
 13
0.0
 23
0.0
 33
0.0
 16
1.0
 26
0.0
 36
0.0
 17
0.0
 27
1.0
 37
0.0
 76
     0
330
14
  0
LAYOUT
  5
57C
102
{ACAD_REACTORS
330
57A
102
}
102
{ACAD_XDICTIONARY
360
1CD0
102
}
330
57A
100
AcDbPlotSettings
  1

  2
HP LaserJet 2100 Series PS
  4
Letter
  6

 40
5.365749835968018
 41
5.408084392547607
 42
5.4080810546875
 43
5.365753173828125
 44
215.8999938964844
 45
279.3999938964844
 46
0.0
 47
0.0
 48
0.0375000000000005
 49
0.0375
140
15.7125
141
11.72142855819132
142
1.0
143
3.971318409846261
 70
 28336
 72
     0
 73
     0
 74
     2
  7
monochrome.ctb
 75
     0
147
0.2518055458662435
148
0.0
149
0.0
100
AcDbLayout
  1
Model
 70
     1
 71
     0
 10
0.0
 20
0.0
 11
12.0
 21
9.0
 12
0.0
 22
0.0
 32
0.0
 14
0.0
 24
0.0
 34
0.0
 15
0.0
 25
0.0
 35
0.0
146
0.0
 13
0.0
 23
0.0
 33
0.0
 16
1.0
 26
0.0
 36
0.0
 17
0.0
 27
1.0
 37
0.0
 76
     0
330
17
  0
MLINESTYLE
  5
1B
102
{ACAD_REACTORS
330
1A
102
}
330
1A
100
AcDbMlineStyle
  2
STANDARD
 70
     0
  3

 62
   256
 51
90.0
 52
90.0
 71
     2
 49
0.5
 62
   256
  6
BYLAYER
 49
-0.5
 62
   256
  6
BYLAYER
  0
ACDBPLACEHOLDER
  5
579
102
{ACAD_REACTORS
330
578
102
}
330
578
  0
ACAD_PROXY_OBJECT
  5
824
102
{ACAD_REACTORS
330
823
102
}
330
823
100
AcDbProxyObject
 90
      499
 91
      533
 95
   983063
 70
     0
 93
     1841
310
4214DD185B99185C9928B81E85EB51B8AE3F2E07A17AD46E2B8FC02B5E8DC0F42B1CFD028000000C1008070000C3001FDFF8000000C1003FBFF000000182007F7FE00000030400FEFFC00000060801FDFF8000000C1003FBFF00000018200000000000000681FA0B0000001820100E000186003FBFF000000182007F7FE000
310
00030400FEFFC00000060801FDFF8000000C1003FBFF000000182007F7FE000000304000AD7A3703D0AC73F4160000003040201C00030C007F7FE00000030400FEFFC00000060801FDFF8000000C1003FBFF000000182007F7FE00000030400FEFFC000000608000
340
F
340
F
340
F
 94
        0
  0
XRECORD
  5
1CCC
102
{ACAD_REACTORS
330
1CCB
102
}
330
1CCB
100
AcDbXrecord
340
822
  0
XRECORD
  5
1CCD
102
{ACAD_REACTORS
330
1CCB
102
}
330
1CCB
100
AcDbXrecord
340
821
  0
DICTIONARYVAR
  5
8BC
102
{ACAD_REACTORS
330
4B
102
}
330
4B
100
DictionaryVariables
280
     0
  1
STANDARD
  0
DICTIONARYVAR
  5
4C
102
{ACAD_REACTORS
330
4B
102
}
330
4B
100
DictionaryVariables
280
     0
  1
0
  0
DICTIONARYVAR
  5
9BD
102
{ACAD_REACTORS
330
4B
102
}
330
4B
100
DictionaryVariables
280
     0
  1
2
  0
XRECORD
  5
1C65
102
{ACAD_REACTORS
330
1C64
102
}
330
1C64
100
AcDbXrecord
280
     1
330
0
330
0
330
0
330
0
330
0
330
0
330
0
330
0
330
0
330
0
330
0
330
0
330
0
330
0
330
0
  0
DICTIONARY
  5
1CCE
330
57D
100
AcDbDictionary
280
     1
281
     1
  3
ACAD_XREC_ROUNDTRIP
360
1CCF
  0
DICTIONARY
  5
1CD0
330
57C
100
AcDbDictionary
280
     1
281
     1
  3
ACAD_XREC_ROUNDTRIP
360
1CD1
  0
XRECORD
  5
1CCF
102
{ACAD_REACTORS
330
1CCE
102
}
330
1CCE
100
AcDbXrecord
102
SHADEPLOT
 70
     0
102
SHADEPLOTRESLEVEL
 70
     2
102
SHADEPLOTCUSTOMDPI
 70
   300
  0
XRECORD
  5
1CD1
102
{ACAD_REACTORS
330
1CD0
102
}
330
1CD0
100
AcDbXrecord
102
SHADEPLOT
 70
     0
102
SHADEPLOTRESLEVEL
 70
     2
102
SHADEPLOTCUSTOMDPI
 70
   300
  0
ENDSEC
  0
EOF
