  0
SECTION
  2
HEADER
  9
$ACADVER
  1
AC1015
  9
$ACADMAINTVER
 70
     6
  9
$DWGCODEPAGE
  3
ANSI_1252
  9
$INSBASE
 10
0.0
 20
0.0
 30
0.0
  9
$EXTMIN
 10
-0.7788892472847557
 20
-0.0268656256330502
 30
-0.0015258207003583
  9
$EXTMAX
 10
21.5886029380074
 20
19.25874354593577
 30
0.0000000349246037
  9
$LIMMIN
 10
0.0
 20
0.0
  9
$LIMMAX
 10
42.0
 20
32.0
  9
$ORTHOMODE
 70
     1
  9
$REGENMODE
 70
     1
  9
$FILLMODE
 70
     1
  9
$QTEXTMODE
 70
     0
  9
$MIRRTEXT
 70
     0
  9
$LTSCALE
 40
0.5
  9
$ATTMODE
 70
     1
  9
$TEXTSIZE
 40
0.36
  9
$TRACEWID
 40
0.05
  9
$TEXTSTYLE
  7
STANDARD
  9
$CLAYER
  8
0
  9
$CELTYPE
  6
BYLAYER
  9
$CECOLOR
 62
   256
  9
$CELTSCALE
 40
1.0
  9
$DISPSILH
 70
     0
  9
$DIMSCALE
 40
4.0
  9
$DIMASZ
 40
0.125
  9
$DIMEXO
 40
0.062
  9
$DIMDLI
 40
0.375
  9
$DIMRND
 40
0.0
  9
$DIMDLE
 40
0.0
  9
$DIMEXE
 40
0.08
  9
$DIMTP
 40
0.0
  9
$DIMTM
 40
0.0
  9
$DIMTXT
 40
0.09
  9
$DIMCEN
 40
-0.06
  9
$DIMTSZ
 40
0.0
  9
$DIMTOL
 70
     0
  9
$DIMLIM
 70
     0
  9
$DIMTIH
 70
     1
  9
$DIMTOH
 70
     1
  9
$DIMSE1
 70
     0
  9
$DIMSE2
 70
     0
  9
$DIMTAD
 70
     0
  9
$DIMZIN
 70
     0
  9
$DIMBLK
  1

  9
$DIMASO
 70
     0
  9
$DIMSHO
 70
     0
  9
$DIMPOST
  1

  9
$DIMAPOST
  1

  9
$DIMALT
 70
     0
  9
$DIMALTD
 70
     2
  9
$DIMALTF
 40
25.4
  9
$DIMLFAC
 40
1.0
  9
$DIMTOFL
 70
     0
  9
$DIMTVP
 40
0.0
  9
$DIMTIX
 70
     0
  9
$DIMSOXD
 70
     0
  9
$DIMSAH
 70
     0
  9
$DIMBLK1
  1

  9
$DIMBLK2
  1

  9
$DIMSTYLE
  2
STANDARD
  9
$DIMCLRD
 70
     0
  9
$DIMCLRE
 70
     0
  9
$DIMCLRT
 70
     0
  9
$DIMTFAC
 40
1.0
  9
$DIMGAP
 40
0.09
  9
$DIMJUST
 70
     0
  9
$DIMSD1
 70
     0
  9
$DIMSD2
 70
     0
  9
$DIMTOLJ
 70
     1
  9
$DIMTZIN
 70
     0
  9
$DIMALTZ
 70
     0
  9
$DIMALTTZ
 70
     0
  9
$DIMUPT
 70
     0
  9
$DIMDEC
 70
     5
  9
$DIMTDEC
 70
     4
  9
$DIMALTU
 70
     2
  9
$DIMALTTD
 70
     2
  9
$DIMTXSTY
  7
STANDARD
  9
$DIMAUNIT
 70
     0
  9
$DIMADEC
 70
     0
  9
$DIMALTRND
 40
0.0
  9
$DIMAZIN
 70
     0
  9
$DIMDSEP
 70
    46
  9
$DIMATFIT
 70
     3
  9
$DIMFRAC
 70
     2
  9
$DIMLDRBLK
  1

  9
$DIMLUNIT
 70
     5
  9
$DIMLWD
 70
    -2
  9
$DIMLWE
 70
    -2
  9
$DIMTMOVE
 70
     2
  9
$LUNITS
 70
     2
  9
$LUPREC
 70
     4
  9
$SKETCHINC
 40
0.1
  9
$FILLETRAD
 40
0.0
  9
$AUNITS
 70
     0
  9
$AUPREC
 70
     0
  9
$MENU
  1
acad
  9
$ELEVATION
 40
0.0
  9
$PELEVATION
 40
0.0
  9
$THICKNESS
 40
0.0
  9
$LIMCHECK
 70
     0
  9
$CHAMFERA
 40
0.0
  9
$CHAMFERB
 40
0.0
  9
$CHAMFERC
 40
0.0
  9
$CHAMFERD
 40
0.0
  9
$SKPOLY
 70
     0
  9
$TDCREATE
 40
2448880.712842593
  9
$TDUCREATE
 40
2448881.046175926
  9
$TDUPDATE
 40
2454165.797967894
  9
$TDUUPDATE
 40
2454166.131301227
  9
$TDINDWG
 40
0.6216860995
  9
$TDUSRTIMER
 40
0.6216860995
  9
$USRTIMER
 70
     1
  9
$ANGBASE
 50
0.0
  9
$ANGDIR
 70
     0
  9
$PDMODE
 70
     0
  9
$PDSIZE
 40
0.0
  9
$PLINEWID
 40
0.0
  9
$SPLFRAME
 70
     0
  9
$SPLINETYPE
 70
     6
  9
$SPLINESEGS
 70
     8
  9
$HANDSEED
  5
380
  9
$SURFTAB1
 70
     6
  9
$SURFTAB2
 70
     6
  9
$SURFTYPE
 70
     6
  9
$SURFU
 70
     6
  9
$SURFV
 70
     6
  9
$UCSBASE
  2

  9
$UCSNAME
  2

  9
$UCSORG
 10
0.0
 20
0.0
 30
0.0
  9
$UCSXDIR
 10
1.0
 20
0.0
 30
0.0
  9
$UCSYDIR
 10
0.0
 20
1.0
 30
0.0
  9
$UCSORTHOREF
  2

  9
$UCSORTHOVIEW
 70
     0
  9
$UCSORGTOP
 10
0.0
 20
0.0
 30
0.0
  9
$UCSORGBOTTOM
 10
0.0
 20
0.0
 30
0.0
  9
$UCSORGLEFT
 10
0.0
 20
0.0
 30
0.0
  9
$UCSORGRIGHT
 10
0.0
 20
0.0
 30
0.0
  9
$UCSORGFRONT
 10
0.0
 20
0.0
 30
0.0
  9
$UCSORGBACK
 10
0.0
 20
0.0
 30
0.0
  9
$PUCSBASE
  2

  9
$PUCSNAME
  2

  9
$PUCSORG
 10
0.0
 20
0.0
 30
0.0
  9
$PUCSXDIR
 10
1.0
 20
0.0
 30
0.0
  9
$PUCSYDIR
 10
0.0
 20
1.0
 30
0.0
  9
$PUCSORTHOREF
  2

  9
$PUCSORTHOVIEW
 70
     0
  9
$PUCSORGTOP
 10
0.0
 20
0.0
 30
0.0
  9
$PUCSORGBOTTOM
 10
0.0
 20
0.0
 30
0.0
  9
$PUCSORGLEFT
 10
0.0
 20
0.0
 30
0.0
  9
$PUCSORGRIGHT
 10
0.0
 20
0.0
 30
0.0
  9
$PUCSORGFRONT
 10
0.0
 20
0.0
 30
0.0
  9
$PUCSORGBACK
 10
0.0
 20
0.0
 30
0.0
  9
$USERI1
 70
     0
  9
$USERI2
 70
     0
  9
$USERI3
 70
     0
  9
$USERI4
 70
     0
  9
$USERI5
 70
     0
  9
$USERR1
 40
0.0
  9
$USERR2
 40
0.0
  9
$USERR3
 40
0.0
  9
$USERR4
 40
0.0
  9
$USERR5
 40
0.0
  9
$WORLDVIEW
 70
     1
  9
$SHADEDGE
 70
     3
  9
$SHADEDIF
 70
    70
  9
$TILEMODE
 70
     1
  9
$MAXACTVP
 70
    16
  9
$PINSBASE
 10
0.0
 20
0.0
 30
0.0
  9
$PLIMCHECK
 70
     0
  9
$PEXTMIN
 10
1.000000000000000E+20
 20
1.000000000000000E+20
 30
1.000000000000000E+20
  9
$PEXTMAX
 10
-1.000000000000000E+20
 20
-1.000000000000000E+20
 30
-1.000000000000000E+20
  9
$PLIMMIN
 10
0.0
 20
0.0
  9
$PLIMMAX
 10
12.0
 20
9.0
  9
$UNITMODE
 70
     0
  9
$VISRETAIN
 70
     0
  9
$PLINEGEN
 70
     0
  9
$PSLTSCALE
 70
     0
  9
$TREEDEPTH
 70
  3020
  9
$CMLSTYLE
  2
STANDARD
  9
$CMLJUST
 70
     0
  9
$CMLSCALE
 40
1.0
  9
$PROXYGRAPHICS
 70
     1
  9
$MEASUREMENT
 70
     0
  9
$CELWEIGHT
370
    -1
  9
$ENDCAPS
280
     0
  9
$JOINSTYLE
280
     0
  9
$LWDISPLAY
290
     0
  9
$INSUNITS
 70
     0
  9
$HYPERLINKBASE
  1

  9
$STYLESHEET
  1

  9
$XEDIT
290
     1
  9
$CEPSNTYPE
380
     0
  9
$PSTYLEMODE
290
     1
  9
$FINGERPRINTGUID
  2
{D2F66ADB-A264-4ADF-B7D5-0BD741C9DFA9}
  9
$VERSIONGUID
  2
{AADA9D3D-EE14-44EA-886B-851DE33D3CBD}
  9
$EXTNAMES
290
     1
  9
$PSVPSCALE
 40
0.0
  9
$OLESTARTUP
290
     0
  0
ENDSEC
  0
SECTION
  2
CLASSES
  0
CLASS
  1
DICTIONARYVAR
  2
AcDbDictionaryVar
  3
AutoCAD 2000
 90
        0
280
     0
281
     0
  0
CLASS
  1
LWPOLYLINE
  2
AcDbPolyline
  3
AutoCAD 2000
 90
        0
280
     0
281
     1
  0
CLASS
  1
ACDBDICTIONARYWDFLT
  2
AcDbDictionaryWithDefault
  3
AutoCAD 2000
 90
        0
280
     0
281
     0
  0
CLASS
  1
ACDBPLACEHOLDER
  2
AcDbPlaceHolder
  3
ObjectDBX Classes
 90
        0
280
     0
281
     0
  0
CLASS
  1
LAYOUT
  2
AcDbLayout
  3
ObjectDBX Classes
 90
        0
280
     0
281
     0
  0
CLASS
  1
LONG_TRANSACTION
  2
AcDbLongTransaction
  3
ObjectDBX Classes
 90
   -65536
280
     1
281
     0
  0
CLASS
  1
LWPOLYLINE
  2
AcDbPolyline
  3
AutoCAD 2000
 90
        0
280
     0
281
     1
  0
CLASS
  1
HATCH
  2
AcDbHatch
  3
AutoCAD 2000
 90
        0
280
     0
281
     1
  0
CLASS
  1
XRECORD
  2
AcDbXrecord
  3
AutoCAD 2000
 90
        0
280
     0
281
     0
  0
CLASS
  1
LONG_TRANSACTION
  2
AcDbLongTransaction
  3
ObjectDBX Classes
 90
   -65536
280
     1
281
     0
  0
CLASS
  1
LWPOLYLINE
  2
AcDbPolyline
  3
AutoCAD 2000
 90
        0
280
     0
281
     1
  0
CLASS
  1
HATCH
  2
AcDbHatch
  3
AutoCAD 2000
 90
        0
280
     0
281
     1
  0
CLASS
  1
XRECORD
  2
AcDbXrecord
  3
AutoCAD 2000
 90
        0
280
     0
281
     0
  0
CLASS
  1
LONG_TRANSACTION
  2
AcDbLongTransaction
  3
ObjectDBX Classes
 90
   -65536
280
     1
281
     0
  0
CLASS
  1
LWPOLYLINE
  2
AcDbPolyline
  3
AutoCAD 2000
 90
        0
280
     0
281
     1
  0
CLASS
  1
HATCH
  2
AcDbHatch
  3
AutoCAD 2000
 90
        0
280
     0
281
     1
  0
CLASS
  1
XRECORD
  2
AcDbXrecord
  3
AutoCAD 2000
 90
        0
280
     0
281
     0
  0
CLASS
  1
LONG_TRANSACTION
  2
AcDbLongTransaction
  3
ObjectDBX Classes
 90
   -65536
280
     1
281
     0
  0
CLASS
  1
LWPOLYLINE
  2
AcDbPolyline
  3
AutoCAD 2000
 90
        0
280
     0
281
     1
  0
CLASS
  1
HATCH
  2
AcDbHatch
  3
AutoCAD 2000
 90
        0
280
     0
281
     1
  0
CLASS
  1
XRECORD
  2
AcDbXrecord
  3
AutoCAD 2000
 90
        0
280
     0
281
     0
  0
CLASS
  1
LONG_TRANSACTION
  2
AcDbLongTransaction
  3
ObjectDBX Classes
 90
   -65536
280
     1
281
     0
  0
CLASS
  1
LWPOLYLINE
  2
AcDbPolyline
  3
AutoCAD 2000
 90
        0
280
     0
281
     1
  0
CLASS
  1
HATCH
  2
AcDbHatch
  3
AutoCAD 2000
 90
        0
280
     0
281
     1
  0
CLASS
  1
XRECORD
  2
AcDbXrecord
  3
AutoCAD 2000
 90
        0
280
     0
281
     0
  0
CLASS
  1
LONG_TRANSACTION
  2
AcDbLongTransaction
  3
ObjectDBX Classes
 90
   -65536
280
     1
281
     0
  0
CLASS
  1
LWPOLYLINE
  2
AcDbPolyline
  3
AutoCAD 2000
 90
        0
280
     0
281
     1
  0
CLASS
  1
HATCH
  2
AcDbHatch
  3
AutoCAD 2000
 90
        0
280
     0
281
     1
  0
CLASS
  1
XRECORD
  2
AcDbXrecord
  3
AutoCAD 2000
 90
        0
280
     0
281
     0
  0
CLASS
  1
LONG_TRANSACTION
  2
AcDbLongTransaction
  3
ObjectDBX Classes
 90
   -65536
280
     1
281
     0
  0
CLASS
  1
LWPOLYLINE
  2
AcDbPolyline
  3
AutoCAD 2000
 90
        0
280
     0
281
     1
  0
CLASS
  1
HATCH
  2
AcDbHatch
  3
AutoCAD 2000
 90
        0
280
     0
281
     1
  0
CLASS
  1
XRECORD
  2
AcDbXrecord
  3
AutoCAD 2000
 90
        0
280
     0
281
     0
  0
CLASS
  1
LONG_TRANSACTION
  2
AcDbLongTransaction
  3
ObjectDBX Classes
 90
   -65536
280
     1
281
     0
  0
CLASS
  1
LWPOLYLINE
  2
AcDbPolyline
  3
AutoCAD 2000
 90
        0
280
     0
281
     1
  0
CLASS
  1
HATCH
  2
AcDbHatch
  3
AutoCAD 2000
 90
        0
280
     0
281
     1
  0
CLASS
  1
XRECORD
  2
AcDbXrecord
  3
AutoCAD 2000
 90
        0
280
     0
281
     0
  0
CLASS
  1
LONG_TRANSACTION
  2
AcDbLongTransaction
  3
ObjectDBX Classes
 90
   -65536
280
     1
281
     0
  0
CLASS
  1
LWPOLYLINE
  2
AcDbPolyline
  3
AutoCAD 2000
 90
        0
280
     0
281
     1
  0
CLASS
  1
HATCH
  2
AcDbHatch
  3
AutoCAD 2000
 90
        0
280
     0
281
     1
  0
CLASS
  1
XRECORD
  2
AcDbXrecord
  3
AutoCAD 2000
 90
        0
280
     0
281
     0
  0
CLASS
  1
LONG_TRANSACTION
  2
AcDbLongTransaction
  3
ObjectDBX Classes
 90
   -65536
280
     1
281
     0
  0
CLASS
  1
LWPOLYLINE
  2
AcDbPolyline
  3
AutoCAD 2000
 90
        0
280
     0
281
     1
  0
CLASS
  1
HATCH
  2
AcDbHatch
  3
AutoCAD 2000
 90
        0
280
     0
281
     1
  0
CLASS
  1
XRECORD
  2
AcDbXrecord
  3
AutoCAD 2000
 90
        0
280
     0
281
     0
  0
CLASS
  1
LONG_TRANSACTION
  2
AcDbLongTransaction
  3
ObjectDBX Classes
 90
   -65536
280
     1
281
     0
  0
CLASS
  1
LWPOLYLINE
  2
AcDbPolyline
  3
AutoCAD 2000
 90
        0
280
     0
281
     1
  0
CLASS
  1
HATCH
  2
AcDbHatch
  3
AutoCAD 2000
 90
        0
280
     0
281
     1
  0
CLASS
  1
XRECORD
  2
AcDbXrecord
  3
AutoCAD 2000
 90
        0
280
     0
281
     0
  0
CLASS
  1
LONG_TRANSACTION
  2
AcDbLongTransaction
  3
ObjectDBX Classes
 90
   -65536
280
     1
281
     0
  0
CLASS
  1
LWPOLYLINE
  2
AcDbPolyline
  3
AutoCAD 2000
 90
        0
280
     0
281
     1
  0
CLASS
  1
HATCH
  2
AcDbHatch
  3
AutoCAD 2000
 90
        0
280
     0
281
     1
  0
CLASS
  1
XRECORD
  2
AcDbXrecord
  3
AutoCAD 2000
 90
        0
280
     0
281
     0
  0
CLASS
  1
LONG_TRANSACTION
  2
AcDbLongTransaction
  3
ObjectDBX Classes
 90
   -65536
280
     1
281
     0
  0
CLASS
  1
LWPOLYLINE
  2
AcDbPolyline
  3
AutoCAD 2000
 90
        0
280
     0
281
     1
  0
CLASS
  1
HATCH
  2
AcDbHatch
  3
AutoCAD 2000
 90
        0
280
     0
281
     1
  0
CLASS
  1
XRECORD
  2
AcDbXrecord
  3
AutoCAD 2000
 90
        0
280
     0
281
     0
  0
CLASS
  1
LONG_TRANSACTION
  2
AcDbLongTransaction
  3
ObjectDBX Classes
 90
   -65536
280
     1
281
     0
  0
CLASS
  1
LWPOLYLINE
  2
AcDbPolyline
  3
AutoCAD 2000
 90
        0
280
     0
281
     1
  0
CLASS
  1
HATCH
  2
AcDbHatch
  3
AutoCAD 2000
 90
        0
280
     0
281
     1
  0
CLASS
  1
XRECORD
  2
AcDbXrecord
  3
AutoCAD 2000
 90
        0
280
     0
281
     0
  0
CLASS
  1
LONG_TRANSACTION
  2
AcDbLongTransaction
  3
ObjectDBX Classes
 90
   -65536
280
     1
281
     0
  0
CLASS
  1
LWPOLYLINE
  2
AcDbPolyline
  3
AutoCAD 2000
 90
        0
280
     0
281
     1
  0
CLASS
  1
HATCH
  2
AcDbHatch
  3
AutoCAD 2000
 90
        0
280
     0
281
     1
  0
CLASS
  1
XRECORD
  2
AcDbXrecord
  3
AutoCAD 2000
 90
        0
280
     0
281
     0
  0
CLASS
  1
LONG_TRANSACTION
  2
AcDbLongTransaction
  3
ObjectDBX Classes
 90
   -65536
280
     1
281
     0
  0
CLASS
  1
LWPOLYLINE
  2
AcDbPolyline
  3
AutoCAD 2000
 90
        0
280
     0
281
     1
  0
CLASS
  1
HATCH
  2
AcDbHatch
  3
AutoCAD 2000
 90
        0
280
     0
281
     1
  0
CLASS
  1
XRECORD
  2
AcDbXrecord
  3
AutoCAD 2000
 90
        0
280
     0
281
     0
  0
CLASS
  1
LONG_TRANSACTION
  2
AcDbLongTransaction
  3
ObjectDBX Classes
 90
   -65536
280
     1
281
     0
  0
CLASS
  1
LWPOLYLINE
  2
AcDbPolyline
  3
AutoCAD 2000
 90
        0
280
     0
281
     1
  0
CLASS
  1
HATCH
  2
AcDbHatch
  3
AutoCAD 2000
 90
        0
280
     0
281
     1
  0
CLASS
  1
XRECORD
  2
AcDbXrecord
  3
AutoCAD 2000
 90
        0
280
     0
281
     0
  0
CLASS
  1
LONG_TRANSACTION
  2
AcDbLongTransaction
  3
ObjectDBX Classes
 90
   -65536
280
     1
281
     0
  0
CLASS
  1
LWPOLYLINE
  2
AcDbPolyline
  3
AutoCAD 2000
 90
        0
280
     0
281
     1
  0
CLASS
  1
HATCH
  2
AcDbHatch
  3
AutoCAD 2000
 90
        0
280
     0
281
     1
  0
CLASS
  1
XRECORD
  2
AcDbXrecord
  3
AutoCAD 2000
 90
        0
280
     0
281
     0
  0
CLASS
  1
LONG_TRANSACTION
  2
AcDbLongTransaction
  3
ObjectDBX Classes
 90
   -65536
280
     1
281
     0
  0
CLASS
  1
LWPOLYLINE
  2
AcDbPolyline
  3
AutoCAD 2000
 90
        0
280
     0
281
     1
  0
CLASS
  1
HATCH
  2
AcDbHatch
  3
AutoCAD 2000
 90
        0
280
     0
281
     1
  0
CLASS
  1
XRECORD
  2
AcDbXrecord
  3
AutoCAD 2000
 90
        0
280
     0
281
     0
  0
CLASS
  1
LONG_TRANSACTION
  2
AcDbLongTransaction
  3
ObjectDBX Classes
 90
   -65536
280
     1
281
     0
  0
CLASS
  1
LWPOLYLINE
  2
AcDbPolyline
  3
AutoCAD 2000
 90
        0
280
     0
281
     1
  0
CLASS
  1
HATCH
  2
AcDbHatch
  3
AutoCAD 2000
 90
        0
280
     0
281
     1
  0
CLASS
  1
XRECORD
  2
AcDbXrecord
  3
AutoCAD 2000
 90
        0
280
     0
281
     0
  0
CLASS
  1
TABLESTYLE
  2
AcDbTableStyle
  3
ObjectDBX Classes
 90
     2047
280
     1
281
     0
  0
ENDSEC
  0
SECTION
  2
TABLES
  0
TABLE
  2
VPORT
  5
1D
330
0
100
AcDbSymbolTable
 70
     4
  0
VPORT
  5
370
330
1D
100
AcDbSymbolTableRecord
100
AcDbViewportTableRecord
  2
*Active
 70
     0
 10
0.0
 20
0.0
 11
1.0
 21
1.0
 12
20.34028061826996
 22
9.009856451720317
 13
0.0
 23
0.0
 14
0.063
 24
0.063
 15
0.25
 25
0.25
 16
0.0
 26
0.0
 36
1.0
 17
0.0
 27
0.0
 37
0.0
 40
36.39496955639423
 41
1.814583333333334
 42
50.0
 43
0.0
 44
0.0
 50
0.0
 51
0.0
 71
     0
 72
   100
 73
     1
 74
     3
 75
     0
 76
     0
 77
     0
 78
     0
281
     0
 65
     1
110
0.0
120
0.0
130
0.0
111
1.0
121
0.0
131
0.0
112
0.0
122
1.0
132
0.0
 79
     0
146
0.0
  0
ENDTAB
  0
TABLE
  2
LTYPE
  5
18
330
0
100
AcDbSymbolTable
 70
     2
  0
LTYPE
  5
19
330
18
100
AcDbSymbolTableRecord
100
AcDbLinetypeTableRecord
  2
BYBLOCK
 70
     0
  3

 72
    65
 73
     0
 40
0.0
  0
LTYPE
  5
1A
330
18
100
AcDbSymbolTableRecord
100
AcDbLinetypeTableRecord
  2
BYLAYER
 70
     0
  3

 72
    65
 73
     0
 40
0.0
  0
LTYPE
  5
A
330
18
100
AcDbSymbolTableRecord
100
AcDbLinetypeTableRecord
  2
CONTINUOUS
 70
     0
  3
Solid line
 72
    65
 73
     0
 40
0.0
  0
LTYPE
  5
35F
330
18
100
AcDbSymbolTableRecord
100
AcDbLinetypeTableRecord
  2
HIDDEN
 70
     0
  3
Hidden __ __ __ __ __ __ __ __ __ __ __ __ __ _
 72
    65
 73
     2
 40
0.375
 49
0.25
 74
     0
 49
-0.125
 74
     0
  0
ENDTAB
  0
TABLE
  2
LAYER
  5
14
330
0
100
AcDbSymbolTable
 70
     1
  0
LAYER
  5
6
330
14
100
AcDbSymbolTableRecord
100
AcDbLayerTableRecord
  2
0
 70
     0
 62
     7
  6
CONTINUOUS
370
    -3
390
7
  0
ENDTAB
  0
TABLE
  2
STYLE
  5
15
330
0
100
AcDbSymbolTable
 70
     2
  0
STYLE
  5
16
330
15
100
AcDbSymbolTableRecord
100
AcDbTextStyleTableRecord
  2
STANDARD
 70
     0
 40
0.0
 41
1.0
 50
0.0
 71
     0
 42
0.36
  3
TXT
  4

  0
STYLE
  5
35E
330
15
100
AcDbSymbolTableRecord
100
AcDbTextStyleTableRecord
  2

 70
     1
 40
0.0
 41
1.0
 50
0.0
 71
     0
 42
0.36
  3
ltypeshp.shx
  4

  0
ENDTAB
  0
TABLE
  2
VIEW
  5
1B
330
0
100
AcDbSymbolTable
 70
     0
  0
ENDTAB
  0
TABLE
  2
UCS
  5
1C
330
0
100
AcDbSymbolTable
 70
     0
  0
ENDTAB
  0
TABLE
  2
APPID
  5
1F
330
0
100
AcDbSymbolTable
 70
     1
  0
APPID
  5
20
330
1F
100
AcDbSymbolTableRecord
100
AcDbRegAppTableRecord
  2
ACAD
 70
     0
  0
ENDTAB
  0
TABLE
  2
DIMSTYLE
  5
21
330
0
100
AcDbSymbolTable
 70
     1
100
AcDbDimStyleTable
  0
DIMSTYLE
105
28
330
21
100
AcDbSymbolTableRecord
100
AcDbDimStyleTableRecord
  2
STANDARD
 70
     0
  3

  4

340
16
  0
ENDTAB
  0
TABLE
  2
BLOCK_RECORD
  5
1
330
0
100
AcDbSymbolTable
 70
     0
  0
BLOCK_RECORD
  5
2
330
1
100
AcDbSymbolTableRecord
100
AcDbBlockTableRecord
  2
*MODEL_SPACE
340
C
  0
BLOCK_RECORD
  5
E
330
1
100
AcDbSymbolTableRecord
100
AcDbBlockTableRecord
  2
*PAPER_SPACE
340
13
  0
ENDTAB
  0
ENDSEC
  0
SECTION
  2
BLOCKS
  0
BLOCK
  5
5
330
2
100
AcDbEntity
  8
0
100
AcDbBlockBegin
  2
*MODEL_SPACE
 70
     0
 10
0.0
 20
0.0
 30
0.0
  3
*MODEL_SPACE
  1

  4

  0
ENDBLK
  5
B
330
2
100
AcDbEntity
  8
0
100
AcDbBlockEnd
  0
BLOCK
  5
11
330
E
100
AcDbEntity
 67
     1
  8
0
100
AcDbBlockBegin
  2
*PAPER_SPACE
 70
     0
 10
0.0
 20
0.0
 30
0.0
  3
*PAPER_SPACE
  1

  4

  0
ENDBLK
  5
12
330
E
100
AcDbEntity
 67
     1
  8
0
100
AcDbBlockEnd
  0
ENDSEC
  0
SECTION
  2
ENTITIES
  0
LINE
  5
1B5
330
2
100
AcDbEntity
  8
0
  6
Continuous
100
AcDbLine
 10
5.908610752715223
 20
5.849300461042436
 30
0.0
 11
5.908610752715223
 21
5.224300461042319
 31
0.0
  0
LINE
  5
1B6
330
2
100
AcDbEntity
  8
0
100
AcDbLine
 10
4.221110752715251
 20
0.1250000000000124
 30
0.0
 11
4.221110752715248
 21
9.156249999999996
 31
0.0
  0
LINE
  5
1B7
330
2
100
AcDbEntity
  8
0
100
AcDbLine
 10
4.283610752715251
 20
0.1250000000000053
 30
0.0
 11
4.283610752715244
 21
9.156249999999996
 31
0.0
  0
LINE
  5
1B8
330
2
100
AcDbEntity
  8
0
  6
Continuous
100
AcDbLine
 10
-0.7788892472847202
 20
5.849300461042432
 30
0.0
 11
-0.7788892472847202
 21
5.224300461042319
 31
0.0
  0
LINE
  5
1B9
330
2
100
AcDbEntity
  8
0
100
AcDbLine
 10
0.9086107527152514
 20
0.1250000000000107
 30
0.0
 11
0.9086107527152478
 21
9.156249999999993
 31
0.0
  0
LINE
  5
1BA
330
2
100
AcDbEntity
  8
0
100
AcDbLine
 10
0.8461107527152514
 20
0.1250000000000036
 30
0.0
 11
0.8461107527152443
 21
9.156249999999989
 31
0.0
  0
ARC
  5
1BB
330
2
100
AcDbEntity
  8
0
100
AcDbCircle
 10
4.158610752715251
 20
0.1250000000000124
 30
0.0
 40
0.0625
100
AcDbArc
 50
270.0000000000002
 51
0.000000000000007
  0
ARC
  5
1BC
330
2
100
AcDbEntity
  8
0
100
AcDbCircle
 10
4.158610752715251
 20
0.1250000000000053
 30
0.0
 40
0.125
100
AcDbArc
 50
270.0000000000001
 51
0.000000000000007
  0
LINE
  5
1BD
330
2
100
AcDbEntity
  8
0
100
AcDbLine
 10
4.158610752715251
 20
0.0000000000000053
 30
0.0
 11
0.9711107527152514
 21
0.0000000000000036
 31
0.0
  0
LINE
  5
1BE
330
2
100
AcDbEntity
  8
0
100
AcDbLine
 10
4.158610752715251
 20
0.0625000000000124
 30
0.0
 11
0.9711107527152514
 21
0.0625000000000107
 31
0.0
  0
ARC
  5
1BF
330
2
100
AcDbEntity
  8
0
100
AcDbCircle
 10
0.9711107527152514
 20
0.1250000000000036
 30
0.0
 40
0.125
100
AcDbArc
 50
180.0
 51
269.9999999999999
  0
ARC
  5
1C0
330
2
100
AcDbEntity
  8
0
100
AcDbCircle
 10
0.9711107527152514
 20
0.1250000000000107
 30
0.0
 40
0.0625
100
AcDbArc
 50
180.0
 51
269.9999999999998
  0
ARC
  5
1C1
330
2
100
AcDbEntity
  8
0
  6
Continuous
100
AcDbCircle
 10
0.5336107527152585
 20
2.07448489359639
 30
0.0
 40
1.0
100
AcDbArc
 50
179.9999999999976
 51
224.9999999999991
  0
LINE
  5
1C2
330
2
100
AcDbEntity
  8
0
  6
Continuous
100
AcDbLine
 10
-0.4663892472846847
 20
3.224300461042303
 30
0.0
 11
-0.4663892472847273
 21
2.074484893596427
 31
0.0
  0
CIRCLE
  5
1C3
330
2
100
AcDbEntity
  8
0
  6
Continuous
100
AcDbCircle
 10
-0.4976392472847415
 20
3.937499999999934
 30
0.0
 40
0.0855
  0
LINE
  5
1C4
330
2
100
AcDbEntity
  8
0
  6
Continuous
100
AcDbLine
 10
-0.7788892472846918
 20
4.099300461042317
 30
0.0
 11
-0.7788892472847202
 21
3.474300461042331
 31
0.0
  0
ARC
  5
1C5
330
2
100
AcDbEntity
  8
0
  6
Continuous
100
AcDbCircle
 10
-0.653889247284706
 20
3.474300461042338
 30
0.0
 40
0.1250000000000142
100
AcDbArc
 50
180.0
 51
270.0000000000065
  0
ARC
  5
1C6
330
2
100
AcDbEntity
  8
0
  6
Continuous
100
AcDbCircle
 10
-0.5913892472846989
 20
3.22430046104231
 30
0.0
 40
0.1250000000000142
100
AcDbArc
 50
0.000000000000007
 51
90.00000000000976
  0
LINE
  5
1C7
330
2
100
AcDbEntity
  8
0
  6
Continuous
100
AcDbLine
 10
-0.6538892472846918
 20
3.349300461042317
 30
0.0
 11
-0.5913892472847202
 21
3.349300461042317
 31
0.0
  0
LINE
  5
1C8
330
2
100
AcDbEntity
  8
0
  6
Continuous
100
AcDbLine
 10
-0.4663892472846918
 20
4.974300461042319
 30
0.0
 11
-0.4663892472847202
 21
4.349300461042317
 31
0.0
  0
LINE
  5
1C9
330
2
100
AcDbEntity
  8
0
  6
Continuous
100
AcDbLine
 10
-0.5913892472846918
 20
4.224300461042317
 30
0.0
 11
-0.6538892472847202
 21
4.224300461042317
 31
0.0
  0
ARC
  5
1CA
330
2
100
AcDbEntity
  8
0
  6
Continuous
100
AcDbCircle
 10
-0.591389247284706
 20
4.34930046104231
 30
0.0
 40
0.1249999999999858
100
AcDbArc
 50
270.0000000000065
 51
0.0000000000064699
  0
ARC
  5
1CB
330
2
100
AcDbEntity
  8
0
  6
Continuous
100
AcDbCircle
 10
-0.653889247284706
 20
4.099300461042338
 30
0.0
 40
0.1249999999999858
100
AcDbArc
 50
90.00000000000649
 51
180.0000000000066
  0
LINE
  5
1CC
330
2
100
AcDbEntity
  8
0
  6
Continuous
100
AcDbLine
 10
-0.6538892472846918
 20
5.099300461042319
 30
0.0
 11
-0.5913892472847202
 21
5.099300461042319
 31
0.0
  0
ARC
  5
1CD
330
2
100
AcDbEntity
  8
0
  6
Continuous
100
AcDbCircle
 10
-0.591389247284706
 20
4.974300461042311
 30
0.0
 40
0.1250000000000142
100
AcDbArc
 50
0.0000000000064699
 51
90.00000000000649
  0
ARC
  5
1CE
330
2
100
AcDbEntity
  8
0
  6
Continuous
100
AcDbCircle
 10
-0.653889247284706
 20
5.22430046104234
 30
0.0
 40
0.1250000000000142
100
AcDbArc
 50
180.0000000000066
 51
270.0000000000065
  0
ARC
  5
1CF
330
2
100
AcDbEntity
  8
0
  6
Continuous
100
AcDbCircle
 10
0.9086107527152656
 20
2.641624999999854
 30
0.0
 40
0.1875
100
AcDbArc
 50
109.4712206344954
 51
250.5287793655046
  0
LINE
  5
1D0
330
2
100
AcDbEntity
  8
0
  6
Continuous
100
AcDbLine
 10
-0.1734960284712983
 20
1.367378112409853
 30
0.0
 11
0.8461107527152549
 21
0.2817093948484022
 31
0.0
  0
CIRCLE
  5
1D1
330
2
100
AcDbEntity
  8
0
  6
Continuous
100
AcDbCircle
 10
0.4086107527152656
 20
1.141624999999854
 30
0.0
 40
0.0855
  0
CIRCLE
  5
1D2
330
2
100
AcDbEntity
  8
0
  6
Continuous
100
AcDbCircle
 10
0.4086107527152656
 20
2.141624999999854
 30
0.0
 40
0.0855
  0
CIRCLE
  5
1D3
330
2
100
AcDbEntity
  8
0
  6
Continuous
100
AcDbCircle
 10
-0.0601392472847344
 20
1.641624999999854
 30
0.0
 40
0.0855
  0
CIRCLE
  5
1D4
330
2
100
AcDbEntity
  8
0
  6
Continuous
100
AcDbCircle
 10
-0.0601392472847344
 20
2.641624999999854
 30
0.0
 40
0.0855
  0
ARC
  5
1D5
330
2
100
AcDbEntity
  8
0
  6
Continuous
100
AcDbCircle
 10
0.6964997914257332
 20
3.415416796182173
 30
0.0
 40
0.06
100
AcDbArc
 50
121.631166275524
 51
238.368833724476
  0
LINE
  5
1D6
330
2
100
AcDbEntity
  8
0
  6
Continuous
100
AcDbLine
 10
0.8239997914257486
 20
3.266413932653292
 30
0.0
 11
0.6650328436974355
 21
3.364330289150823
 31
0.0
  0
CIRCLE
  5
1D7
330
2
100
AcDbEntity
  8
0
  6
Continuous
100
AcDbCircle
 10
0.4086107527152656
 20
3.141624999999854
 30
0.0
 40
0.0855
  0
CIRCLE
  5
1D8
330
2
100
AcDbEntity
  8
0
  6
Continuous
100
AcDbCircle
 10
-0.0601392472847344
 20
3.641624999999854
 30
0.0
 40
0.0855
  0
LINE
  5
1D9
330
2
100
AcDbEntity
  8
0
  6
Continuous
100
AcDbLine
 10
0.8239997914257486
 20
3.564419659711041
 30
0.0
 11
0.6650328436974355
 21
3.466503303213523
 31
0.0
  0
CIRCLE
  5
1DA
330
2
100
AcDbEntity
  8
0
  6
Continuous
100
AcDbCircle
 10
-0.0601392472847344
 20
4.641624999999856
 30
0.0
 40
0.0855
  0
CIRCLE
  5
1DB
330
2
100
AcDbEntity
  8
0
  6
Continuous
100
AcDbCircle
 10
0.4086107527152656
 20
4.140624999999877
 30
0.0
 40
0.0855
  0
CIRCLE
  5
1DC
330
2
100
AcDbEntity
  8
0
  6
Continuous
100
AcDbCircle
 10
0.4086107527152656
 20
5.140624999999879
 30
0.0
 40
0.0855
  0
ARC
  5
1DD
330
2
100
AcDbEntity
  8
0
  6
Continuous
100
AcDbCircle
 10
0.6964997914257332
 20
4.915416796182175
 30
0.0
 40
0.06
100
AcDbArc
 50
121.631166275524
 51
238.368833724476
  0
LINE
  5
1DE
330
2
100
AcDbEntity
  8
0
  6
Continuous
100
AcDbLine
 10
0.8239997914257486
 20
4.76641393265329
 30
0.0
 11
0.6650328436974355
 21
4.864330289150825
 31
0.0
  0
LINE
  5
1DF
330
2
100
AcDbEntity
  8
0
  6
Continuous
100
AcDbLine
 10
0.8239997914257486
 20
5.064419659711039
 30
0.0
 11
0.6650328436974355
 21
4.966503303213525
 31
0.0
  0
ARC
  5
1E0
330
2
100
AcDbEntity
  8
0
  6
Continuous
100
AcDbCircle
 10
4.221110752715237
 20
2.641624999999856
 30
0.0
 40
0.1875
100
AcDbArc
 50
289.4712206344954
 51
70.52877936550463
  0
LINE
  5
1E1
330
2
100
AcDbEntity
  8
0
  6
Continuous
100
AcDbLine
 10
5.596110752715187
 20
3.224300461042304
 30
0.0
 11
5.59611075271523
 21
2.074484893596431
 31
0.0
  0
ARC
  5
1E2
330
2
100
AcDbEntity
  8
0
  6
Continuous
100
AcDbCircle
 10
4.596110752715244
 20
2.074484893596393
 30
0.0
 40
1.0
100
AcDbArc
 50
315.0000000000009
 51
0.0000000000024497
  0
LINE
  5
1E3
330
2
100
AcDbEntity
  8
0
  6
Continuous
100
AcDbLine
 10
5.303217533901805
 20
1.367378112409856
 30
0.0
 11
4.283610752715248
 21
0.2817093948484057
 31
0.0
  0
CIRCLE
  5
1E4
330
2
100
AcDbEntity
  8
0
  6
Continuous
100
AcDbCircle
 10
4.721110752715237
 20
1.141624999999856
 30
0.0
 40
0.0855
  0
CIRCLE
  5
1E5
330
2
100
AcDbEntity
  8
0
  6
Continuous
100
AcDbCircle
 10
4.721110752715237
 20
2.141624999999856
 30
0.0
 40
0.0855
  0
CIRCLE
  5
1E6
330
2
100
AcDbEntity
  8
0
  6
Continuous
100
AcDbCircle
 10
5.189860752715237
 20
1.641624999999856
 30
0.0
 40
0.0855
  0
CIRCLE
  5
1E7
330
2
100
AcDbEntity
  8
0
  6
Continuous
100
AcDbCircle
 10
5.189860752715237
 20
2.641624999999856
 30
0.0
 40
0.0855
  0
CIRCLE
  5
1E8
330
2
100
AcDbEntity
  8
0
  6
Continuous
100
AcDbCircle
 10
5.627360752715244
 20
3.937499999999936
 30
0.0
 40
0.0855
  0
LINE
  5
1E9
330
2
100
AcDbEntity
  8
0
  6
Continuous
100
AcDbLine
 10
5.908610752715195
 20
4.099300461042319
 30
0.0
 11
5.908610752715223
 21
3.474300461042333
 31
0.0
  0
ARC
  5
1EA
330
2
100
AcDbEntity
  8
0
  6
Continuous
100
AcDbCircle
 10
4.388999791425771
 20
3.415416796182175
 30
0.0
 40
0.06
100
AcDbArc
 50
301.631166275524
 51
58.36883372447599
  0
CIRCLE
  5
1EB
330
2
100
AcDbEntity
  8
0
  6
Continuous
100
AcDbCircle
 10
4.721110752715237
 20
3.141624999999856
 30
0.0
 40
0.0855
  0
LINE
  5
1EC
330
2
100
AcDbEntity
  8
0
  6
Continuous
100
AcDbLine
 10
4.261499791425756
 20
3.266413932653293
 30
0.0
 11
4.420466739154069
 21
3.364330289150825
 31
0.0
  0
LINE
  5
1ED
330
2
100
AcDbEntity
  8
0
  6
Continuous
100
AcDbLine
 10
4.261499791425756
 20
3.564419659711042
 30
0.0
 11
4.420466739154069
 21
3.466503303213525
 31
0.0
  0
CIRCLE
  5
1EE
330
2
100
AcDbEntity
  8
0
  6
Continuous
100
AcDbCircle
 10
5.189860752715237
 20
3.641624999999856
 30
0.0
 40
0.0855
  0
ARC
  5
1EF
330
2
100
AcDbEntity
  8
0
  6
Continuous
100
AcDbCircle
 10
5.783610752715209
 20
3.47430046104234
 30
0.0
 40
0.1250000000000142
100
AcDbArc
 50
269.9999999999935
 51
0.000000000000007
  0
LINE
  5
1F0
330
2
100
AcDbEntity
  8
0
  6
Continuous
100
AcDbLine
 10
5.783610752715195
 20
3.349300461042319
 30
0.0
 11
5.721110752715223
 21
3.349300461042319
 31
0.0
  0
ARC
  5
1F1
330
2
100
AcDbEntity
  8
0
  6
Continuous
100
AcDbCircle
 10
5.721110752715202
 20
3.224300461042311
 30
0.0
 40
0.1250000000000142
100
AcDbArc
 50
89.99999999999025
 51
180.0
  0
CIRCLE
  5
1F2
330
2
100
AcDbEntity
  8
0
  6
Continuous
100
AcDbCircle
 10
5.189860752715237
 20
4.641624999999856
 30
0.0
 40
0.0855
  0
CIRCLE
  5
1F3
330
2
100
AcDbEntity
  8
0
  6
Continuous
100
AcDbCircle
 10
4.721110752715237
 20
4.140624999999879
 30
0.0
 40
0.0855
  0
CIRCLE
  5
1F4
330
2
100
AcDbEntity
  8
0
  6
Continuous
100
AcDbCircle
 10
4.721110752715237
 20
5.140624999999879
 30
0.0
 40
0.0855
  0
ARC
  5
1F5
330
2
100
AcDbEntity
  8
0
  6
Continuous
100
AcDbCircle
 10
4.388999791425771
 20
4.915416796182175
 30
0.0
 40
0.06
100
AcDbArc
 50
301.631166275524
 51
58.36883372447599
  0
LINE
  5
1F6
330
2
100
AcDbEntity
  8
0
  6
Continuous
100
AcDbLine
 10
4.261499791425756
 20
5.064419659711042
 30
0.0
 11
4.420466739154069
 21
4.966503303213525
 31
0.0
  0
LINE
  5
1F7
330
2
100
AcDbEntity
  8
0
  6
Continuous
100
AcDbLine
 10
4.261499791425756
 20
4.766413932653293
 30
0.0
 11
4.420466739154069
 21
4.864330289150825
 31
0.0
  0
LINE
  5
1F8
330
2
100
AcDbEntity
  8
0
  6
Continuous
100
AcDbLine
 10
5.596110752715195
 20
4.974300461042319
 30
0.0
 11
5.596110752715223
 21
4.349300461042319
 31
0.0
  0
ARC
  5
1F9
330
2
100
AcDbEntity
  8
0
  6
Continuous
100
AcDbCircle
 10
5.783610752715209
 20
4.09930046104234
 30
0.0
 40
0.1249999999999858
100
AcDbArc
 50
359.9999999999934
 51
89.99999999999351
  0
LINE
  5
1FA
330
2
100
AcDbEntity
  8
0
  6
Continuous
100
AcDbLine
 10
5.721110752715195
 20
4.224300461042319
 30
0.0
 11
5.783610752715223
 21
4.224300461042319
 31
0.0
  0
ARC
  5
1FB
330
2
100
AcDbEntity
  8
0
  6
Continuous
100
AcDbCircle
 10
5.721110752715209
 20
4.349300461042311
 30
0.0
 40
0.1249999999999858
100
AcDbArc
 50
179.9999999999936
 51
269.9999999999935
  0
ARC
  5
1FC
330
2
100
AcDbEntity
  8
0
  6
Continuous
100
AcDbCircle
 10
5.783610752715209
 20
5.22430046104234
 30
0.0
 40
0.1250000000000142
100
AcDbArc
 50
269.9999999999935
 51
359.9999999999934
  0
LINE
  5
1FD
330
2
100
AcDbEntity
  8
0
  6
Continuous
100
AcDbLine
 10
5.783610752715195
 20
5.099300461042319
 30
0.0
 11
5.721110752715223
 21
5.099300461042319
 31
0.0
  0
ARC
  5
1FE
330
2
100
AcDbEntity
  8
0
  6
Continuous
100
AcDbCircle
 10
5.721110752715209
 20
4.974300461042311
 30
0.0
 40
0.1250000000000142
100
AcDbArc
 50
89.99999999999351
 51
179.9999999999936
  0
LINE
  5
1FF
330
2
100
AcDbEntity
  8
0
  6
Continuous
100
AcDbLine
 10
-0.7788892472847557
 20
9.156249999999986
 30
0.0
 11
0.9086107527152372
 21
9.156249999999993
 31
0.0
  0
LINE
  5
200
330
2
100
AcDbEntity
  8
0
100
AcDbLine
 10
-0.7788892472847167
 20
7.849300461042375
 30
0.0
 11
-0.7788892472847486
 21
6.97430046104239
 31
0.0
  0
CIRCLE
  5
201
330
2
100
AcDbEntity
  8
0
  6
Continuous
100
AcDbCircle
 10
-0.497639247284738
 20
7.687499999999986
 30
0.0
 40
0.0855
  0
LINE
  5
202
330
2
100
AcDbEntity
  8
0
100
AcDbLine
 10
-0.4663892472847273
 20
6.724300461042361
 30
0.0
 11
-0.4663892472847486
 21
6.099300461042375
 31
0.0
  0
ARC
  5
203
330
2
100
AcDbEntity
  8
0
100
AcDbCircle
 10
-0.6538892472847628
 20
5.849300461042418
 30
0.0
 40
0.1249999999999574
100
AcDbArc
 50
89.99999999999351
 51
179.9999999999935
  0
CIRCLE
  5
204
330
2
100
AcDbEntity
  8
0
100
AcDbCircle
 10
-0.4976392472847415
 20
5.687499999999872
 30
0.0
 40
0.0855
  0
ARC
  5
205
330
2
100
AcDbEntity
  8
0
100
AcDbCircle
 10
-0.591389247284706
 20
6.09930046104239
 30
0.0
 40
0.1249999999999574
100
AcDbArc
 50
269.9999999999935
 51
359.9999999999935
  0
LINE
  5
206
330
2
100
AcDbEntity
  8
0
100
AcDbLine
 10
-0.5913892472847202
 20
5.974300461042432
 30
0.0
 11
-0.6538892472847486
 21
5.974300461042375
 31
0.0
  0
ARC
  5
207
330
2
100
AcDbEntity
  8
0
100
AcDbCircle
 10
-0.5913892472847415
 20
6.724300461042361
 30
0.0
 40
0.1250000000000107
100
AcDbArc
 50
359.9999999999984
 51
90.00000000000328
  0
LINE
  5
208
330
2
100
AcDbEntity
  8
0
100
AcDbLine
 10
-0.6538892472847202
 20
6.849300461042375
 30
0.0
 11
-0.5913892472847486
 21
6.849300461042375
 31
0.0
  0
ARC
  5
209
330
2
100
AcDbEntity
  8
0
100
AcDbCircle
 10
-0.6538892472847344
 20
6.97430046104239
 30
0.0
 40
0.1250000000000142
100
AcDbArc
 50
180.0
 51
270.0000000000065
  0
LINE
  5
20A
330
2
100
AcDbEntity
  8
0
  6
Continuous
100
AcDbLine
 10
-0.7788892472847557
 20
9.156249999999986
 30
0.0
 11
-0.7788892472847557
 21
8.974300461042503
 31
0.0
  0
LINE
  5
20B
330
2
100
AcDbEntity
  8
0
  6
Continuous
100
AcDbLine
 10
-0.4663892472847202
 20
8.724300461042475
 30
0.0
 11
-0.4663892472847486
 21
8.099300461042375
 31
0.0
  0
ARC
  5
20C
330
2
100
AcDbEntity
  8
0
  6
Continuous
100
AcDbCircle
 10
-0.6538892472847309
 20
7.84930046104239
 30
0.0
 40
0.1249999999999858
100
AcDbArc
 50
90.00000000000654
 51
180.0000000000066
  0
LINE
  5
20D
330
2
100
AcDbEntity
  8
0
  6
Continuous
100
AcDbLine
 10
-0.5913892472847202
 20
7.974300461042375
 30
0.0
 11
-0.6538892472847486
 21
7.974300461042375
 31
0.0
  0
ARC
  5
20E
330
2
100
AcDbEntity
  8
0
  6
Continuous
100
AcDbCircle
 10
-0.5913892472847309
 20
8.099300461042361
 30
0.0
 40
0.1249999999999858
100
AcDbArc
 50
270.0000000000065
 51
0.0000000000065208
  0
ARC
  5
20F
330
2
100
AcDbEntity
  8
0
  6
Continuous
100
AcDbCircle
 10
-0.591389247284738
 20
8.724300461042468
 30
0.0
 40
0.1250000000000178
100
AcDbArc
 50
0.0000000000016355
 51
90.00000000000654
  0
LINE
  5
210
330
2
100
AcDbEntity
  8
0
  6
Continuous
100
AcDbLine
 10
-0.6538892472847273
 20
8.849300461042489
 30
0.0
 11
-0.5913892472847557
 21
8.849300461042489
 31
0.0
  0
ARC
  5
211
330
2
100
AcDbEntity
  8
0
  6
Continuous
100
AcDbCircle
 10
-0.653889247284738
 20
8.974300461042503
 30
0.0
 40
0.1250000000000142
100
AcDbArc
 50
180.0
 51
270.0000000000065
  0
ARC
  5
212
330
2
100
AcDbEntity
  8
0
  6
Continuous
100
AcDbCircle
 10
0.7186107527152323
 20
6.499999999999879
 30
0.0
 40
0.06
100
AcDbArc
 50
121.631166275524
 51
238.368833724476
  0
LINE
  5
213
330
2
100
AcDbEntity
  8
0
  6
Continuous
100
AcDbLine
 10
0.8461107527152478
 20
6.350997136470994
 30
0.0
 11
0.6871438049869347
 21
6.448913492968529
 31
0.0
  0
CIRCLE
  5
214
330
2
100
AcDbEntity
  8
0
100
AcDbCircle
 10
-0.0601392472847273
 20
6.360374999999849
 30
0.0
 40
0.0855
  0
LINE
  5
215
330
2
100
AcDbEntity
  8
0
  6
Continuous
100
AcDbLine
 10
0.8461107527152478
 20
6.649002863528743
 30
0.0
 11
0.6871438049869347
 21
6.551086507031229
 31
0.0
  0
CIRCLE
  5
216
330
2
100
AcDbEntity
  8
0
100
AcDbCircle
 10
0.4086107527152727
 20
6.859374999999872
 30
0.0
 40
0.0855
  0
LINE
  5
217
330
2
100
AcDbEntity
  8
0
  6
Continuous
100
AcDbLine
 10
0.8461107527152443
 20
8.272872136471122
 30
0.0
 11
0.6871438049869418
 21
8.370788492968643
 31
0.0
  0
LINE
  5
218
330
2
100
AcDbEntity
  8
0
  6
Continuous
100
AcDbLine
 10
0.8461107527152443
 20
8.57087786352886
 30
0.0
 11
0.6871438049869418
 21
8.472961507031343
 31
0.0
  0
CIRCLE
  5
219
330
2
100
AcDbEntity
  8
0
  6
Continuous
100
AcDbCircle
 10
-0.0601392472847238
 20
8.360374999999962
 30
0.0
 40
0.0855
  0
ARC
  5
21A
330
2
100
AcDbEntity
  8
0
  6
Continuous
100
AcDbCircle
 10
0.718610752715243
 20
8.421874999999986
 30
0.0
 40
0.06
100
AcDbArc
 50
121.631166275524
 51
238.368833724476
  0
CIRCLE
  5
21B
330
2
100
AcDbEntity
  8
0
  6
Continuous
100
AcDbCircle
 10
0.4086107527152763
 20
8.859374999999986
 30
0.0
 40
0.0855
  0
CIRCLE
  5
21C
330
2
100
AcDbEntity
  8
0
  6
Continuous
100
AcDbCircle
 10
5.627360752715241
 20
7.687499999999989
 30
0.0
 40
0.0855
  0
LINE
  5
21D
330
2
100
AcDbEntity
  8
0
100
AcDbLine
 10
5.908610752715219
 20
7.849300461042379
 30
0.0
 11
5.908610752715251
 21
6.974300461042393
 31
0.0
  0
ARC
  5
21E
330
2
100
AcDbEntity
  8
0
  6
Continuous
100
AcDbCircle
 10
4.41111075271527
 20
6.499999999999883
 30
0.0
 40
0.06
100
AcDbArc
 50
301.631166275524
 51
58.36883372447599
  0
LINE
  5
21F
330
2
100
AcDbEntity
  8
0
100
AcDbLine
 10
5.59611075271523
 20
6.724300461042365
 30
0.0
 11
5.596110752715251
 21
6.099300461042379
 31
0.0
  0
LINE
  5
220
330
2
100
AcDbEntity
  8
0
  6
Continuous
100
AcDbLine
 10
4.283610752715255
 20
6.350997136470998
 30
0.0
 11
4.442577700443568
 21
6.448913492968533
 31
0.0
  0
CIRCLE
  5
221
330
2
100
AcDbEntity
  8
0
100
AcDbCircle
 10
5.18986075271523
 20
6.360374999999852
 30
0.0
 40
0.0855
  0
ARC
  5
222
330
2
100
AcDbEntity
  8
0
100
AcDbCircle
 10
5.783610752715266
 20
5.849300461042422
 30
0.0
 40
0.1249999999999574
100
AcDbArc
 50
0.0000000000065208
 51
90.00000000000649
  0
CIRCLE
  5
223
330
2
100
AcDbEntity
  8
0
100
AcDbCircle
 10
5.627360752715244
 20
5.687499999999876
 30
0.0
 40
0.0855
  0
LINE
  5
224
330
2
100
AcDbEntity
  8
0
100
AcDbLine
 10
5.721110752715223
 20
5.974300461042436
 30
0.0
 11
5.783610752715251
 21
5.974300461042379
 31
0.0
  0
ARC
  5
225
330
2
100
AcDbEntity
  8
0
100
AcDbCircle
 10
5.721110752715209
 20
6.099300461042393
 30
0.0
 40
0.1249999999999574
100
AcDbArc
 50
180.0000000000066
 51
270.0000000000065
  0
CIRCLE
  5
226
330
2
100
AcDbEntity
  8
0
100
AcDbCircle
 10
4.72111075271523
 20
6.859374999999876
 30
0.0
 40
0.0855
  0
LINE
  5
227
330
2
100
AcDbEntity
  8
0
  6
Continuous
100
AcDbLine
 10
4.283610752715255
 20
6.649002863528747
 30
0.0
 11
4.442577700443568
 21
6.551086507031233
 31
0.0
  0
ARC
  5
228
330
2
100
AcDbEntity
  8
0
100
AcDbCircle
 10
5.783610752715237
 20
6.974300461042393
 30
0.0
 40
0.1250000000000142
100
AcDbArc
 50
269.9999999999935
 51
0.000000000000007
  0
LINE
  5
229
330
2
100
AcDbEntity
  8
0
100
AcDbLine
 10
5.783610752715223
 20
6.849300461042379
 30
0.0
 11
5.721110752715251
 21
6.849300461042379
 31
0.0
  0
ARC
  5
22A
330
2
100
AcDbEntity
  8
0
100
AcDbCircle
 10
5.721110752715244
 20
6.724300461042365
 30
0.0
 40
0.1250000000000107
100
AcDbArc
 50
89.99999999999673
 51
180.0000000000016
  0
LINE
  5
22B
330
2
100
AcDbEntity
  8
0
  6
Continuous
100
AcDbLine
 10
5.908610752715259
 20
9.156249999999989
 30
0.0
 11
5.908610752715259
 21
8.974300461042507
 31
0.0
  0
ARC
  5
22C
330
2
100
AcDbEntity
  8
0
  6
Continuous
100
AcDbCircle
 10
4.41111075271526
 20
8.421874999999989
 30
0.0
 40
0.06
100
AcDbArc
 50
301.631166275524
 51
58.36883372447599
  0
CIRCLE
  5
22D
330
2
100
AcDbEntity
  8
0
  6
Continuous
100
AcDbCircle
 10
5.189860752715227
 20
8.360374999999966
 30
0.0
 40
0.0855
  0
LINE
  5
22E
330
2
100
AcDbEntity
  8
0
  6
Continuous
100
AcDbLine
 10
4.283610752715259
 20
8.272872136471126
 30
0.0
 11
4.442577700443561
 21
8.370788492968647
 31
0.0
  0
CIRCLE
  5
22F
330
2
100
AcDbEntity
  8
0
  6
Continuous
100
AcDbCircle
 10
4.721110752715227
 20
8.859374999999989
 30
0.0
 40
0.0855
  0
LINE
  5
230
330
2
100
AcDbEntity
  8
0
  6
Continuous
100
AcDbLine
 10
4.283610752715259
 20
8.570877863528864
 30
0.0
 11
4.442577700443561
 21
8.472961507031346
 31
0.0
  0
LINE
  5
231
330
2
100
AcDbEntity
  8
0
  6
Continuous
100
AcDbLine
 10
5.596110752715223
 20
8.724300461042478
 30
0.0
 11
5.596110752715251
 21
8.099300461042379
 31
0.0
  0
ARC
  5
232
330
2
100
AcDbEntity
  8
0
  6
Continuous
100
AcDbCircle
 10
5.783610752715234
 20
7.849300461042393
 30
0.0
 40
0.1249999999999858
100
AcDbArc
 50
359.9999999999934
 51
89.99999999999348
  0
LINE
  5
233
330
2
100
AcDbEntity
  8
0
  6
Continuous
100
AcDbLine
 10
5.721110752715223
 20
7.974300461042379
 30
0.0
 11
5.783610752715251
 21
7.974300461042379
 31
0.0
  0
ARC
  5
234
330
2
100
AcDbEntity
  8
0
  6
Continuous
100
AcDbCircle
 10
5.721110752715234
 20
8.099300461042365
 30
0.0
 40
0.1249999999999858
100
AcDbArc
 50
179.9999999999935
 51
269.9999999999935
  0
ARC
  5
235
330
2
100
AcDbEntity
  8
0
  6
Continuous
100
AcDbCircle
 10
5.783610752715241
 20
8.974300461042507
 30
0.0
 40
0.1250000000000142
100
AcDbArc
 50
269.9999999999935
 51
0.000000000000007
  0
LINE
  5
236
330
2
100
AcDbEntity
  8
0
  6
Continuous
100
AcDbLine
 10
5.78361075271523
 20
8.849300461042493
 30
0.0
 11
5.721110752715259
 21
8.849300461042493
 31
0.0
  0
ARC
  5
237
330
2
100
AcDbEntity
  8
0
  6
Continuous
100
AcDbCircle
 10
5.721110752715241
 20
8.724300461042471
 30
0.0
 40
0.1250000000000178
100
AcDbArc
 50
89.99999999999348
 51
179.9999999999984
  0
LINE
  5
238
330
2
100
AcDbEntity
  8
0
  6
Continuous
100
AcDbLine
 10
5.908610752715259
 20
9.156249999999989
 30
0.0
 11
4.221110752715266
 21
9.156249999999996
 31
0.0
  0
ENDSEC
  0
SECTION
  2
OBJECTS
  0
DICTIONARY
  5
9
330
0
100
AcDbDictionary
281
     1
  3
ACAD_COLOR
350
357
  3
ACAD_GROUP
350
23
  3
ACAD_LAYOUT
350
D
  3
ACAD_MATERIAL
350
356
  3
ACAD_MLINESTYLE
350
24
  3
ACAD_PLOTSETTINGS
350
25
  3
ACAD_PLOTSTYLENAME
350
8
  3
ACAD_TABLESTYLE
350
358
  3
ACDBHEADERROUNDTRIPXREC
350
379
  3
AcDbVariableDictionary
350
178
  0
DICTIONARY
  5
357
102
{ACAD_REACTORS
330
9
102
}
330
9
100
AcDbDictionary
281
     1
  0
DICTIONARY
  5
23
102
{ACAD_REACTORS
330
9
102
}
330
9
100
AcDbDictionary
281
     1
  0
DICTIONARY
  5
D
102
{ACAD_REACTORS
330
9
102
}
330
9
100
AcDbDictionary
281
     1
  3
Layout1
350
13
  3
Model
350
C
  0
DICTIONARY
  5
356
102
{ACAD_REACTORS
330
9
102
}
330
9
100
AcDbDictionary
281
     1
  0
DICTIONARY
  5
24
102
{ACAD_REACTORS
330
9
102
}
330
9
100
AcDbDictionary
281
     1
  3
STANDARD
350
27
  0
DICTIONARY
  5
25
102
{ACAD_REACTORS
330
9
102
}
330
9
100
AcDbDictionary
281
     1
  0
ACDBDICTIONARYWDFLT
  5
8
102
{ACAD_REACTORS
330
9
102
}
330
9
100
AcDbDictionary
281
     1
  3
Normal
350
7
100
AcDbDictionaryWithDefault
340
7
  0
DICTIONARY
  5
358
102
{ACAD_REACTORS
330
9
102
}
330
9
100
AcDbDictionary
281
     1
  3
Standard
350
359
  0
DICTIONARY
  5
379
102
{ACAD_REACTORS
330
9
102
}
330
9
100
AcDbDictionary
281
     1
  3
COLORDICT
350
37A
  3
MATERIALDICT
350
37B
  0
DICTIONARY
  5
178
102
{ACAD_REACTORS
330
9
102
}
330
9
100
AcDbDictionary
281
     1
  3
CTABLESTYLE
350
376
  3
HIDETEXT
350
378
  0
LAYOUT
  5
13
102
{ACAD_REACTORS
330
D
102
}
102
{ACAD_XDICTIONARY
360
37C
102
}
330
D
100
AcDbPlotSettings
  1

  2
C:\ACAD2000\plotters\HP LaserJet 2100 Series PS.pc3
  4

  6

 40
0.0
 41
0.0
 42
0.0
 43
0.0
 44
0.0
 45
0.0
 46
0.0
 47
0.0
 48
0.0
 49
0.0
140
0.0
141
0.0
142
1.0
143
1.0
 70
   688
 72
     0
 73
     0
 74
     5
  7

 75
    16
147
1.0
148
0.0
149
0.0
100
AcDbLayout
  1
Layout1
 70
     0
 71
     1
 10
0.0
 20
0.0
 11
12.0
 21
9.0
 12
0.0
 22
0.0
 32
0.0
 14
1.000000000000000E+20
 24
1.000000000000000E+20
 34
1.000000000000000E+20
 15
-1.000000000000000E+20
 25
-1.000000000000000E+20
 35
-1.000000000000000E+20
146
0.0
 13
0.0
 23
0.0
 33
0.0
 16
1.0
 26
0.0
 36
0.0
 17
0.0
 27
1.0
 37
0.0
 76
     0
330
E
  0
LAYOUT
  5
C
102
{ACAD_REACTORS
330
D
102
}
102
{ACAD_XDICTIONARY
360
37E
102
}
330
D
100
AcDbPlotSettings
  1

  2
HP LaserJet 2100 Series PS
  4
Letter
  6

 40
3.174999952316284
 41
3.174999952316284
 42
3.175003051757813
 43
3.17498779296875
 44
215.9000091552734
 45
279.3999938964844
 46
0.0
 47
0.0
 48
0.0
 49
0.0
140
0.0
141
0.0
142
1.0
143
5.090908941468881
 70
 28336
 72
     0
 73
     1
 74
     2
  7

 75
     0
147
0.1964285771946001
148
0.0
149
0.0
100
AcDbLayout
  1
Model
 70
     1
 71
     0
 10
0.0
 20
0.0
 11
12.0
 21
9.0
 12
0.0
 22
0.0
 32
0.0
 14
0.0
 24
0.0
 34
0.0
 15
0.0
 25
0.0
 35
0.0
146
0.0
 13
0.0
 23
0.0
 33
0.0
 16
1.0
 26
0.0
 36
0.0
 17
0.0
 27
1.0
 37
0.0
 76
     0
330
2
  0
MLINESTYLE
  5
27
102
{ACAD_REACTORS
330
24
102
}
330
24
100
AcDbMlineStyle
  2
STANDARD
 70
     0
  3

 62
   256
 51
90.0
 52
90.0
 71
     2
 49
0.5
 62
   256
  6
BYLAYER
 49
-0.5
 62
   256
  6
BYLAYER
  0
ACDBPLACEHOLDER
  5
7
102
{ACAD_REACTORS
330
8
102
}
330
8
  0
ACAD_PROXY_OBJECT
  5
359
102
{ACAD_REACTORS
330
358
102
}
330
358
100
AcDbProxyObject
 90
      499
 91
      585
 95
   983063
 70
     0
 93
     1841
310
4214DD185B99185C9928B81E85EB51B8AE3F2E07A17AD46E2B8FC02B5E8DC0F42B1CFD028000000C1008070000C3001FDFF8000000C1003FBFF000000182007F7FE00000030400FEFFC00000060801FDFF8000000C1003FBFF00000018200000000000000681FA0B0000001820100E000186003FBFF000000182007F7FE000
310
00030400FEFFC00000060801FDFF8000000C1003FBFF000000182007F7FE000000304000AD7A3703D0AC73F4160000003040201C00030C007F7FE00000030400FEFFC00000060801FDFF8000000C1003FBFF000000182007F7FE00000030400FEFFC000000608000
340
16
340
16
340
16
 94
        0
  0
XRECORD
  5
37A
102
{ACAD_REACTORS
330
379
102
}
330
379
100
AcDbXrecord
340
357
  0
XRECORD
  5
37B
102
{ACAD_REACTORS
330
379
102
}
330
379
100
AcDbXrecord
340
356
  0
DICTIONARYVAR
  5
376
102
{ACAD_REACTORS
330
178
102
}
330
178
100
DictionaryVariables
280
     0
  1
STANDARD
  0
DICTIONARYVAR
  5
378
102
{ACAD_REACTORS
330
178
102
}
330
178
100
DictionaryVariables
280
     0
  1
0
  0
DICTIONARY
  5
37C
330
13
100
AcDbDictionary
280
     1
281
     1
  3
ACAD_XREC_ROUNDTRIP
360
37D
  0
DICTIONARY
  5
37E
330
C
100
AcDbDictionary
280
     1
281
     1
  3
ACAD_XREC_ROUNDTRIP
360
37F
  0
XRECORD
  5
37D
102
{ACAD_REACTORS
330
37C
102
}
330
37C
100
AcDbXrecord
102
SHADEPLOT
 70
     0
102
SHADEPLOTRESLEVEL
 70
     2
102
SHADEPLOTCUSTOMDPI
 70
   300
  0
XRECORD
  5
37F
102
{ACAD_REACTORS
330
37E
102
}
330
37E
100
AcDbXrecord
102
SHADEPLOT
 70
     0
102
SHADEPLOTRESLEVEL
 70
     2
102
SHADEPLOTCUSTOMDPI
 70
   300
  0
ENDSEC
  0
EOF
