  0
SECTION
  2
HEADER
  9
$ACADVER
  1
AC1015
  9
$ACADMAINTVER
 70
     6
  9
$DWGCODEPAGE
  3
ANSI_1252
  9
$INSBASE
 10
0.0
 20
0.0
 30
0.0
  9
$EXTMIN
 10
0.0827779586320535
 20
-0.0258883476483149
 30
0.0
  9
$EXTMAX
 10
21.58843069980928
 20
19.25836658179453
 30
0.0
  9
$LIMMIN
 10
0.0
 20
0.0
  9
$LIMMAX
 10
42.0
 20
32.0
  9
$ORTHOMODE
 70
     1
  9
$REGENMODE
 70
     1
  9
$FILLMODE
 70
     1
  9
$QTEXTMODE
 70
     0
  9
$MIRRTEXT
 70
     0
  9
$LTSCALE
 40
0.5
  9
$ATTMODE
 70
     1
  9
$TEXTSIZE
 40
0.36
  9
$TRACEWID
 40
0.05
  9
$TEXTSTYLE
  7
STANDARD
  9
$CLAYER
  8
0
  9
$CELTYPE
  6
BYLAYER
  9
$CECOLOR
 62
   256
  9
$CELTSCALE
 40
1.0
  9
$DISPSILH
 70
     0
  9
$DIMSCALE
 40
4.0
  9
$DIMASZ
 40
0.125
  9
$DIMEXO
 40
0.062
  9
$DIMDLI
 40
0.375
  9
$DIMRND
 40
0.0
  9
$DIMDLE
 40
0.0
  9
$DIMEXE
 40
0.08
  9
$DIMTP
 40
0.0
  9
$DIMTM
 40
0.0
  9
$DIMTXT
 40
0.09
  9
$DIMCEN
 40
-0.06
  9
$DIMTSZ
 40
0.0
  9
$DIMTOL
 70
     0
  9
$DIMLIM
 70
     0
  9
$DIMTIH
 70
     1
  9
$DIMTOH
 70
     1
  9
$DIMSE1
 70
     0
  9
$DIMSE2
 70
     0
  9
$DIMTAD
 70
     0
  9
$DIMZIN
 70
     0
  9
$DIMBLK
  1

  9
$DIMASO
 70
     0
  9
$DIMSHO
 70
     0
  9
$DIMPOST
  1

  9
$DIMAPOST
  1

  9
$DIMALT
 70
     0
  9
$DIMALTD
 70
     2
  9
$DIMALTF
 40
25.4
  9
$DIMLFAC
 40
1.0
  9
$DIMTOFL
 70
     0
  9
$DIMTVP
 40
0.0
  9
$DIMTIX
 70
     0
  9
$DIMSOXD
 70
     0
  9
$DIMSAH
 70
     0
  9
$DIMBLK1
  1

  9
$DIMBLK2
  1

  9
$DIMSTYLE
  2
STANDARD
  9
$DIMCLRD
 70
     0
  9
$DIMCLRE
 70
     0
  9
$DIMCLRT
 70
     0
  9
$DIMTFAC
 40
1.0
  9
$DIMGAP
 40
0.09
  9
$DIMJUST
 70
     0
  9
$DIMSD1
 70
     0
  9
$DIMSD2
 70
     0
  9
$DIMTOLJ
 70
     1
  9
$DIMTZIN
 70
     0
  9
$DIMALTZ
 70
     0
  9
$DIMALTTZ
 70
     0
  9
$DIMUPT
 70
     0
  9
$DIMDEC
 70
     5
  9
$DIMTDEC
 70
     4
  9
$DIMALTU
 70
     2
  9
$DIMALTTD
 70
     2
  9
$DIMTXSTY
  7
STANDARD
  9
$DIMAUNIT
 70
     0
  9
$DIMADEC
 70
     0
  9
$DIMALTRND
 40
0.0
  9
$DIMAZIN
 70
     0
  9
$DIMDSEP
 70
    46
  9
$DIMATFIT
 70
     3
  9
$DIMFRAC
 70
     2
  9
$DIMLDRBLK
  1

  9
$DIMLUNIT
 70
     5
  9
$DIMLWD
 70
    -2
  9
$DIMLWE
 70
    -2
  9
$DIMTMOVE
 70
     2
  9
$LUNITS
 70
     2
  9
$LUPREC
 70
     4
  9
$SKETCHINC
 40
0.1
  9
$FILLETRAD
 40
0.0
  9
$AUNITS
 70
     0
  9
$AUPREC
 70
     0
  9
$MENU
  1
acad
  9
$ELEVATION
 40
0.0
  9
$PELEVATION
 40
0.0
  9
$THICKNESS
 40
0.0
  9
$LIMCHECK
 70
     0
  9
$CHAMFERA
 40
0.0
  9
$CHAMFERB
 40
0.0
  9
$CHAMFERC
 40
0.0
  9
$CHAMFERD
 40
0.0
  9
$SKPOLY
 70
     0
  9
$TDCREATE
 40
2448880.712842593
  9
$TDUCREATE
 40
2448881.046175926
  9
$TDUPDATE
 40
2454165.798108229
  9
$TDUUPDATE
 40
2454166.131441562
  9
$TDINDWG
 40
0.6216081481
  9
$TDUSRTIMER
 40
0.6216081481
  9
$USRTIMER
 70
     1
  9
$ANGBASE
 50
0.0
  9
$ANGDIR
 70
     0
  9
$PDMODE
 70
     0
  9
$PDSIZE
 40
0.0
  9
$PLINEWID
 40
0.0
  9
$SPLFRAME
 70
     0
  9
$SPLINETYPE
 70
     6
  9
$SPLINESEGS
 70
     8
  9
$HANDSEED
  5
380
  9
$SURFTAB1
 70
     6
  9
$SURFTAB2
 70
     6
  9
$SURFTYPE
 70
     6
  9
$SURFU
 70
     6
  9
$SURFV
 70
     6
  9
$UCSBASE
  2

  9
$UCSNAME
  2

  9
$UCSORG
 10
0.0
 20
0.0
 30
0.0
  9
$UCSXDIR
 10
1.0
 20
0.0
 30
0.0
  9
$UCSYDIR
 10
0.0
 20
1.0
 30
0.0
  9
$UCSORTHOREF
  2

  9
$UCSORTHOVIEW
 70
     0
  9
$UCSORGTOP
 10
0.0
 20
0.0
 30
0.0
  9
$UCSORGBOTTOM
 10
0.0
 20
0.0
 30
0.0
  9
$UCSORGLEFT
 10
0.0
 20
0.0
 30
0.0
  9
$UCSORGRIGHT
 10
0.0
 20
0.0
 30
0.0
  9
$UCSORGFRONT
 10
0.0
 20
0.0
 30
0.0
  9
$UCSORGBACK
 10
0.0
 20
0.0
 30
0.0
  9
$PUCSBASE
  2

  9
$PUCSNAME
  2

  9
$PUCSORG
 10
0.0
 20
0.0
 30
0.0
  9
$PUCSXDIR
 10
1.0
 20
0.0
 30
0.0
  9
$PUCSYDIR
 10
0.0
 20
1.0
 30
0.0
  9
$PUCSORTHOREF
  2

  9
$PUCSORTHOVIEW
 70
     0
  9
$PUCSORGTOP
 10
0.0
 20
0.0
 30
0.0
  9
$PUCSORGBOTTOM
 10
0.0
 20
0.0
 30
0.0
  9
$PUCSORGLEFT
 10
0.0
 20
0.0
 30
0.0
  9
$PUCSORGRIGHT
 10
0.0
 20
0.0
 30
0.0
  9
$PUCSORGFRONT
 10
0.0
 20
0.0
 30
0.0
  9
$PUCSORGBACK
 10
0.0
 20
0.0
 30
0.0
  9
$USERI1
 70
     0
  9
$USERI2
 70
     0
  9
$USERI3
 70
     0
  9
$USERI4
 70
     0
  9
$USERI5
 70
     0
  9
$USERR1
 40
0.0
  9
$USERR2
 40
0.0
  9
$USERR3
 40
0.0
  9
$USERR4
 40
0.0
  9
$USERR5
 40
0.0
  9
$WORLDVIEW
 70
     1
  9
$SHADEDGE
 70
     3
  9
$SHADEDIF
 70
    70
  9
$TILEMODE
 70
     1
  9
$MAXACTVP
 70
    16
  9
$PINSBASE
 10
0.0
 20
0.0
 30
0.0
  9
$PLIMCHECK
 70
     0
  9
$PEXTMIN
 10
1.000000000000000E+20
 20
1.000000000000000E+20
 30
1.000000000000000E+20
  9
$PEXTMAX
 10
-1.000000000000000E+20
 20
-1.000000000000000E+20
 30
-1.000000000000000E+20
  9
$PLIMMIN
 10
0.0
 20
0.0
  9
$PLIMMAX
 10
12.0
 20
9.0
  9
$UNITMODE
 70
     0
  9
$VISRETAIN
 70
     0
  9
$PLINEGEN
 70
     0
  9
$PSLTSCALE
 70
     0
  9
$TREEDEPTH
 70
  3020
  9
$CMLSTYLE
  2
STANDARD
  9
$CMLJUST
 70
     0
  9
$CMLSCALE
 40
1.0
  9
$PROXYGRAPHICS
 70
     1
  9
$MEASUREMENT
 70
     0
  9
$CELWEIGHT
370
    -1
  9
$ENDCAPS
280
     0
  9
$JOINSTYLE
280
     0
  9
$LWDISPLAY
290
     0
  9
$INSUNITS
 70
     0
  9
$HYPERLINKBASE
  1

  9
$STYLESHEET
  1

  9
$XEDIT
290
     1
  9
$CEPSNTYPE
380
     0
  9
$PSTYLEMODE
290
     1
  9
$FINGERPRINTGUID
  2
{D2F66ADB-A264-4ADF-B7D5-0BD741C9DFA9}
  9
$VERSIONGUID
  2
{C589F9EE-CA71-4BBB-BC9E-072416DC06D6}
  9
$EXTNAMES
290
     1
  9
$PSVPSCALE
 40
0.0
  9
$OLESTARTUP
290
     0
  0
ENDSEC
  0
SECTION
  2
CLASSES
  0
CLASS
  1
DICTIONARYVAR
  2
AcDbDictionaryVar
  3
AutoCAD 2000
 90
        0
280
     0
281
     0
  0
CLASS
  1
LWPOLYLINE
  2
AcDbPolyline
  3
AutoCAD 2000
 90
        0
280
     0
281
     1
  0
CLASS
  1
ACDBDICTIONARYWDFLT
  2
AcDbDictionaryWithDefault
  3
AutoCAD 2000
 90
        0
280
     0
281
     0
  0
CLASS
  1
ACDBPLACEHOLDER
  2
AcDbPlaceHolder
  3
ObjectDBX Classes
 90
        0
280
     0
281
     0
  0
CLASS
  1
LAYOUT
  2
AcDbLayout
  3
ObjectDBX Classes
 90
        0
280
     0
281
     0
  0
CLASS
  1
LONG_TRANSACTION
  2
AcDbLongTransaction
  3
ObjectDBX Classes
 90
   -65536
280
     1
281
     0
  0
CLASS
  1
LWPOLYLINE
  2
AcDbPolyline
  3
AutoCAD 2000
 90
        0
280
     0
281
     1
  0
CLASS
  1
HATCH
  2
AcDbHatch
  3
AutoCAD 2000
 90
        0
280
     0
281
     1
  0
CLASS
  1
XRECORD
  2
AcDbXrecord
  3
AutoCAD 2000
 90
        0
280
     0
281
     0
  0
CLASS
  1
LONG_TRANSACTION
  2
AcDbLongTransaction
  3
ObjectDBX Classes
 90
   -65536
280
     1
281
     0
  0
CLASS
  1
LWPOLYLINE
  2
AcDbPolyline
  3
AutoCAD 2000
 90
        0
280
     0
281
     1
  0
CLASS
  1
HATCH
  2
AcDbHatch
  3
AutoCAD 2000
 90
        0
280
     0
281
     1
  0
CLASS
  1
XRECORD
  2
AcDbXrecord
  3
AutoCAD 2000
 90
        0
280
     0
281
     0
  0
CLASS
  1
LONG_TRANSACTION
  2
AcDbLongTransaction
  3
ObjectDBX Classes
 90
   -65536
280
     1
281
     0
  0
CLASS
  1
LWPOLYLINE
  2
AcDbPolyline
  3
AutoCAD 2000
 90
        0
280
     0
281
     1
  0
CLASS
  1
HATCH
  2
AcDbHatch
  3
AutoCAD 2000
 90
        0
280
     0
281
     1
  0
CLASS
  1
XRECORD
  2
AcDbXrecord
  3
AutoCAD 2000
 90
        0
280
     0
281
     0
  0
CLASS
  1
LONG_TRANSACTION
  2
AcDbLongTransaction
  3
ObjectDBX Classes
 90
   -65536
280
     1
281
     0
  0
CLASS
  1
LWPOLYLINE
  2
AcDbPolyline
  3
AutoCAD 2000
 90
        0
280
     0
281
     1
  0
CLASS
  1
HATCH
  2
AcDbHatch
  3
AutoCAD 2000
 90
        0
280
     0
281
     1
  0
CLASS
  1
XRECORD
  2
AcDbXrecord
  3
AutoCAD 2000
 90
        0
280
     0
281
     0
  0
CLASS
  1
LONG_TRANSACTION
  2
AcDbLongTransaction
  3
ObjectDBX Classes
 90
   -65536
280
     1
281
     0
  0
CLASS
  1
LWPOLYLINE
  2
AcDbPolyline
  3
AutoCAD 2000
 90
        0
280
     0
281
     1
  0
CLASS
  1
HATCH
  2
AcDbHatch
  3
AutoCAD 2000
 90
        0
280
     0
281
     1
  0
CLASS
  1
XRECORD
  2
AcDbXrecord
  3
AutoCAD 2000
 90
        0
280
     0
281
     0
  0
CLASS
  1
LONG_TRANSACTION
  2
AcDbLongTransaction
  3
ObjectDBX Classes
 90
   -65536
280
     1
281
     0
  0
CLASS
  1
LWPOLYLINE
  2
AcDbPolyline
  3
AutoCAD 2000
 90
        0
280
     0
281
     1
  0
CLASS
  1
HATCH
  2
AcDbHatch
  3
AutoCAD 2000
 90
        0
280
     0
281
     1
  0
CLASS
  1
XRECORD
  2
AcDbXrecord
  3
AutoCAD 2000
 90
        0
280
     0
281
     0
  0
CLASS
  1
LONG_TRANSACTION
  2
AcDbLongTransaction
  3
ObjectDBX Classes
 90
   -65536
280
     1
281
     0
  0
CLASS
  1
LWPOLYLINE
  2
AcDbPolyline
  3
AutoCAD 2000
 90
        0
280
     0
281
     1
  0
CLASS
  1
HATCH
  2
AcDbHatch
  3
AutoCAD 2000
 90
        0
280
     0
281
     1
  0
CLASS
  1
XRECORD
  2
AcDbXrecord
  3
AutoCAD 2000
 90
        0
280
     0
281
     0
  0
CLASS
  1
LONG_TRANSACTION
  2
AcDbLongTransaction
  3
ObjectDBX Classes
 90
   -65536
280
     1
281
     0
  0
CLASS
  1
LWPOLYLINE
  2
AcDbPolyline
  3
AutoCAD 2000
 90
        0
280
     0
281
     1
  0
CLASS
  1
HATCH
  2
AcDbHatch
  3
AutoCAD 2000
 90
        0
280
     0
281
     1
  0
CLASS
  1
XRECORD
  2
AcDbXrecord
  3
AutoCAD 2000
 90
        0
280
     0
281
     0
  0
CLASS
  1
LONG_TRANSACTION
  2
AcDbLongTransaction
  3
ObjectDBX Classes
 90
   -65536
280
     1
281
     0
  0
CLASS
  1
LWPOLYLINE
  2
AcDbPolyline
  3
AutoCAD 2000
 90
        0
280
     0
281
     1
  0
CLASS
  1
HATCH
  2
AcDbHatch
  3
AutoCAD 2000
 90
        0
280
     0
281
     1
  0
CLASS
  1
XRECORD
  2
AcDbXrecord
  3
AutoCAD 2000
 90
        0
280
     0
281
     0
  0
CLASS
  1
LONG_TRANSACTION
  2
AcDbLongTransaction
  3
ObjectDBX Classes
 90
   -65536
280
     1
281
     0
  0
CLASS
  1
LWPOLYLINE
  2
AcDbPolyline
  3
AutoCAD 2000
 90
        0
280
     0
281
     1
  0
CLASS
  1
HATCH
  2
AcDbHatch
  3
AutoCAD 2000
 90
        0
280
     0
281
     1
  0
CLASS
  1
XRECORD
  2
AcDbXrecord
  3
AutoCAD 2000
 90
        0
280
     0
281
     0
  0
CLASS
  1
LONG_TRANSACTION
  2
AcDbLongTransaction
  3
ObjectDBX Classes
 90
   -65536
280
     1
281
     0
  0
CLASS
  1
LWPOLYLINE
  2
AcDbPolyline
  3
AutoCAD 2000
 90
        0
280
     0
281
     1
  0
CLASS
  1
HATCH
  2
AcDbHatch
  3
AutoCAD 2000
 90
        0
280
     0
281
     1
  0
CLASS
  1
XRECORD
  2
AcDbXrecord
  3
AutoCAD 2000
 90
        0
280
     0
281
     0
  0
CLASS
  1
LONG_TRANSACTION
  2
AcDbLongTransaction
  3
ObjectDBX Classes
 90
   -65536
280
     1
281
     0
  0
CLASS
  1
LWPOLYLINE
  2
AcDbPolyline
  3
AutoCAD 2000
 90
        0
280
     0
281
     1
  0
CLASS
  1
HATCH
  2
AcDbHatch
  3
AutoCAD 2000
 90
        0
280
     0
281
     1
  0
CLASS
  1
XRECORD
  2
AcDbXrecord
  3
AutoCAD 2000
 90
        0
280
     0
281
     0
  0
CLASS
  1
LONG_TRANSACTION
  2
AcDbLongTransaction
  3
ObjectDBX Classes
 90
   -65536
280
     1
281
     0
  0
CLASS
  1
LWPOLYLINE
  2
AcDbPolyline
  3
AutoCAD 2000
 90
        0
280
     0
281
     1
  0
CLASS
  1
HATCH
  2
AcDbHatch
  3
AutoCAD 2000
 90
        0
280
     0
281
     1
  0
CLASS
  1
XRECORD
  2
AcDbXrecord
  3
AutoCAD 2000
 90
        0
280
     0
281
     0
  0
CLASS
  1
LONG_TRANSACTION
  2
AcDbLongTransaction
  3
ObjectDBX Classes
 90
   -65536
280
     1
281
     0
  0
CLASS
  1
LWPOLYLINE
  2
AcDbPolyline
  3
AutoCAD 2000
 90
        0
280
     0
281
     1
  0
CLASS
  1
HATCH
  2
AcDbHatch
  3
AutoCAD 2000
 90
        0
280
     0
281
     1
  0
CLASS
  1
XRECORD
  2
AcDbXrecord
  3
AutoCAD 2000
 90
        0
280
     0
281
     0
  0
CLASS
  1
LONG_TRANSACTION
  2
AcDbLongTransaction
  3
ObjectDBX Classes
 90
   -65536
280
     1
281
     0
  0
CLASS
  1
LWPOLYLINE
  2
AcDbPolyline
  3
AutoCAD 2000
 90
        0
280
     0
281
     1
  0
CLASS
  1
HATCH
  2
AcDbHatch
  3
AutoCAD 2000
 90
        0
280
     0
281
     1
  0
CLASS
  1
XRECORD
  2
AcDbXrecord
  3
AutoCAD 2000
 90
        0
280
     0
281
     0
  0
CLASS
  1
LONG_TRANSACTION
  2
AcDbLongTransaction
  3
ObjectDBX Classes
 90
   -65536
280
     1
281
     0
  0
CLASS
  1
LWPOLYLINE
  2
AcDbPolyline
  3
AutoCAD 2000
 90
        0
280
     0
281
     1
  0
CLASS
  1
HATCH
  2
AcDbHatch
  3
AutoCAD 2000
 90
        0
280
     0
281
     1
  0
CLASS
  1
XRECORD
  2
AcDbXrecord
  3
AutoCAD 2000
 90
        0
280
     0
281
     0
  0
CLASS
  1
LONG_TRANSACTION
  2
AcDbLongTransaction
  3
ObjectDBX Classes
 90
   -65536
280
     1
281
     0
  0
CLASS
  1
LWPOLYLINE
  2
AcDbPolyline
  3
AutoCAD 2000
 90
        0
280
     0
281
     1
  0
CLASS
  1
HATCH
  2
AcDbHatch
  3
AutoCAD 2000
 90
        0
280
     0
281
     1
  0
CLASS
  1
XRECORD
  2
AcDbXrecord
  3
AutoCAD 2000
 90
        0
280
     0
281
     0
  0
CLASS
  1
LONG_TRANSACTION
  2
AcDbLongTransaction
  3
ObjectDBX Classes
 90
   -65536
280
     1
281
     0
  0
CLASS
  1
LWPOLYLINE
  2
AcDbPolyline
  3
AutoCAD 2000
 90
        0
280
     0
281
     1
  0
CLASS
  1
HATCH
  2
AcDbHatch
  3
AutoCAD 2000
 90
        0
280
     0
281
     1
  0
CLASS
  1
XRECORD
  2
AcDbXrecord
  3
AutoCAD 2000
 90
        0
280
     0
281
     0
  0
CLASS
  1
LONG_TRANSACTION
  2
AcDbLongTransaction
  3
ObjectDBX Classes
 90
   -65536
280
     1
281
     0
  0
CLASS
  1
LWPOLYLINE
  2
AcDbPolyline
  3
AutoCAD 2000
 90
        0
280
     0
281
     1
  0
CLASS
  1
HATCH
  2
AcDbHatch
  3
AutoCAD 2000
 90
        0
280
     0
281
     1
  0
CLASS
  1
XRECORD
  2
AcDbXrecord
  3
AutoCAD 2000
 90
        0
280
     0
281
     0
  0
CLASS
  1
LONG_TRANSACTION
  2
AcDbLongTransaction
  3
ObjectDBX Classes
 90
   -65536
280
     1
281
     0
  0
CLASS
  1
LWPOLYLINE
  2
AcDbPolyline
  3
AutoCAD 2000
 90
        0
280
     0
281
     1
  0
CLASS
  1
HATCH
  2
AcDbHatch
  3
AutoCAD 2000
 90
        0
280
     0
281
     1
  0
CLASS
  1
XRECORD
  2
AcDbXrecord
  3
AutoCAD 2000
 90
        0
280
     0
281
     0
  0
CLASS
  1
TABLESTYLE
  2
AcDbTableStyle
  3
ObjectDBX Classes
 90
     2047
280
     1
281
     0
  0
ENDSEC
  0
SECTION
  2
TABLES
  0
TABLE
  2
VPORT
  5
1D
330
0
100
AcDbSymbolTable
 70
     3
  0
VPORT
  5
372
330
1D
100
AcDbSymbolTableRecord
100
AcDbViewportTableRecord
  2
*Active
 70
     0
 10
0.0
 20
0.0
 11
1.0
 21
1.0
 12
20.34028061826997
 22
9.009856451720321
 13
0.0
 23
0.0
 14
0.063
 24
0.063
 15
0.25
 25
0.25
 16
0.0
 26
0.0
 36
1.0
 17
0.0
 27
0.0
 37
0.0
 40
36.39496955639424
 41
1.814583333333334
 42
50.0
 43
0.0
 44
0.0
 50
0.0
 51
0.0
 71
     0
 72
   100
 73
     1
 74
     3
 75
     0
 76
     0
 77
     0
 78
     0
281
     0
 65
     1
110
0.0
120
0.0
130
0.0
111
1.0
121
0.0
131
0.0
112
0.0
122
1.0
132
0.0
 79
     0
146
0.0
  0
ENDTAB
  0
TABLE
  2
LTYPE
  5
18
330
0
100
AcDbSymbolTable
 70
     2
  0
LTYPE
  5
19
330
18
100
AcDbSymbolTableRecord
100
AcDbLinetypeTableRecord
  2
BYBLOCK
 70
     0
  3

 72
    65
 73
     0
 40
0.0
  0
LTYPE
  5
1A
330
18
100
AcDbSymbolTableRecord
100
AcDbLinetypeTableRecord
  2
BYLAYER
 70
     0
  3

 72
    65
 73
     0
 40
0.0
  0
LTYPE
  5
A
330
18
100
AcDbSymbolTableRecord
100
AcDbLinetypeTableRecord
  2
CONTINUOUS
 70
     0
  3
Solid line
 72
    65
 73
     0
 40
0.0
  0
LTYPE
  5
35F
330
18
100
AcDbSymbolTableRecord
100
AcDbLinetypeTableRecord
  2
HIDDEN
 70
     0
  3
Hidden __ __ __ __ __ __ __ __ __ __ __ __ __ _
 72
    65
 73
     2
 40
0.375
 49
0.25
 74
     0
 49
-0.125
 74
     0
  0
ENDTAB
  0
TABLE
  2
LAYER
  5
14
330
0
100
AcDbSymbolTable
 70
     1
  0
LAYER
  5
6
330
14
100
AcDbSymbolTableRecord
100
AcDbLayerTableRecord
  2
0
 70
     0
 62
     7
  6
CONTINUOUS
370
    -3
390
7
  0
ENDTAB
  0
TABLE
  2
STYLE
  5
15
330
0
100
AcDbSymbolTable
 70
     2
  0
STYLE
  5
16
330
15
100
AcDbSymbolTableRecord
100
AcDbTextStyleTableRecord
  2
STANDARD
 70
     0
 40
0.0
 41
1.0
 50
0.0
 71
     0
 42
0.36
  3
TXT
  4

  0
STYLE
  5
35E
330
15
100
AcDbSymbolTableRecord
100
AcDbTextStyleTableRecord
  2

 70
     1
 40
0.0
 41
1.0
 50
0.0
 71
     0
 42
0.36
  3
ltypeshp.shx
  4

  0
ENDTAB
  0
TABLE
  2
VIEW
  5
1B
330
0
100
AcDbSymbolTable
 70
     0
  0
ENDTAB
  0
TABLE
  2
UCS
  5
1C
330
0
100
AcDbSymbolTable
 70
     0
  0
ENDTAB
  0
TABLE
  2
APPID
  5
1F
330
0
100
AcDbSymbolTable
 70
     1
  0
APPID
  5
20
330
1F
100
AcDbSymbolTableRecord
100
AcDbRegAppTableRecord
  2
ACAD
 70
     0
  0
ENDTAB
  0
TABLE
  2
DIMSTYLE
  5
21
330
0
100
AcDbSymbolTable
 70
     1
100
AcDbDimStyleTable
  0
DIMSTYLE
105
28
330
21
100
AcDbSymbolTableRecord
100
AcDbDimStyleTableRecord
  2
STANDARD
 70
     0
  3

  4

340
16
  0
ENDTAB
  0
TABLE
  2
BLOCK_RECORD
  5
1
330
0
100
AcDbSymbolTable
 70
     0
  0
BLOCK_RECORD
  5
2
330
1
100
AcDbSymbolTableRecord
100
AcDbBlockTableRecord
  2
*MODEL_SPACE
340
C
  0
BLOCK_RECORD
  5
E
330
1
100
AcDbSymbolTableRecord
100
AcDbBlockTableRecord
  2
*PAPER_SPACE
340
13
  0
ENDTAB
  0
ENDSEC
  0
SECTION
  2
BLOCKS
  0
BLOCK
  5
5
330
2
100
AcDbEntity
  8
0
100
AcDbBlockBegin
  2
*MODEL_SPACE
 70
     0
 10
0.0
 20
0.0
 30
0.0
  3
*MODEL_SPACE
  1

  4

  0
ENDBLK
  5
B
330
2
100
AcDbEntity
  8
0
100
AcDbBlockEnd
  0
BLOCK
  5
11
330
E
100
AcDbEntity
 67
     1
  8
0
100
AcDbBlockBegin
  2
*PAPER_SPACE
 70
     0
 10
0.0
 20
0.0
 30
0.0
  3
*PAPER_SPACE
  1

  4

  0
ENDBLK
  5
12
330
E
100
AcDbEntity
 67
     1
  8
0
100
AcDbBlockEnd
  0
ENDSEC
  0
SECTION
  2
ENTITIES
  0
LINE
  5
239
330
2
100
AcDbEntity
  8
0
  6
Continuous
100
AcDbLine
 10
1.895277958632118
 20
5.224300461042329
 30
0.0
 11
1.895277958632118
 21
5.849300461042443
 31
0.0
  0
LINE
  5
23A
330
2
100
AcDbEntity
  8
0
  6
Continuous
100
AcDbLine
 10
0.0827779586320894
 20
0.2144555937132644
 30
0.0
 11
0.0827779586320894
 21
9.156250000000018
 31
0.0
  0
LINE
  5
23B
330
2
100
AcDbEntity
  8
0
100
AcDbLine
 10
0.1320879895316161
 20
9.156250000000021
 30
0.0
 11
0.1320879895316303
 21
0.1692424821282685
 31
0.0
  0
LINE
  5
23C
330
2
100
AcDbEntity
  8
0
  6
Continuous
100
AcDbLine
 10
3.530081349225409
 20
0.1776966094066044
 30
0.0
 11
2.500671177445547
 21
1.267554790360871
 31
0.0
  0
LINE
  5
23D
330
2
100
AcDbEntity
  8
0
  6
HIDDEN
100
AcDbLine
 10
3.678557303343435
 20
0.0624999999999893
 30
0.0
 11
0.2098073033434353
 21
0.0625000000000089
 31
0.0
  0
LINE
  5
23E
330
2
100
AcDbEntity
  8
0
100
AcDbLine
 10
3.707081793688193
 20
-0.0000000000000107
 30
0.0
 11
0.2098073033434353
 21
0.0000000000000089
 31
0.0
  0
ARC
  5
23F
330
2
100
AcDbEntity
  8
0
  6
Continuous
100
AcDbCircle
 10
-0.229722041367797
 20
-0.1758567811866545
 30
0.0
 40
0.4999999999999437
100
AcDbArc
 50
28.47097865576724
 51
51.31781254652735
  0
LINE
  5
240
330
2
100
AcDbEntity
  8
0
100
AcDbLine
 10
0.2098073033434353
 20
0.0625000000000089
 30
0.0
 11
0.2098073033434353
 21
0.0000000000000089
 31
0.0
  0
LINE
  5
241
330
2
100
AcDbEntity
  8
0
100
AcDbLine
 10
3.616057303343435
 20
0.0624999999999893
 30
0.0
 11
3.707081793688193
 21
0.0624999999999893
 31
0.0
  0
LINE
  5
242
330
2
100
AcDbEntity
  8
0
100
AcDbLine
 10
3.707081793688193
 20
-0.0000000000000107
 30
0.0
 11
3.707081793688193
 21
0.0624999999999893
 31
0.0
  0
ARC
  5
243
330
2
100
AcDbEntity
  8
0
  6
Continuous
100
AcDbCircle
 10
3.176527958632203
 20
-0.1758567811866545
 30
0.0
 40
0.4999999999999432
100
AcDbArc
 50
20.59216011371907
 51
45.00000000000464
  0
CIRCLE
  5
244
330
2
100
AcDbEntity
  8
0
  6
Continuous
100
AcDbCircle
 10
1.926527958632089
 20
2.734374999999988
 30
0.0
 40
0.0855
  0
ARC
  5
245
330
2
100
AcDbEntity
  8
0
  6
Continuous
100
AcDbCircle
 10
0.0827779586321036
 20
2.641624999999864
 30
0.0
 40
0.1875
100
AcDbArc
 50
285.2473642457561
 51
74.75263575424388
  0
LINE
  5
246
330
2
100
AcDbEntity
  8
0
  6
Continuous
100
AcDbLine
 10
2.207777958632104
 20
1.974661571547452
 30
0.0
 11
2.207777958632146
 21
3.224300461042313
 31
0.0
  0
ARC
  5
247
330
2
100
AcDbEntity
  8
0
  6
Continuous
100
AcDbCircle
 10
3.207777958632107
 20
1.97466157154741
 30
0.0
 40
1.000000000000003
100
AcDbArc
 50
179.9999999999976
 51
224.9999999999991
  0
CIRCLE
  5
248
330
2
100
AcDbEntity
  8
0
  6
Continuous
100
AcDbCircle
 10
1.332777958632111
 20
1.359374999999988
 30
0.0
 40
0.0855
  0
CIRCLE
  5
249
330
2
100
AcDbEntity
  8
0
  6
Continuous
100
AcDbCircle
 10
1.806865901609488
 20
1.265624999999988
 30
0.0
 40
0.0855
  0
CIRCLE
  5
24A
330
2
100
AcDbEntity
  8
0
  6
Continuous
100
AcDbCircle
 10
1.020777958632163
 20
1.859374999999988
 30
0.0
 40
0.0855
  0
CIRCLE
  5
24B
330
2
100
AcDbEntity
  8
0
  6
Continuous
100
AcDbCircle
 10
1.614027958632104
 20
2.359374999999988
 30
0.0
 40
0.0855
  0
ARC
  5
24C
330
2
100
AcDbEntity
  8
0
  6
Continuous
100
AcDbCircle
 10
0.2727779586321155
 20
3.406249999999888
 30
0.0
 40
0.06
100
AcDbArc
 50
301.631166275524
 51
58.36883372447566
  0
LINE
  5
24D
330
2
100
AcDbEntity
  8
0
  6
Continuous
100
AcDbLine
 10
0.1320879895316374
 20
3.249122719822841
 30
0.0
 11
0.304244906360406
 21
3.355163492968538
 31
0.0
  0
LINE
  5
24E
330
2
100
AcDbEntity
  8
0
  6
Continuous
100
AcDbLine
 10
0.1320879895316374
 20
3.563377280176923
 30
0.0
 11
0.304244906360406
 21
3.457336507031238
 31
0.0
  0
ARC
  5
24F
330
2
100
AcDbEntity
  8
0
  6
Continuous
100
AcDbCircle
 10
0.2727779586321155
 20
4.90624999999989
 30
0.0
 40
0.06
100
AcDbArc
 50
301.631166275524
 51
58.36883372447566
  0
LINE
  5
250
330
2
100
AcDbEntity
  8
0
  6
Continuous
100
AcDbLine
 10
0.1320879895316374
 20
5.063377280176923
 30
0.0
 11
0.304244906360406
 21
4.95733650703124
 31
0.0
  0
LINE
  5
251
330
2
100
AcDbEntity
  8
0
  6
Continuous
100
AcDbLine
 10
0.1320879895316232
 20
4.749122719822839
 30
0.0
 11
0.304244906360406
 21
4.85516349296854
 31
0.0
  0
LINE
  5
252
330
2
100
AcDbEntity
  8
0
  6
Continuous
100
AcDbLine
 10
1.895277958632118
 20
3.474300461042342
 30
0.0
 11
1.895277958632146
 21
4.099300461042327
 31
0.0
  0
CIRCLE
  5
253
330
2
100
AcDbEntity
  8
0
  6
Continuous
100
AcDbCircle
 10
1.020777958632163
 20
3.359374999999988
 30
0.0
 40
0.0855
  0
ARC
  5
254
330
2
100
AcDbEntity
  8
0
  6
Continuous
100
AcDbCircle
 10
2.020277958632132
 20
3.474300461042349
 30
0.0
 40
0.1250000000000142
100
AcDbArc
 50
180.0
 51
270.0000000000065
  0
ARC
  5
255
330
2
100
AcDbEntity
  8
0
  6
Continuous
100
AcDbCircle
 10
2.082777958632132
 20
3.22430046104232
 30
0.0
 40
0.1250000000000142
100
AcDbArc
 50
0.000000000000007
 51
90.00000000000649
  0
LINE
  5
256
330
2
100
AcDbEntity
  8
0
  6
Continuous
100
AcDbLine
 10
2.082777958632118
 20
3.349300461042327
 30
0.0
 11
2.020277958632146
 21
3.349300461042327
 31
0.0
  0
CIRCLE
  5
257
330
2
100
AcDbEntity
  8
0
  6
Continuous
100
AcDbCircle
 10
1.614027958632104
 20
3.859374999999988
 30
0.0
 40
0.0855
  0
LINE
  5
25B
330
2
100
AcDbEntity
  8
0
  6
Continuous
100
AcDbLine
 10
2.207777958632118
 20
4.349300461042327
 30
0.0
 11
2.207777958632146
 21
4.974300461042329
 31
0.0
  0
ARC
  5
25C
330
2
100
AcDbEntity
  8
0
  6
Continuous
100
AcDbCircle
 10
2.082777958632132
 20
4.34930046104232
 30
0.0
 40
0.1249999999999858
100
AcDbArc
 50
270.0000000000065
 51
0.0000000000064699
  0
LINE
  5
25D
330
2
100
AcDbEntity
  8
0
  6
Continuous
100
AcDbLine
 10
2.020277958632118
 20
4.224300461042327
 30
0.0
 11
2.082777958632146
 21
4.224300461042327
 31
0.0
  0
ARC
  5
25E
330
2
100
AcDbEntity
  8
0
  6
Continuous
100
AcDbCircle
 10
2.020277958632132
 20
4.099300461042349
 30
0.0
 40
0.1249999999999858
100
AcDbArc
 50
90.00000000000649
 51
180.0000000000066
  0
ARC
  5
25F
330
2
100
AcDbEntity
  8
0
  6
Continuous
100
AcDbCircle
 10
2.082777958632132
 20
4.974300461042322
 30
0.0
 40
0.1250000000000142
100
AcDbArc
 50
0.0000000000064699
 51
90.00000000000649
  0
LINE
  5
260
330
2
100
AcDbEntity
  8
0
  6
Continuous
100
AcDbLine
 10
2.082777958632118
 20
5.099300461042329
 30
0.0
 11
2.020277958632146
 21
5.099300461042329
 31
0.0
  0
ARC
  5
261
330
2
100
AcDbEntity
  8
0
  6
Continuous
100
AcDbCircle
 10
2.020277958632132
 20
5.224300461042351
 30
0.0
 40
0.1250000000000142
100
AcDbArc
 50
180.0000000000066
 51
270.0000000000065
  0
LINE
  5
262
330
2
100
AcDbEntity
  8
0
  6
Continuous
100
AcDbLine
 10
1.895277958632082
 20
6.9743004610424
 30
0.0
 11
1.895277958632121
 21
7.849300461042386
 31
0.0
  0
LINE
  5
264
330
2
100
AcDbEntity
  8
0
  6
Continuous
100
AcDbLine
 10
0.1320879895316303
 20
6.579002280176916
 30
0.0
 11
0.3042449063603989
 21
6.472961507031233
 31
0.0
  0
LINE
  5
265
330
2
100
AcDbEntity
  8
0
  6
Continuous
100
AcDbLine
 10
0.1320879895316161
 20
6.264747719822832
 30
0.0
 11
0.3042449063603989
 21
6.370788492968533
 31
0.0
  0
ARC
  5
266
330
2
100
AcDbEntity
  8
0
  6
Continuous
100
AcDbCircle
 10
0.2727779586321084
 20
6.421874999999883
 30
0.0
 40
0.06
100
AcDbArc
 50
301.631166275524
 51
58.36883372447566
  0
LINE
  5
267
330
2
100
AcDbEntity
  8
0
  6
Continuous
100
AcDbLine
 10
2.207777958632089
 20
6.099300461042386
 30
0.0
 11
2.207777958632118
 21
6.724300461042386
 31
0.0
  0
ARC
  5
26A
330
2
100
AcDbEntity
  8
0
  6
Continuous
100
AcDbCircle
 10
2.020277958632075
 20
5.849300461042429
 30
0.0
 40
0.1249999999999574
100
AcDbArc
 50
89.99999999999351
 51
179.9999999999935
  0
LINE
  5
26B
330
2
100
AcDbEntity
  8
0
  6
Continuous
100
AcDbLine
 10
1.895277958632118
 20
5.849300461042443
 30
0.0
 11
1.895277958632118
 21
5.849300461042443
 31
0.0
  0
ARC
  5
26C
330
2
100
AcDbEntity
  8
0
  6
Continuous
100
AcDbCircle
 10
2.082777958632132
 20
6.0993004610424
 30
0.0
 40
0.1249999999999574
100
AcDbArc
 50
269.9999999999935
 51
359.9999999999935
  0
LINE
  5
26D
330
2
100
AcDbEntity
  8
0
  6
Continuous
100
AcDbLine
 10
2.020277958632089
 20
5.974300461042386
 30
0.0
 11
2.082777958632118
 21
5.974300461042443
 31
0.0
  0
ARC
  5
26F
330
2
100
AcDbEntity
  8
0
  6
Continuous
100
AcDbCircle
 10
2.082777958632097
 20
6.724300461042365
 30
0.0
 40
0.1250000000000213
100
AcDbArc
 50
0.0000000000097777
 51
90.00000000000328
  0
LINE
  5
270
330
2
100
AcDbEntity
  8
0
  6
Continuous
100
AcDbLine
 10
2.082777958632089
 20
6.849300461042386
 30
0.0
 11
2.020277958632118
 21
6.849300461042386
 31
0.0
  0
ARC
  5
271
330
2
100
AcDbEntity
  8
0
  6
Continuous
100
AcDbCircle
 10
2.020277958632097
 20
6.9743004610424
 30
0.0
 40
0.1250000000000178
100
AcDbArc
 50
180.0000000000016
 51
270.0000000000098
  0
CIRCLE
  5
272
330
2
100
AcDbEntity
  8
0
  6
Continuous
100
AcDbCircle
 10
1.6140279586321
 20
7.624999999999996
 30
0.0
 40
0.0855
  0
LINE
  5
273
330
2
100
AcDbEntity
  8
0
  6
Continuous
100
AcDbLine
 10
0.0827779586320823
 20
9.156250000000018
 30
0.0
 11
1.895277958632082
 21
9.156250000000011
 31
0.0
  0
ARC
  5
274
330
2
100
AcDbEntity
  8
0
  6
Continuous
100
AcDbCircle
 10
0.272777958632112
 20
8.421874999999996
 30
0.0
 40
0.06
100
AcDbArc
 50
301.6311662755242
 51
58.36883372447584
  0
LINE
  5
275
330
2
100
AcDbEntity
  8
0
  6
Continuous
100
AcDbLine
 10
0.0827779586320965
 20
8.234374999999996
 30
0.0
 11
0.304244906360406
 21
8.370788492968654
 31
0.0
  0
LINE
  5
276
330
2
100
AcDbEntity
  8
0
  6
Continuous
100
AcDbLine
 10
0.0827779586320965
 20
8.609374999999996
 30
0.0
 11
0.304244906360406
 21
8.472961507031354
 31
0.0
  0
LINE
  5
277
330
2
100
AcDbEntity
  8
0
  6
Continuous
100
AcDbLine
 10
1.895277958632068
 20
8.974300461042528
 30
0.0
 11
1.895277958632082
 21
9.156250000000011
 31
0.0
  0
CIRCLE
  5
279
330
2
100
AcDbEntity
  8
0
  6
Continuous
100
AcDbCircle
 10
1.020777958632159
 20
8.093749999999996
 30
0.0
 40
0.0855
  0
CIRCLE
  5
27B
330
2
100
AcDbEntity
  8
0
  6
Continuous
100
AcDbCircle
 10
1.207777958632136
 20
8.828124999999996
 30
0.0
 40
0.0855
  0
LINE
  5
27C
330
2
100
AcDbEntity
  8
0
  6
Continuous
100
AcDbLine
 10
2.207777958632089
 20
8.099300461042386
 30
0.0
 11
2.207777958632111
 21
8.7243004610425
 31
0.0
  0
ARC
  5
27D
330
2
100
AcDbEntity
  8
0
  6
Continuous
100
AcDbCircle
 10
2.082777958632107
 20
8.099300461042372
 30
0.0
 40
0.1249999999999858
100
AcDbArc
 50
270.0000000000065
 51
0.0000000000065208
  0
LINE
  5
27E
330
2
100
AcDbEntity
  8
0
  6
Continuous
100
AcDbLine
 10
2.020277958632089
 20
7.974300461042386
 30
0.0
 11
2.082777958632118
 21
7.974300461042386
 31
0.0
  0
ARC
  5
27F
330
2
100
AcDbEntity
  8
0
  6
Continuous
100
AcDbCircle
 10
2.020277958632107
 20
7.8493004610424
 30
0.0
 40
0.1249999999999858
100
AcDbArc
 50
90.00000000000654
 51
180.0000000000066
  0
ARC
  5
280
330
2
100
AcDbEntity
  8
0
  6
Continuous
100
AcDbCircle
 10
2.082777958632093
 20
8.724300461042478
 30
0.0
 40
0.1250000000000213
100
AcDbArc
 50
0.0000000000097777
 51
90.00000000000328
  0
ARC
  5
281
330
2
100
AcDbEntity
  8
0
  6
Continuous
100
AcDbCircle
 10
2.0202779586321
 20
8.974300461042528
 30
0.0
 40
0.1250000000000284
100
AcDbArc
 50
180.0
 51
270.0000000000065
  0
LINE
  5
282
330
2
100
AcDbEntity
  8
0
  6
Continuous
100
AcDbLine
 10
2.082777958632082
 20
8.8493004610425
 30
0.0
 11
2.020277958632111
 21
8.8493004610425
 31
0.0
  0
LINE
  5
2CA
330
2
100
AcDbEntity
  8
0
  6
Continuous
100
AcDbLine
 10
1.059402958632159
 20
4.753972949821115
 30
0.0
 11
0.8966529586321705
 21
4.847936706131716
 31
0.0
  0
ARC
  5
2CB
330
2
100
AcDbEntity
  8
0
  6
Continuous
100
AcDbCircle
 10
0.9122779586321705
 20
4.874999999999982
 30
0.0
 40
0.031250000000003
100
AcDbArc
 50
119.9999999999987
 51
240.0000000000013
  0
LINE
  5
2CC
330
2
100
AcDbEntity
  8
0
  6
Continuous
100
AcDbLine
 10
0.8966529586321705
 20
4.902063293868249
 30
0.0
 11
1.059402958632159
 21
4.996027050178849
 31
0.0
  0
ARC
  5
2CD
330
2
100
AcDbEntity
  8
0
  6
Continuous
100
AcDbCircle
 10
1.075027958632159
 20
4.968963756310584
 30
0.0
 40
0.0312500000000006
100
AcDbArc
 50
359.9999999999968
 51
119.9999999999975
  0
LINE
  5
2CE
330
2
100
AcDbEntity
  8
0
  6
Continuous
100
AcDbLine
 10
1.106277958632159
 20
4.968963756310583
 30
0.0
 11
1.106277958632159
 21
4.874999999999996
 31
0.0
  0
LINE
  5
2CF
330
2
100
AcDbEntity
  8
0
  6
Continuous
100
AcDbLine
 10
1.106277958632159
 20
4.874999999999996
 30
0.0
 11
1.106277958632159
 21
4.781036243689382
 31
0.0
  0
ARC
  5
2D0
330
2
100
AcDbEntity
  8
0
  6
Continuous
100
AcDbCircle
 10
1.075027958632155
 20
4.781036243689382
 30
0.0
 40
0.0312500000000018
100
AcDbArc
 50
240.0000000000055
 51
0.0
  0
LINE
  5
2D1
330
2
100
AcDbEntity
  8
0
  6
Continuous
100
AcDbLine
 10
1.965152958632071
 20
4.597722949821129
 30
0.0
 11
1.802402958632069
 21
4.691686706131744
 31
0.0
  0
ARC
  5
2D2
330
2
100
AcDbEntity
  8
0
  6
Continuous
100
AcDbCircle
 10
1.818027958632069
 20
4.718750000000011
 30
0.0
 40
0.031250000000003
100
AcDbArc
 50
119.9999999999987
 51
240.0000000000013
  0
LINE
  5
2D3
330
2
100
AcDbEntity
  8
0
  6
Continuous
100
AcDbLine
 10
1.802402958632069
 20
4.745813293868277
 30
0.0
 11
1.965152958632071
 21
4.839777050178878
 31
0.0
  0
ARC
  5
2D4
330
2
100
AcDbEntity
  8
0
  6
Continuous
100
AcDbCircle
 10
1.980777958632068
 20
4.812713756310611
 30
0.0
 40
0.0312500000000017
100
AcDbArc
 50
0.0
 51
119.9999999999945
  0
LINE
  5
2D5
330
2
100
AcDbEntity
  8
0
  6
Continuous
100
AcDbLine
 10
2.012027958632071
 20
4.812713756310611
 30
0.0
 11
2.012027958632071
 21
4.718749999999996
 31
0.0
  0
LINE
  5
2D6
330
2
100
AcDbEntity
  8
0
  6
Continuous
100
AcDbLine
 10
2.012027958632071
 20
4.718749999999996
 30
0.0
 11
2.012027958632071
 21
4.624786243689396
 31
0.0
  0
ARC
  5
2D7
330
2
100
AcDbEntity
  8
0
  6
Continuous
100
AcDbCircle
 10
1.980777958632071
 20
4.624786243689394
 30
0.0
 40
0.0312500000000009
100
AcDbArc
 50
240.0000000000025
 51
0.0000000000032569
  0
LINE
  5
2D8
330
2
100
AcDbEntity
  8
0
  6
Continuous
100
AcDbLine
 10
1.371402958632114
 20
4.238347949821128
 30
0.0
 11
1.208652958632111
 21
4.332311706131728
 31
0.0
  0
ARC
  5
2D9
330
2
100
AcDbEntity
  8
0
  6
Continuous
100
AcDbCircle
 10
1.224277958632111
 20
4.359374999999995
 30
0.0
 40
0.031250000000003
100
AcDbArc
 50
119.9999999999987
 51
240.0000000000013
  0
LINE
  5
2DA
330
2
100
AcDbEntity
  8
0
  6
Continuous
100
AcDbLine
 10
1.208652958632111
 20
4.386438293868261
 30
0.0
 11
1.371402958632114
 21
4.480402050178876
 31
0.0
  0
ARC
  5
2DB
330
2
100
AcDbEntity
  8
0
  6
Continuous
100
AcDbCircle
 10
1.387027958632114
 20
4.453338756310611
 30
0.0
 40
0.0312500000000006
100
AcDbArc
 50
359.9999999999968
 51
119.9999999999975
  0
LINE
  5
2DC
330
2
100
AcDbEntity
  8
0
  6
Continuous
100
AcDbLine
 10
1.418277958632114
 20
4.453338756310609
 30
0.0
 11
1.418277958632114
 21
4.359374999999995
 31
0.0
  0
LINE
  5
2DD
330
2
100
AcDbEntity
  8
0
  6
Continuous
100
AcDbLine
 10
1.418277958632114
 20
4.359374999999995
 30
0.0
 11
1.418277958632114
 21
4.265411243689394
 31
0.0
  0
ARC
  5
2DE
330
2
100
AcDbEntity
  8
0
  6
Continuous
100
AcDbCircle
 10
1.387027958632114
 20
4.265411243689393
 30
0.0
 40
0.0312500000000009
100
AcDbArc
 50
240.0000000000025
 51
0.0000000000032569
  0
LINE
  5
2DF
330
2
100
AcDbEntity
  8
0
  6
Continuous
100
AcDbLine
 10
1.059402958632152
 20
7.972722949821129
 30
0.0
 11
0.8966529586321634
 21
8.06668670613173
 31
0.0
  0
ARC
  5
2E0
330
2
100
AcDbEntity
  8
0
  6
Continuous
100
AcDbCircle
 10
0.9122779586321634
 20
8.093749999999996
 30
0.0
 40
0.031250000000003
100
AcDbArc
 50
119.9999999999987
 51
240.0000000000013
  0
LINE
  5
2E1
330
2
100
AcDbEntity
  8
0
  6
Continuous
100
AcDbLine
 10
0.8966529586321634
 20
8.120813293868263
 30
0.0
 11
1.059402958632152
 21
8.214777050178878
 31
0.0
  0
ARC
  5
2E2
330
2
100
AcDbEntity
  8
0
  6
Continuous
100
AcDbCircle
 10
1.075027958632152
 20
8.187713756310611
 30
0.0
 40
0.0312500000000021
100
AcDbArc
 50
0.0
 51
119.9999999999959
  0
LINE
  5
2E3
330
2
100
AcDbEntity
  8
0
  6
Continuous
100
AcDbLine
 10
1.106277958632152
 20
8.187713756310611
 30
0.0
 11
1.106277958632152
 21
8.093749999999996
 31
0.0
  0
LINE
  5
2E4
330
2
100
AcDbEntity
  8
0
  6
Continuous
100
AcDbLine
 10
1.106277958632152
 20
8.093749999999996
 30
0.0
 11
1.106277958632152
 21
7.999786243689396
 31
0.0
  0
ARC
  5
2E5
330
2
100
AcDbEntity
  8
0
  6
Continuous
100
AcDbCircle
 10
1.075027958632152
 20
7.999786243689396
 30
0.0
 40
0.0312500000000009
100
AcDbArc
 50
240.0000000000041
 51
0.0
  0
LINE
  5
2E6
330
2
100
AcDbEntity
  8
0
100
AcDbLine
 10
1.059402958632152
 20
5.972722949821002
 30
0.0
 11
0.8966529586321634
 21
6.066686706131602
 31
0.0
  0
ARC
  5
2E7
330
2
100
AcDbEntity
  8
0
100
AcDbCircle
 10
0.9122779586321634
 20
6.093749999999869
 30
0.0
 40
0.031250000000003
100
AcDbArc
 50
119.9999999999987
 51
240.0000000000013
  0
LINE
  5
2E8
330
2
100
AcDbEntity
  8
0
100
AcDbLine
 10
0.8966529586321634
 20
6.120813293868135
 30
0.0
 11
1.059402958632152
 21
6.21477705017875
 31
0.0
  0
ARC
  5
2E9
330
2
100
AcDbEntity
  8
0
100
AcDbCircle
 10
1.075027958632152
 20
6.187713756310483
 30
0.0
 40
0.0312500000000021
100
AcDbArc
 50
0.0
 51
119.9999999999959
  0
LINE
  5
2EA
330
2
100
AcDbEntity
  8
0
100
AcDbLine
 10
1.106277958632152
 20
6.187713756310483
 30
0.0
 11
1.106277958632152
 21
6.093749999999869
 31
0.0
  0
LINE
  5
2EB
330
2
100
AcDbEntity
  8
0
100
AcDbLine
 10
1.106277958632152
 20
6.093749999999869
 30
0.0
 11
1.106277958632152
 21
5.999786243689268
 31
0.0
  0
ARC
  5
2EC
330
2
100
AcDbEntity
  8
0
100
AcDbCircle
 10
1.075027958632152
 20
5.999786243689268
 30
0.0
 40
0.0312500000000009
100
AcDbArc
 50
240.0000000000041
 51
0.0
  0
LINE
  5
2ED
330
2
100
AcDbEntity
  8
0
  6
Continuous
100
AcDbLine
 10
1.652652958632107
 20
7.503972949821129
 30
0.0
 11
1.489902958632104
 21
7.59793670613173
 31
0.0
  0
ARC
  5
2EE
330
2
100
AcDbEntity
  8
0
  6
Continuous
100
AcDbCircle
 10
1.505527958632104
 20
7.624999999999996
 30
0.0
 40
0.031250000000003
100
AcDbArc
 50
119.9999999999987
 51
240.0000000000013
  0
LINE
  5
2EF
330
2
100
AcDbEntity
  8
0
  6
Continuous
100
AcDbLine
 10
1.489902958632104
 20
7.652063293868263
 30
0.0
 11
1.652652958632107
 21
7.746027050178878
 31
0.0
  0
ARC
  5
2F0
330
2
100
AcDbEntity
  8
0
  6
Continuous
100
AcDbCircle
 10
1.668277958632107
 20
7.718963756310611
 30
0.0
 40
0.0312500000000021
100
AcDbArc
 50
0.0
 51
119.9999999999959
  0
LINE
  5
2F1
330
2
100
AcDbEntity
  8
0
  6
Continuous
100
AcDbLine
 10
1.699527958632107
 20
7.718963756310611
 30
0.0
 11
1.699527958632107
 21
7.624999999999996
 31
0.0
  0
LINE
  5
2F2
330
2
100
AcDbEntity
  8
0
  6
Continuous
100
AcDbLine
 10
1.699527958632107
 20
7.624999999999996
 30
0.0
 11
1.699527958632107
 21
7.531036243689396
 31
0.0
  0
ARC
  5
2F3
330
2
100
AcDbEntity
  8
0
  6
Continuous
100
AcDbCircle
 10
1.668277958632107
 20
7.531036243689396
 30
0.0
 40
0.0312500000000009
100
AcDbArc
 50
240.0000000000041
 51
0.0
  0
LINE
  5
2F4
330
2
100
AcDbEntity
  8
0
100
AcDbLine
 10
1.652652958632107
 20
5.503972949821002
 30
0.0
 11
1.489902958632104
 21
5.597936706131602
 31
0.0
  0
ARC
  5
2F5
330
2
100
AcDbEntity
  8
0
100
AcDbCircle
 10
1.505527958632104
 20
5.624999999999869
 30
0.0
 40
0.031250000000003
100
AcDbArc
 50
119.9999999999987
 51
240.0000000000013
  0
LINE
  5
2F6
330
2
100
AcDbEntity
  8
0
100
AcDbLine
 10
1.489902958632104
 20
5.652063293868135
 30
0.0
 11
1.652652958632107
 21
5.74602705017875
 31
0.0
  0
ARC
  5
2F7
330
2
100
AcDbEntity
  8
0
100
AcDbCircle
 10
1.668277958632107
 20
5.718963756310483
 30
0.0
 40
0.0312500000000021
100
AcDbArc
 50
0.0
 51
119.9999999999959
  0
LINE
  5
2F8
330
2
100
AcDbEntity
  8
0
100
AcDbLine
 10
1.699527958632107
 20
5.718963756310483
 30
0.0
 11
1.699527958632107
 21
5.624999999999869
 31
0.0
  0
LINE
  5
2F9
330
2
100
AcDbEntity
  8
0
100
AcDbLine
 10
1.699527958632107
 20
5.624999999999869
 30
0.0
 11
1.699527958632107
 21
5.531036243689268
 31
0.0
  0
ARC
  5
2FA
330
2
100
AcDbEntity
  8
0
100
AcDbCircle
 10
1.668277958632107
 20
5.531036243689268
 30
0.0
 40
0.0312500000000009
100
AcDbArc
 50
240.0000000000041
 51
0.0
  0
LINE
  5
2FB
330
2
100
AcDbEntity
  8
0
100
AcDbLine
 10
1.246402958632128
 20
6.949152050178721
 30
0.0
 11
1.083652958632147
 21
6.855188293868135
 31
0.0
  0
ARC
  5
2FC
330
2
100
AcDbEntity
  8
0
100
AcDbCircle
 10
1.099277958632147
 20
6.828124999999869
 30
0.0
 40
0.031250000000003
100
AcDbArc
 50
119.9999999999987
 51
240.0000000000013
  0
LINE
  5
2FD
330
2
100
AcDbEntity
  8
0
100
AcDbLine
 10
1.083652958632147
 20
6.801061706131602
 30
0.0
 11
1.246402958632128
 21
6.707097949821002
 31
0.0
  0
ARC
  5
2FE
330
2
100
AcDbEntity
  8
0
100
AcDbCircle
 10
1.262027958632128
 20
6.734161243689268
 30
0.0
 40
0.0312500000000021
100
AcDbArc
 50
240.0000000000041
 51
0.0
  0
LINE
  5
2FF
330
2
100
AcDbEntity
  8
0
100
AcDbLine
 10
1.293277958632128
 20
6.734161243689268
 30
0.0
 11
1.293277958632135
 21
6.828124999999869
 31
0.0
  0
LINE
  5
300
330
2
100
AcDbEntity
  8
0
100
AcDbLine
 10
1.293277958632135
 20
6.828124999999869
 30
0.0
 11
1.293277958632128
 21
6.922088756310455
 31
0.0
  0
ARC
  5
301
330
2
100
AcDbEntity
  8
0
100
AcDbCircle
 10
1.262027958632128
 20
6.922088756310455
 30
0.0
 40
0.0312500000000009
100
AcDbArc
 50
0.0
 51
119.9999999999959
  0
LINE
  5
302
330
2
100
AcDbEntity
  8
0
  6
Continuous
100
AcDbLine
 10
1.246402958632128
 20
8.949152050178849
 30
0.0
 11
1.083652958632147
 21
8.855188293868263
 31
0.0
  0
ARC
  5
303
330
2
100
AcDbEntity
  8
0
  6
Continuous
100
AcDbCircle
 10
1.099277958632147
 20
8.828124999999996
 30
0.0
 40
0.031250000000003
100
AcDbArc
 50
119.9999999999987
 51
240.0000000000013
  0
LINE
  5
304
330
2
100
AcDbEntity
  8
0
  6
Continuous
100
AcDbLine
 10
1.083652958632147
 20
8.80106170613173
 30
0.0
 11
1.246402958632128
 21
8.707097949821129
 31
0.0
  0
ARC
  5
305
330
2
100
AcDbEntity
  8
0
  6
Continuous
100
AcDbCircle
 10
1.262027958632128
 20
8.734161243689396
 30
0.0
 40
0.0312500000000021
100
AcDbArc
 50
240.0000000000041
 51
0.0
  0
LINE
  5
306
330
2
100
AcDbEntity
  8
0
  6
Continuous
100
AcDbLine
 10
1.293277958632128
 20
8.734161243689396
 30
0.0
 11
1.293277958632135
 21
8.828124999999996
 31
0.0
  0
LINE
  5
307
330
2
100
AcDbEntity
  8
0
  6
Continuous
100
AcDbLine
 10
1.293277958632135
 20
8.828124999999996
 30
0.0
 11
1.293277958632128
 21
8.922088756310583
 31
0.0
  0
ARC
  5
308
330
2
100
AcDbEntity
  8
0
  6
Continuous
100
AcDbCircle
 10
1.262027958632128
 20
8.922088756310583
 30
0.0
 40
0.0312500000000009
100
AcDbArc
 50
0.0
 51
119.9999999999959
  0
ENDSEC
  0
SECTION
  2
OBJECTS
  0
DICTIONARY
  5
9
330
0
100
AcDbDictionary
281
     1
  3
ACAD_COLOR
350
357
  3
ACAD_GROUP
350
23
  3
ACAD_LAYOUT
350
D
  3
ACAD_MATERIAL
350
356
  3
ACAD_MLINESTYLE
350
24
  3
ACAD_PLOTSETTINGS
350
25
  3
ACAD_PLOTSTYLENAME
350
8
  3
ACAD_TABLESTYLE
350
358
  3
ACDBHEADERROUNDTRIPXREC
350
379
  3
AcDbVariableDictionary
350
178
  0
DICTIONARY
  5
357
102
{ACAD_REACTORS
330
9
102
}
330
9
100
AcDbDictionary
281
     1
  0
DICTIONARY
  5
23
102
{ACAD_REACTORS
330
9
102
}
330
9
100
AcDbDictionary
281
     1
  0
DICTIONARY
  5
D
102
{ACAD_REACTORS
330
9
102
}
330
9
100
AcDbDictionary
281
     1
  3
Layout1
350
13
  3
Model
350
C
  0
DICTIONARY
  5
356
102
{ACAD_REACTORS
330
9
102
}
330
9
100
AcDbDictionary
281
     1
  0
DICTIONARY
  5
24
102
{ACAD_REACTORS
330
9
102
}
330
9
100
AcDbDictionary
281
     1
  3
STANDARD
350
27
  0
DICTIONARY
  5
25
102
{ACAD_REACTORS
330
9
102
}
330
9
100
AcDbDictionary
281
     1
  0
ACDBDICTIONARYWDFLT
  5
8
102
{ACAD_REACTORS
330
9
102
}
330
9
100
AcDbDictionary
281
     1
  3
Normal
350
7
100
AcDbDictionaryWithDefault
340
7
  0
DICTIONARY
  5
358
102
{ACAD_REACTORS
330
9
102
}
330
9
100
AcDbDictionary
281
     1
  3
Standard
350
359
  0
DICTIONARY
  5
379
102
{ACAD_REACTORS
330
9
102
}
330
9
100
AcDbDictionary
281
     1
  3
COLORDICT
350
37A
  3
MATERIALDICT
350
37B
  0
DICTIONARY
  5
178
102
{ACAD_REACTORS
330
9
102
}
330
9
100
AcDbDictionary
281
     1
  3
CTABLESTYLE
350
366
  3
HIDETEXT
350
378
  0
LAYOUT
  5
13
102
{ACAD_REACTORS
330
D
102
}
102
{ACAD_XDICTIONARY
360
37C
102
}
330
D
100
AcDbPlotSettings
  1

  2
C:\ACAD2000\plotters\HP LaserJet 2100 Series PS.pc3
  4

  6

 40
0.0
 41
0.0
 42
0.0
 43
0.0
 44
0.0
 45
0.0
 46
0.0
 47
0.0
 48
0.0
 49
0.0
140
0.0
141
0.0
142
1.0
143
1.0
 70
   688
 72
     0
 73
     0
 74
     5
  7

 75
    16
147
1.0
148
0.0
149
0.0
100
AcDbLayout
  1
Layout1
 70
     0
 71
     1
 10
0.0
 20
0.0
 11
12.0
 21
9.0
 12
0.0
 22
0.0
 32
0.0
 14
1.000000000000000E+20
 24
1.000000000000000E+20
 34
1.000000000000000E+20
 15
-1.000000000000000E+20
 25
-1.000000000000000E+20
 35
-1.000000000000000E+20
146
0.0
 13
0.0
 23
0.0
 33
0.0
 16
1.0
 26
0.0
 36
0.0
 17
0.0
 27
1.0
 37
0.0
 76
     0
330
E
  0
LAYOUT
  5
C
102
{ACAD_REACTORS
330
D
102
}
102
{ACAD_XDICTIONARY
360
37E
102
}
330
D
100
AcDbPlotSettings
  1

  2
HP LaserJet 2100 Series PS
  4
Letter
  6

 40
3.174999952316284
 41
3.174999952316284
 42
3.175003051757813
 43
3.17498779296875
 44
215.9000091552734
 45
279.3999938964844
 46
0.0
 47
0.0
 48
0.0
 49
0.0
140
0.0
141
0.0
142
1.0
143
5.090908941468881
 70
 28336
 72
     0
 73
     1
 74
     2
  7

 75
     0
147
0.1964285771946001
148
0.0
149
0.0
100
AcDbLayout
  1
Model
 70
     1
 71
     0
 10
0.0
 20
0.0
 11
12.0
 21
9.0
 12
0.0
 22
0.0
 32
0.0
 14
0.0
 24
0.0
 34
0.0
 15
0.0
 25
0.0
 35
0.0
146
0.0
 13
0.0
 23
0.0
 33
0.0
 16
1.0
 26
0.0
 36
0.0
 17
0.0
 27
1.0
 37
0.0
 76
     0
330
2
  0
MLINESTYLE
  5
27
102
{ACAD_REACTORS
330
24
102
}
330
24
100
AcDbMlineStyle
  2
STANDARD
 70
     0
  3

 62
   256
 51
90.0
 52
90.0
 71
     2
 49
0.5
 62
   256
  6
BYLAYER
 49
-0.5
 62
   256
  6
BYLAYER
  0
ACDBPLACEHOLDER
  5
7
102
{ACAD_REACTORS
330
8
102
}
330
8
  0
ACAD_PROXY_OBJECT
  5
359
102
{ACAD_REACTORS
330
358
102
}
330
358
100
AcDbProxyObject
 90
      499
 91
      585
 95
   983063
 70
     0
 93
     1841
310
4214DD185B99185C9928B81E85EB51B8AE3F2E07A17AD46E2B8FC02B5E8DC0F42B1CFD028000000C1008070000C3001FDFF8000000C1003FBFF000000182007F7FE00000030400FEFFC00000060801FDFF8000000C1003FBFF00000018200000000000000681FA0B0000001820100E000186003FBFF000000182007F7FE000
310
00030400FEFFC00000060801FDFF8000000C1003FBFF000000182007F7FE000000304000AD7A3703D0AC73F4160000003040201C00030C007F7FE00000030400FEFFC00000060801FDFF8000000C1003FBFF000000182007F7FE00000030400FEFFC000000608000
340
16
340
16
340
16
 94
        0
  0
XRECORD
  5
37A
102
{ACAD_REACTORS
330
379
102
}
330
379
100
AcDbXrecord
340
357
  0
XRECORD
  5
37B
102
{ACAD_REACTORS
330
379
102
}
330
379
100
AcDbXrecord
340
356
  0
DICTIONARYVAR
  5
366
102
{ACAD_REACTORS
330
178
102
}
330
178
100
DictionaryVariables
280
     0
  1
STANDARD
  0
DICTIONARYVAR
  5
378
102
{ACAD_REACTORS
330
178
102
}
330
178
100
DictionaryVariables
280
     0
  1
0
  0
DICTIONARY
  5
37C
330
13
100
AcDbDictionary
280
     1
281
     1
  3
ACAD_XREC_ROUNDTRIP
360
37D
  0
DICTIONARY
  5
37E
330
C
100
AcDbDictionary
280
     1
281
     1
  3
ACAD_XREC_ROUNDTRIP
360
37F
  0
XRECORD
  5
37D
102
{ACAD_REACTORS
330
37C
102
}
330
37C
100
AcDbXrecord
102
SHADEPLOT
 70
     0
102
SHADEPLOTRESLEVEL
 70
     2
102
SHADEPLOTCUSTOMDPI
 70
   300
  0
XRECORD
  5
37F
102
{ACAD_REACTORS
330
37E
102
}
330
37E
100
AcDbXrecord
102
SHADEPLOT
 70
     0
102
SHADEPLOTRESLEVEL
 70
     2
102
SHADEPLOTCUSTOMDPI
 70
   300
  0
ENDSEC
  0
EOF
