  0
SECTION
  2
HEADER
  9
$ACADVER
  1
AC1015
  9
$ACADMAINTVER
 70
     6
  9
$DWGCODEPAGE
  3
ANSI_1252
  9
$INSBASE
 10
0.0
 20
0.0
 30
0.0
  9
$EXTMIN
 10
-0.2909506368269526
 20
-0.0258883476483149
 30
0.0
  9
$EXTMAX
 10
21.58843069980928
 20
19.25836658179453
 30
0.0
  9
$LIMMIN
 10
0.0
 20
0.0
  9
$LIMMAX
 10
42.0
 20
32.0
  9
$ORTHOMODE
 70
     1
  9
$REGENMODE
 70
     1
  9
$FILLMODE
 70
     1
  9
$QTEXTMODE
 70
     0
  9
$MIRRTEXT
 70
     0
  9
$LTSCALE
 40
0.5
  9
$ATTMODE
 70
     1
  9
$TEXTSIZE
 40
0.36
  9
$TRACEWID
 40
0.05
  9
$TEXTSTYLE
  7
STANDARD
  9
$CLAYER
  8
0
  9
$CELTYPE
  6
BYLAYER
  9
$CECOLOR
 62
   256
  9
$CELTSCALE
 40
1.0
  9
$DISPSILH
 70
     0
  9
$DIMSCALE
 40
4.0
  9
$DIMASZ
 40
0.125
  9
$DIMEXO
 40
0.062
  9
$DIMDLI
 40
0.375
  9
$DIMRND
 40
0.0
  9
$DIMDLE
 40
0.0
  9
$DIMEXE
 40
0.08
  9
$DIMTP
 40
0.0
  9
$DIMTM
 40
0.0
  9
$DIMTXT
 40
0.09
  9
$DIMCEN
 40
-0.06
  9
$DIMTSZ
 40
0.0
  9
$DIMTOL
 70
     0
  9
$DIMLIM
 70
     0
  9
$DIMTIH
 70
     1
  9
$DIMTOH
 70
     1
  9
$DIMSE1
 70
     0
  9
$DIMSE2
 70
     0
  9
$DIMTAD
 70
     0
  9
$DIMZIN
 70
     0
  9
$DIMBLK
  1

  9
$DIMASO
 70
     0
  9
$DIMSHO
 70
     0
  9
$DIMPOST
  1

  9
$DIMAPOST
  1

  9
$DIMALT
 70
     0
  9
$DIMALTD
 70
     2
  9
$DIMALTF
 40
25.4
  9
$DIMLFAC
 40
1.0
  9
$DIMTOFL
 70
     0
  9
$DIMTVP
 40
0.0
  9
$DIMTIX
 70
     0
  9
$DIMSOXD
 70
     0
  9
$DIMSAH
 70
     0
  9
$DIMBLK1
  1

  9
$DIMBLK2
  1

  9
$DIMSTYLE
  2
STANDARD
  9
$DIMCLRD
 70
     0
  9
$DIMCLRE
 70
     0
  9
$DIMCLRT
 70
     0
  9
$DIMTFAC
 40
1.0
  9
$DIMGAP
 40
0.09
  9
$DIMJUST
 70
     0
  9
$DIMSD1
 70
     0
  9
$DIMSD2
 70
     0
  9
$DIMTOLJ
 70
     1
  9
$DIMTZIN
 70
     0
  9
$DIMALTZ
 70
     0
  9
$DIMALTTZ
 70
     0
  9
$DIMUPT
 70
     0
  9
$DIMDEC
 70
     5
  9
$DIMTDEC
 70
     4
  9
$DIMALTU
 70
     2
  9
$DIMALTTD
 70
     2
  9
$DIMTXSTY
  7
STANDARD
  9
$DIMAUNIT
 70
     0
  9
$DIMADEC
 70
     0
  9
$DIMALTRND
 40
0.0
  9
$DIMAZIN
 70
     0
  9
$DIMDSEP
 70
    46
  9
$DIMATFIT
 70
     3
  9
$DIMFRAC
 70
     2
  9
$DIMLDRBLK
  1

  9
$DIMLUNIT
 70
     5
  9
$DIMLWD
 70
    -2
  9
$DIMLWE
 70
    -2
  9
$DIMTMOVE
 70
     2
  9
$LUNITS
 70
     2
  9
$LUPREC
 70
     4
  9
$SKETCHINC
 40
0.1
  9
$FILLETRAD
 40
0.0
  9
$AUNITS
 70
     0
  9
$AUPREC
 70
     0
  9
$MENU
  1
acad
  9
$ELEVATION
 40
0.0
  9
$PELEVATION
 40
0.0
  9
$THICKNESS
 40
0.0
  9
$LIMCHECK
 70
     0
  9
$CHAMFERA
 40
0.0
  9
$CHAMFERB
 40
0.0
  9
$CHAMFERC
 40
0.0
  9
$CHAMFERD
 40
0.0
  9
$SKPOLY
 70
     0
  9
$TDCREATE
 40
2448880.712842593
  9
$TDUCREATE
 40
2448881.046175926
  9
$TDUPDATE
 40
2454165.798296852
  9
$TDUUPDATE
 40
2454166.131630185
  9
$TDINDWG
 40
0.6216558912
  9
$TDUSRTIMER
 40
0.6216558912
  9
$USRTIMER
 70
     1
  9
$ANGBASE
 50
0.0
  9
$ANGDIR
 70
     0
  9
$PDMODE
 70
     0
  9
$PDSIZE
 40
0.0
  9
$PLINEWID
 40
0.0
  9
$SPLFRAME
 70
     0
  9
$SPLINETYPE
 70
     6
  9
$SPLINESEGS
 70
     8
  9
$HANDSEED
  5
380
  9
$SURFTAB1
 70
     6
  9
$SURFTAB2
 70
     6
  9
$SURFTYPE
 70
     6
  9
$SURFU
 70
     6
  9
$SURFV
 70
     6
  9
$UCSBASE
  2

  9
$UCSNAME
  2

  9
$UCSORG
 10
0.0
 20
0.0
 30
0.0
  9
$UCSXDIR
 10
1.0
 20
0.0
 30
0.0
  9
$UCSYDIR
 10
0.0
 20
1.0
 30
0.0
  9
$UCSORTHOREF
  2

  9
$UCSORTHOVIEW
 70
     0
  9
$UCSORGTOP
 10
0.0
 20
0.0
 30
0.0
  9
$UCSORGBOTTOM
 10
0.0
 20
0.0
 30
0.0
  9
$UCSORGLEFT
 10
0.0
 20
0.0
 30
0.0
  9
$UCSORGRIGHT
 10
0.0
 20
0.0
 30
0.0
  9
$UCSORGFRONT
 10
0.0
 20
0.0
 30
0.0
  9
$UCSORGBACK
 10
0.0
 20
0.0
 30
0.0
  9
$PUCSBASE
  2

  9
$PUCSNAME
  2

  9
$PUCSORG
 10
0.0
 20
0.0
 30
0.0
  9
$PUCSXDIR
 10
1.0
 20
0.0
 30
0.0
  9
$PUCSYDIR
 10
0.0
 20
1.0
 30
0.0
  9
$PUCSORTHOREF
  2

  9
$PUCSORTHOVIEW
 70
     0
  9
$PUCSORGTOP
 10
0.0
 20
0.0
 30
0.0
  9
$PUCSORGBOTTOM
 10
0.0
 20
0.0
 30
0.0
  9
$PUCSORGLEFT
 10
0.0
 20
0.0
 30
0.0
  9
$PUCSORGRIGHT
 10
0.0
 20
0.0
 30
0.0
  9
$PUCSORGFRONT
 10
0.0
 20
0.0
 30
0.0
  9
$PUCSORGBACK
 10
0.0
 20
0.0
 30
0.0
  9
$USERI1
 70
     0
  9
$USERI2
 70
     0
  9
$USERI3
 70
     0
  9
$USERI4
 70
     0
  9
$USERI5
 70
     0
  9
$USERR1
 40
0.0
  9
$USERR2
 40
0.0
  9
$USERR3
 40
0.0
  9
$USERR4
 40
0.0
  9
$USERR5
 40
0.0
  9
$WORLDVIEW
 70
     1
  9
$SHADEDGE
 70
     3
  9
$SHADEDIF
 70
    70
  9
$TILEMODE
 70
     1
  9
$MAXACTVP
 70
    16
  9
$PINSBASE
 10
0.0
 20
0.0
 30
0.0
  9
$PLIMCHECK
 70
     0
  9
$PEXTMIN
 10
1.000000000000000E+20
 20
1.000000000000000E+20
 30
1.000000000000000E+20
  9
$PEXTMAX
 10
-1.000000000000000E+20
 20
-1.000000000000000E+20
 30
-1.000000000000000E+20
  9
$PLIMMIN
 10
0.0
 20
0.0
  9
$PLIMMAX
 10
12.0
 20
9.0
  9
$UNITMODE
 70
     0
  9
$VISRETAIN
 70
     0
  9
$PLINEGEN
 70
     0
  9
$PSLTSCALE
 70
     0
  9
$TREEDEPTH
 70
  3020
  9
$CMLSTYLE
  2
STANDARD
  9
$CMLJUST
 70
     0
  9
$CMLSCALE
 40
1.0
  9
$PROXYGRAPHICS
 70
     1
  9
$MEASUREMENT
 70
     0
  9
$CELWEIGHT
370
    -1
  9
$ENDCAPS
280
     0
  9
$JOINSTYLE
280
     0
  9
$LWDISPLAY
290
     0
  9
$INSUNITS
 70
     0
  9
$HYPERLINKBASE
  1

  9
$STYLESHEET
  1

  9
$XEDIT
290
     1
  9
$CEPSNTYPE
380
     0
  9
$PSTYLEMODE
290
     1
  9
$FINGERPRINTGUID
  2
{D2F66ADB-A264-4ADF-B7D5-0BD741C9DFA9}
  9
$VERSIONGUID
  2
{EC14402B-C227-4C0E-AB3D-4E4FB440EB30}
  9
$EXTNAMES
290
     1
  9
$PSVPSCALE
 40
0.0
  9
$OLESTARTUP
290
     0
  0
ENDSEC
  0
SECTION
  2
CLASSES
  0
CLASS
  1
DICTIONARYVAR
  2
AcDbDictionaryVar
  3
AutoCAD 2000
 90
        0
280
     0
281
     0
  0
CLASS
  1
LWPOLYLINE
  2
AcDbPolyline
  3
AutoCAD 2000
 90
        0
280
     0
281
     1
  0
CLASS
  1
ACDBDICTIONARYWDFLT
  2
AcDbDictionaryWithDefault
  3
AutoCAD 2000
 90
        0
280
     0
281
     0
  0
CLASS
  1
ACDBPLACEHOLDER
  2
AcDbPlaceHolder
  3
ObjectDBX Classes
 90
        0
280
     0
281
     0
  0
CLASS
  1
LAYOUT
  2
AcDbLayout
  3
ObjectDBX Classes
 90
        0
280
     0
281
     0
  0
CLASS
  1
LONG_TRANSACTION
  2
AcDbLongTransaction
  3
ObjectDBX Classes
 90
   -65536
280
     1
281
     0
  0
CLASS
  1
LWPOLYLINE
  2
AcDbPolyline
  3
AutoCAD 2000
 90
        0
280
     0
281
     1
  0
CLASS
  1
HATCH
  2
AcDbHatch
  3
AutoCAD 2000
 90
        0
280
     0
281
     1
  0
CLASS
  1
XRECORD
  2
AcDbXrecord
  3
AutoCAD 2000
 90
        0
280
     0
281
     0
  0
CLASS
  1
LONG_TRANSACTION
  2
AcDbLongTransaction
  3
ObjectDBX Classes
 90
   -65536
280
     1
281
     0
  0
CLASS
  1
LWPOLYLINE
  2
AcDbPolyline
  3
AutoCAD 2000
 90
        0
280
     0
281
     1
  0
CLASS
  1
HATCH
  2
AcDbHatch
  3
AutoCAD 2000
 90
        0
280
     0
281
     1
  0
CLASS
  1
XRECORD
  2
AcDbXrecord
  3
AutoCAD 2000
 90
        0
280
     0
281
     0
  0
CLASS
  1
LONG_TRANSACTION
  2
AcDbLongTransaction
  3
ObjectDBX Classes
 90
   -65536
280
     1
281
     0
  0
CLASS
  1
LWPOLYLINE
  2
AcDbPolyline
  3
AutoCAD 2000
 90
        0
280
     0
281
     1
  0
CLASS
  1
HATCH
  2
AcDbHatch
  3
AutoCAD 2000
 90
        0
280
     0
281
     1
  0
CLASS
  1
XRECORD
  2
AcDbXrecord
  3
AutoCAD 2000
 90
        0
280
     0
281
     0
  0
CLASS
  1
LONG_TRANSACTION
  2
AcDbLongTransaction
  3
ObjectDBX Classes
 90
   -65536
280
     1
281
     0
  0
CLASS
  1
LWPOLYLINE
  2
AcDbPolyline
  3
AutoCAD 2000
 90
        0
280
     0
281
     1
  0
CLASS
  1
HATCH
  2
AcDbHatch
  3
AutoCAD 2000
 90
        0
280
     0
281
     1
  0
CLASS
  1
XRECORD
  2
AcDbXrecord
  3
AutoCAD 2000
 90
        0
280
     0
281
     0
  0
CLASS
  1
LONG_TRANSACTION
  2
AcDbLongTransaction
  3
ObjectDBX Classes
 90
   -65536
280
     1
281
     0
  0
CLASS
  1
LWPOLYLINE
  2
AcDbPolyline
  3
AutoCAD 2000
 90
        0
280
     0
281
     1
  0
CLASS
  1
HATCH
  2
AcDbHatch
  3
AutoCAD 2000
 90
        0
280
     0
281
     1
  0
CLASS
  1
XRECORD
  2
AcDbXrecord
  3
AutoCAD 2000
 90
        0
280
     0
281
     0
  0
CLASS
  1
LONG_TRANSACTION
  2
AcDbLongTransaction
  3
ObjectDBX Classes
 90
   -65536
280
     1
281
     0
  0
CLASS
  1
LWPOLYLINE
  2
AcDbPolyline
  3
AutoCAD 2000
 90
        0
280
     0
281
     1
  0
CLASS
  1
HATCH
  2
AcDbHatch
  3
AutoCAD 2000
 90
        0
280
     0
281
     1
  0
CLASS
  1
XRECORD
  2
AcDbXrecord
  3
AutoCAD 2000
 90
        0
280
     0
281
     0
  0
CLASS
  1
LONG_TRANSACTION
  2
AcDbLongTransaction
  3
ObjectDBX Classes
 90
   -65536
280
     1
281
     0
  0
CLASS
  1
LWPOLYLINE
  2
AcDbPolyline
  3
AutoCAD 2000
 90
        0
280
     0
281
     1
  0
CLASS
  1
HATCH
  2
AcDbHatch
  3
AutoCAD 2000
 90
        0
280
     0
281
     1
  0
CLASS
  1
XRECORD
  2
AcDbXrecord
  3
AutoCAD 2000
 90
        0
280
     0
281
     0
  0
CLASS
  1
LONG_TRANSACTION
  2
AcDbLongTransaction
  3
ObjectDBX Classes
 90
   -65536
280
     1
281
     0
  0
CLASS
  1
LWPOLYLINE
  2
AcDbPolyline
  3
AutoCAD 2000
 90
        0
280
     0
281
     1
  0
CLASS
  1
HATCH
  2
AcDbHatch
  3
AutoCAD 2000
 90
        0
280
     0
281
     1
  0
CLASS
  1
XRECORD
  2
AcDbXrecord
  3
AutoCAD 2000
 90
        0
280
     0
281
     0
  0
CLASS
  1
LONG_TRANSACTION
  2
AcDbLongTransaction
  3
ObjectDBX Classes
 90
   -65536
280
     1
281
     0
  0
CLASS
  1
LWPOLYLINE
  2
AcDbPolyline
  3
AutoCAD 2000
 90
        0
280
     0
281
     1
  0
CLASS
  1
HATCH
  2
AcDbHatch
  3
AutoCAD 2000
 90
        0
280
     0
281
     1
  0
CLASS
  1
XRECORD
  2
AcDbXrecord
  3
AutoCAD 2000
 90
        0
280
     0
281
     0
  0
CLASS
  1
LONG_TRANSACTION
  2
AcDbLongTransaction
  3
ObjectDBX Classes
 90
   -65536
280
     1
281
     0
  0
CLASS
  1
LWPOLYLINE
  2
AcDbPolyline
  3
AutoCAD 2000
 90
        0
280
     0
281
     1
  0
CLASS
  1
HATCH
  2
AcDbHatch
  3
AutoCAD 2000
 90
        0
280
     0
281
     1
  0
CLASS
  1
XRECORD
  2
AcDbXrecord
  3
AutoCAD 2000
 90
        0
280
     0
281
     0
  0
CLASS
  1
LONG_TRANSACTION
  2
AcDbLongTransaction
  3
ObjectDBX Classes
 90
   -65536
280
     1
281
     0
  0
CLASS
  1
LWPOLYLINE
  2
AcDbPolyline
  3
AutoCAD 2000
 90
        0
280
     0
281
     1
  0
CLASS
  1
HATCH
  2
AcDbHatch
  3
AutoCAD 2000
 90
        0
280
     0
281
     1
  0
CLASS
  1
XRECORD
  2
AcDbXrecord
  3
AutoCAD 2000
 90
        0
280
     0
281
     0
  0
CLASS
  1
LONG_TRANSACTION
  2
AcDbLongTransaction
  3
ObjectDBX Classes
 90
   -65536
280
     1
281
     0
  0
CLASS
  1
LWPOLYLINE
  2
AcDbPolyline
  3
AutoCAD 2000
 90
        0
280
     0
281
     1
  0
CLASS
  1
HATCH
  2
AcDbHatch
  3
AutoCAD 2000
 90
        0
280
     0
281
     1
  0
CLASS
  1
XRECORD
  2
AcDbXrecord
  3
AutoCAD 2000
 90
        0
280
     0
281
     0
  0
CLASS
  1
LONG_TRANSACTION
  2
AcDbLongTransaction
  3
ObjectDBX Classes
 90
   -65536
280
     1
281
     0
  0
CLASS
  1
LWPOLYLINE
  2
AcDbPolyline
  3
AutoCAD 2000
 90
        0
280
     0
281
     1
  0
CLASS
  1
HATCH
  2
AcDbHatch
  3
AutoCAD 2000
 90
        0
280
     0
281
     1
  0
CLASS
  1
XRECORD
  2
AcDbXrecord
  3
AutoCAD 2000
 90
        0
280
     0
281
     0
  0
CLASS
  1
LONG_TRANSACTION
  2
AcDbLongTransaction
  3
ObjectDBX Classes
 90
   -65536
280
     1
281
     0
  0
CLASS
  1
LWPOLYLINE
  2
AcDbPolyline
  3
AutoCAD 2000
 90
        0
280
     0
281
     1
  0
CLASS
  1
HATCH
  2
AcDbHatch
  3
AutoCAD 2000
 90
        0
280
     0
281
     1
  0
CLASS
  1
XRECORD
  2
AcDbXrecord
  3
AutoCAD 2000
 90
        0
280
     0
281
     0
  0
CLASS
  1
LONG_TRANSACTION
  2
AcDbLongTransaction
  3
ObjectDBX Classes
 90
   -65536
280
     1
281
     0
  0
CLASS
  1
LWPOLYLINE
  2
AcDbPolyline
  3
AutoCAD 2000
 90
        0
280
     0
281
     1
  0
CLASS
  1
HATCH
  2
AcDbHatch
  3
AutoCAD 2000
 90
        0
280
     0
281
     1
  0
CLASS
  1
XRECORD
  2
AcDbXrecord
  3
AutoCAD 2000
 90
        0
280
     0
281
     0
  0
CLASS
  1
LONG_TRANSACTION
  2
AcDbLongTransaction
  3
ObjectDBX Classes
 90
   -65536
280
     1
281
     0
  0
CLASS
  1
LWPOLYLINE
  2
AcDbPolyline
  3
AutoCAD 2000
 90
        0
280
     0
281
     1
  0
CLASS
  1
HATCH
  2
AcDbHatch
  3
AutoCAD 2000
 90
        0
280
     0
281
     1
  0
CLASS
  1
XRECORD
  2
AcDbXrecord
  3
AutoCAD 2000
 90
        0
280
     0
281
     0
  0
CLASS
  1
LONG_TRANSACTION
  2
AcDbLongTransaction
  3
ObjectDBX Classes
 90
   -65536
280
     1
281
     0
  0
CLASS
  1
LWPOLYLINE
  2
AcDbPolyline
  3
AutoCAD 2000
 90
        0
280
     0
281
     1
  0
CLASS
  1
HATCH
  2
AcDbHatch
  3
AutoCAD 2000
 90
        0
280
     0
281
     1
  0
CLASS
  1
XRECORD
  2
AcDbXrecord
  3
AutoCAD 2000
 90
        0
280
     0
281
     0
  0
CLASS
  1
LONG_TRANSACTION
  2
AcDbLongTransaction
  3
ObjectDBX Classes
 90
   -65536
280
     1
281
     0
  0
CLASS
  1
LWPOLYLINE
  2
AcDbPolyline
  3
AutoCAD 2000
 90
        0
280
     0
281
     1
  0
CLASS
  1
HATCH
  2
AcDbHatch
  3
AutoCAD 2000
 90
        0
280
     0
281
     1
  0
CLASS
  1
XRECORD
  2
AcDbXrecord
  3
AutoCAD 2000
 90
        0
280
     0
281
     0
  0
CLASS
  1
LONG_TRANSACTION
  2
AcDbLongTransaction
  3
ObjectDBX Classes
 90
   -65536
280
     1
281
     0
  0
CLASS
  1
LWPOLYLINE
  2
AcDbPolyline
  3
AutoCAD 2000
 90
        0
280
     0
281
     1
  0
CLASS
  1
HATCH
  2
AcDbHatch
  3
AutoCAD 2000
 90
        0
280
     0
281
     1
  0
CLASS
  1
XRECORD
  2
AcDbXrecord
  3
AutoCAD 2000
 90
        0
280
     0
281
     0
  0
CLASS
  1
LONG_TRANSACTION
  2
AcDbLongTransaction
  3
ObjectDBX Classes
 90
   -65536
280
     1
281
     0
  0
CLASS
  1
LWPOLYLINE
  2
AcDbPolyline
  3
AutoCAD 2000
 90
        0
280
     0
281
     1
  0
CLASS
  1
HATCH
  2
AcDbHatch
  3
AutoCAD 2000
 90
        0
280
     0
281
     1
  0
CLASS
  1
XRECORD
  2
AcDbXrecord
  3
AutoCAD 2000
 90
        0
280
     0
281
     0
  0
CLASS
  1
TABLESTYLE
  2
AcDbTableStyle
  3
ObjectDBX Classes
 90
     2047
280
     1
281
     0
  0
ENDSEC
  0
SECTION
  2
TABLES
  0
TABLE
  2
VPORT
  5
1D
330
0
100
AcDbSymbolTable
 70
     3
  0
VPORT
  5
372
330
1D
100
AcDbSymbolTableRecord
100
AcDbViewportTableRecord
  2
*Active
 70
     0
 10
0.0
 20
0.0
 11
1.0
 21
1.0
 12
20.34028061826997
 22
9.009856451720321
 13
0.0
 23
0.0
 14
0.063
 24
0.063
 15
0.25
 25
0.25
 16
0.0
 26
0.0
 36
1.0
 17
0.0
 27
0.0
 37
0.0
 40
36.39496955639424
 41
1.814583333333334
 42
50.0
 43
0.0
 44
0.0
 50
0.0
 51
0.0
 71
     0
 72
   100
 73
     1
 74
     3
 75
     0
 76
     0
 77
     0
 78
     0
281
     0
 65
     1
110
0.0
120
0.0
130
0.0
111
1.0
121
0.0
131
0.0
112
0.0
122
1.0
132
0.0
 79
     0
146
0.0
  0
ENDTAB
  0
TABLE
  2
LTYPE
  5
18
330
0
100
AcDbSymbolTable
 70
     2
  0
LTYPE
  5
19
330
18
100
AcDbSymbolTableRecord
100
AcDbLinetypeTableRecord
  2
BYBLOCK
 70
     0
  3

 72
    65
 73
     0
 40
0.0
  0
LTYPE
  5
1A
330
18
100
AcDbSymbolTableRecord
100
AcDbLinetypeTableRecord
  2
BYLAYER
 70
     0
  3

 72
    65
 73
     0
 40
0.0
  0
LTYPE
  5
A
330
18
100
AcDbSymbolTableRecord
100
AcDbLinetypeTableRecord
  2
CONTINUOUS
 70
     0
  3
Solid line
 72
    65
 73
     0
 40
0.0
  0
LTYPE
  5
35F
330
18
100
AcDbSymbolTableRecord
100
AcDbLinetypeTableRecord
  2
HIDDEN
 70
     0
  3
Hidden __ __ __ __ __ __ __ __ __ __ __ __ __ _
 72
    65
 73
     2
 40
0.375
 49
0.25
 74
     0
 49
-0.125
 74
     0
  0
ENDTAB
  0
TABLE
  2
LAYER
  5
14
330
0
100
AcDbSymbolTable
 70
     1
  0
LAYER
  5
6
330
14
100
AcDbSymbolTableRecord
100
AcDbLayerTableRecord
  2
0
 70
     0
 62
     7
  6
CONTINUOUS
370
    -3
390
7
  0
ENDTAB
  0
TABLE
  2
STYLE
  5
15
330
0
100
AcDbSymbolTable
 70
     2
  0
STYLE
  5
16
330
15
100
AcDbSymbolTableRecord
100
AcDbTextStyleTableRecord
  2
STANDARD
 70
     0
 40
0.0
 41
1.0
 50
0.0
 71
     0
 42
0.36
  3
TXT
  4

  0
STYLE
  5
35E
330
15
100
AcDbSymbolTableRecord
100
AcDbTextStyleTableRecord
  2

 70
     1
 40
0.0
 41
1.0
 50
0.0
 71
     0
 42
0.36
  3
ltypeshp.shx
  4

  0
ENDTAB
  0
TABLE
  2
VIEW
  5
1B
330
0
100
AcDbSymbolTable
 70
     0
  0
ENDTAB
  0
TABLE
  2
UCS
  5
1C
330
0
100
AcDbSymbolTable
 70
     0
  0
ENDTAB
  0
TABLE
  2
APPID
  5
1F
330
0
100
AcDbSymbolTable
 70
     1
  0
APPID
  5
20
330
1F
100
AcDbSymbolTableRecord
100
AcDbRegAppTableRecord
  2
ACAD
 70
     0
  0
ENDTAB
  0
TABLE
  2
DIMSTYLE
  5
21
330
0
100
AcDbSymbolTable
 70
     1
100
AcDbDimStyleTable
  0
DIMSTYLE
105
28
330
21
100
AcDbSymbolTableRecord
100
AcDbDimStyleTableRecord
  2
STANDARD
 70
     0
  3

  4

340
16
  0
ENDTAB
  0
TABLE
  2
BLOCK_RECORD
  5
1
330
0
100
AcDbSymbolTable
 70
     0
  0
BLOCK_RECORD
  5
2
330
1
100
AcDbSymbolTableRecord
100
AcDbBlockTableRecord
  2
*MODEL_SPACE
340
C
  0
BLOCK_RECORD
  5
E
330
1
100
AcDbSymbolTableRecord
100
AcDbBlockTableRecord
  2
*PAPER_SPACE
340
13
  0
ENDTAB
  0
ENDSEC
  0
SECTION
  2
BLOCKS
  0
BLOCK
  5
5
330
2
100
AcDbEntity
  8
0
100
AcDbBlockBegin
  2
*MODEL_SPACE
 70
     0
 10
0.0
 20
0.0
 30
0.0
  3
*MODEL_SPACE
  1

  4

  0
ENDBLK
  5
B
330
2
100
AcDbEntity
  8
0
100
AcDbBlockEnd
  0
BLOCK
  5
11
330
E
100
AcDbEntity
 67
     1
  8
0
100
AcDbBlockBegin
  2
*PAPER_SPACE
 70
     0
 10
0.0
 20
0.0
 30
0.0
  3
*PAPER_SPACE
  1

  4

  0
ENDBLK
  5
12
330
E
100
AcDbEntity
 67
     1
  8
0
100
AcDbBlockEnd
  0
ENDSEC
  0
SECTION
  2
ENTITIES
  0
LINE
  5
283
330
2
100
AcDbEntity
  8
0
  6
Continuous
100
AcDbLine
 10
1.523578707884365
 20
5.224300461042329
 30
0.0
 11
1.523578707884365
 21
5.849300461042443
 31
0.0
  0
LINE
  5
284
330
2
100
AcDbEntity
  8
0
  6
Continuous
100
AcDbLine
 10
3.336078707884393
 20
0.2144555937132644
 30
0.0
 11
3.336078707884393
 21
9.156250000000011
 31
0.0
  0
LINE
  5
285
330
2
100
AcDbEntity
  8
0
100
AcDbLine
 10
3.286768676984874
 20
9.156250000000014
 30
0.0
 11
3.286768676984853
 21
0.1692424821282685
 31
0.0
  0
LINE
  5
286
330
2
100
AcDbEntity
  8
0
  6
Continuous
100
AcDbLine
 10
-0.1139501923641753
 20
0.1776966094066044
 30
0.0
 11
0.9181854890709396
 21
1.268547658092126
 31
0.0
  0
LINE
  5
287
330
2
100
AcDbEntity
  8
0
100
AcDbLine
 10
-0.2909506368269526
 20
0.0000000000000089
 30
0.0
 11
3.209049363173048
 21
0.0000000000000089
 31
0.0
  0
LINE
  5
288
330
2
100
AcDbEntity
  8
0
  6
HIDDEN
100
AcDbLine
 10
-0.2624261464821913
 20
0.0625000000000089
 30
0.0
 11
3.209049363173048
 21
0.0625000000000089
 31
0.0
  0
LINE
  5
289
330
2
100
AcDbEntity
  8
0
100
AcDbLine
 10
-0.1999261464821949
 20
0.0625000000000089
 30
0.0
 11
-0.2909506368269526
 21
0.0625000000000089
 31
0.0
  0
LINE
  5
28A
330
2
100
AcDbEntity
  8
0
100
AcDbLine
 10
-0.2909506368269526
 20
0.0000000000000089
 30
0.0
 11
-0.2909506368269526
 21
0.0625000000000089
 31
0.0
  0
ARC
  5
28B
330
2
100
AcDbEntity
  8
0
  6
Continuous
100
AcDbCircle
 10
0.2396031982290303
 20
-0.1758567811866545
 30
0.0
 40
0.4999999999999432
100
AcDbArc
 50
134.9999999999954
 51
159.4078398862809
  0
ARC
  5
28C
330
2
100
AcDbEntity
  8
0
  6
Continuous
100
AcDbCircle
 10
3.64857870788428
 20
-0.1758567811866545
 30
0.0
 40
0.4999999999999437
100
AcDbArc
 50
128.6821874534727
 51
151.5290213442328
  0
LINE
  5
28D
330
2
100
AcDbEntity
  8
0
100
AcDbLine
 10
3.209049363173048
 20
0.0625000000000089
 30
0.0
 11
3.209049363173048
 21
0.0000000000000089
 31
0.0
  0
LINE
  5
28E
330
2
100
AcDbEntity
  8
0
  6
Continuous
100
AcDbLine
 10
1.336078707884365
 20
5.099300461042329
 30
0.0
 11
1.398578707884337
 21
5.099300461042329
 31
0.0
  0
LINE
  5
28F
330
2
100
AcDbEntity
  8
0
  6
Continuous
100
AcDbLine
 10
1.398578707884365
 20
4.224300461042327
 30
0.0
 11
1.336078707884337
 21
4.224300461042327
 31
0.0
  0
LINE
  5
290
330
2
100
AcDbEntity
  8
0
  6
Continuous
100
AcDbLine
 10
1.336078707884365
 20
3.349300461042327
 30
0.0
 11
1.398578707884337
 21
3.349300461042327
 31
0.0
  0
CIRCLE
  5
291
330
2
100
AcDbEntity
  8
0
  6
Continuous
100
AcDbCircle
 10
1.336078707884351
 20
0.8750000000000693
 30
0.0
 40
0.0855
  0
LINE
  5
292
330
2
100
AcDbEntity
  8
0
  6
Continuous
100
AcDbLine
 10
1.211078707884379
 20
1.975654439278708
 30
0.0
 11
1.211078707884337
 21
3.224300461042313
 31
0.0
  0
ARC
  5
293
330
2
100
AcDbEntity
  8
0
  6
Continuous
100
AcDbCircle
 10
0.2110787078843792
 20
1.975654439278666
 30
0.0
 40
1.000000000000003
100
AcDbArc
 50
315.0000000000009
 51
0.0000000000024497
  0
ARC
  5
294
330
2
100
AcDbEntity
  8
0
  6
Continuous
100
AcDbCircle
 10
1.336078707884351
 20
3.22430046104232
 30
0.0
 40
0.1250000000000142
100
AcDbArc
 50
89.99999999999351
 51
180.0
  0
LINE
  5
295
330
2
100
AcDbEntity
  8
0
  6
Continuous
100
AcDbLine
 10
1.211078707884365
 20
4.349300461042327
 30
0.0
 11
1.211078707884337
 21
4.974300461042329
 31
0.0
  0
ARC
  5
296
330
2
100
AcDbEntity
  8
0
  6
Continuous
100
AcDbCircle
 10
1.336078707884351
 20
4.34930046104232
 30
0.0
 40
0.1249999999999858
100
AcDbArc
 50
179.9999999999936
 51
269.9999999999935
  0
ARC
  5
297
330
2
100
AcDbEntity
  8
0
  6
Continuous
100
AcDbCircle
 10
1.336078707884351
 20
4.974300461042322
 30
0.0
 40
0.1250000000000142
100
AcDbArc
 50
89.99999999999351
 51
179.9999999999936
  0
ARC
  5
298
330
2
100
AcDbEntity
  8
0
  6
Continuous
100
AcDbCircle
 10
3.336078707884379
 20
2.641624999999864
 30
0.0
 40
0.1875
100
AcDbArc
 50
105.2473642457561
 51
254.7526357542439
  0
CIRCLE
  5
299
330
2
100
AcDbEntity
  8
0
  6
Continuous
100
AcDbCircle
 10
2.398578707884337
 20
1.109375000000069
 30
0.0
 40
0.0855
  0
CIRCLE
  5
29A
330
2
100
AcDbEntity
  8
0
  6
Continuous
100
AcDbCircle
 10
2.086078707884351
 20
2.109375000000055
 30
0.0
 40
0.0855
  0
CIRCLE
  5
29B
330
2
100
AcDbEntity
  8
0
  6
Continuous
100
AcDbCircle
 10
1.773578707884351
 20
1.609375000000069
 30
0.0
 40
0.0855
  0
CIRCLE
  5
29C
330
2
100
AcDbEntity
  8
0
  6
Continuous
100
AcDbCircle
 10
2.398578707884337
 20
2.609375000000016
 30
0.0
 40
0.0855
  0
LINE
  5
29D
330
2
100
AcDbEntity
  8
0
  6
Continuous
100
AcDbLine
 10
1.523578707884365
 20
3.474300461042342
 30
0.0
 11
1.523578707884337
 21
4.099300461042327
 31
0.0
  0
ARC
  5
29F
330
2
100
AcDbEntity
  8
0
  6
Continuous
100
AcDbCircle
 10
1.398578707884351
 20
3.474300461042349
 30
0.0
 40
0.1250000000000142
100
AcDbArc
 50
269.9999999999935
 51
0.000000000000007
  0
CIRCLE
  5
2A0
330
2
100
AcDbEntity
  8
0
  6
Continuous
100
AcDbCircle
 10
1.773578707884351
 20
3.109375000000016
 30
0.0
 40
0.0855
  0
CIRCLE
  5
2A1
330
2
100
AcDbEntity
  8
0
  6
Continuous
100
AcDbCircle
 10
2.086078707884351
 20
3.609375000000002
 30
0.0
 40
0.0855
  0
ARC
  5
2A2
330
2
100
AcDbEntity
  8
0
  6
Continuous
100
AcDbCircle
 10
3.146078707884367
 20
3.406249999999888
 30
0.0
 40
0.06
100
AcDbArc
 50
121.6311662755244
 51
238.368833724476
  0
LINE
  5
2A3
330
2
100
AcDbEntity
  8
0
  6
Continuous
100
AcDbLine
 10
3.286768676984845
 20
3.249122719822841
 30
0.0
 11
3.114611760156077
 21
3.355163492968538
 31
0.0
  0
LINE
  5
2A4
330
2
100
AcDbEntity
  8
0
  6
Continuous
100
AcDbLine
 10
3.286768676984845
 20
3.563377280176923
 30
0.0
 11
3.114611760156077
 21
3.457336507031238
 31
0.0
  0
ARC
  5
2A6
330
2
100
AcDbEntity
  8
0
  6
Continuous
100
AcDbCircle
 10
1.398578707884351
 20
4.099300461042349
 30
0.0
 40
0.1249999999999858
100
AcDbArc
 50
359.9999999999934
 51
89.99999999999351
  0
ARC
  5
2A7
330
2
100
AcDbEntity
  8
0
  6
Continuous
100
AcDbCircle
 10
1.398578707884351
 20
5.224300461042351
 30
0.0
 40
0.1250000000000142
100
AcDbArc
 50
269.9999999999935
 51
359.9999999999934
  0
ARC
  5
2A9
330
2
100
AcDbEntity
  8
0
  6
Continuous
100
AcDbCircle
 10
3.146078707884367
 20
4.90624999999989
 30
0.0
 40
0.06
100
AcDbArc
 50
121.6311662755244
 51
238.368833724476
  0
LINE
  5
2AA
330
2
100
AcDbEntity
  8
0
  6
Continuous
100
AcDbLine
 10
3.28676867698486
 20
4.749122719822839
 30
0.0
 11
3.114611760156077
 21
4.85516349296854
 31
0.0
  0
LINE
  5
2AB
330
2
100
AcDbEntity
  8
0
  6
Continuous
100
AcDbLine
 10
3.286768676984845
 20
5.063377280176923
 30
0.0
 11
3.114611760156077
 21
4.95733650703124
 31
0.0
  0
LINE
  5
2AC
330
2
100
AcDbEntity
  8
0
  6
Continuous
100
AcDbLine
 10
1.336078707884393
 20
6.849300461042386
 30
0.0
 11
1.398578707884365
 21
6.849300461042386
 31
0.0
  0
LINE
  5
2AD
330
2
100
AcDbEntity
  8
0
  6
Continuous
100
AcDbLine
 10
1.398578707884393
 20
5.974300461042386
 30
0.0
 11
1.336078707884365
 21
5.974300461042443
 31
0.0
  0
LINE
  5
2AE
330
2
100
AcDbEntity
  8
0
  6
Continuous
100
AcDbLine
 10
1.336078707884401
 20
8.8493004610425
 30
0.0
 11
1.398578707884372
 21
8.8493004610425
 31
0.0
  0
LINE
  5
2AF
330
2
100
AcDbEntity
  8
0
  6
Continuous
100
AcDbLine
 10
1.398578707884393
 20
7.974300461042386
 30
0.0
 11
1.336078707884365
 21
7.974300461042386
 31
0.0
  0
LINE
  5
2B0
330
2
100
AcDbEntity
  8
0
  6
Continuous
100
AcDbLine
 10
1.211078707884393
 20
6.099300461042386
 30
0.0
 11
1.211078707884365
 21
6.724300461042386
 31
0.0
  0
ARC
  5
2B1
330
2
100
AcDbEntity
  8
0
  6
Continuous
100
AcDbCircle
 10
1.336078707884351
 20
6.099300461042407
 30
0.0
 40
0.1249999999999574
100
AcDbArc
 50
180.0000000000066
 51
270.0000000000065
  0
ARC
  5
2B2
330
2
100
AcDbEntity
  8
0
  6
Continuous
100
AcDbCircle
 10
1.336078707884386
 20
6.724300461042372
 30
0.0
 40
0.1250000000000213
100
AcDbArc
 50
89.99999999999676
 51
179.9999999999903
  0
LINE
  5
2B3
330
2
100
AcDbEntity
  8
0
  6
Continuous
100
AcDbLine
 10
1.211078707884393
 20
8.099300461042386
 30
0.0
 11
1.211078707884372
 21
8.7243004610425
 31
0.0
  0
ARC
  5
2B4
330
2
100
AcDbEntity
  8
0
  6
Continuous
100
AcDbCircle
 10
1.336078707884379
 20
8.099300461042372
 30
0.0
 40
0.1249999999999858
100
AcDbArc
 50
179.9999999999936
 51
269.9999999999935
  0
ARC
  5
2B5
330
2
100
AcDbEntity
  8
0
  6
Continuous
100
AcDbCircle
 10
1.336078707884393
 20
8.724300461042478
 30
0.0
 40
0.1250000000000213
100
AcDbArc
 50
89.99999999999676
 51
179.9999999999903
  0
LINE
  5
2B6
330
2
100
AcDbEntity
  8
0
100
AcDbLine
 10
1.523578707884401
 20
6.974300461042404
 30
0.0
 11
1.523578707884365
 21
7.849300461042386
 31
0.0
  0
LINE
  5
2B8
330
2
100
AcDbEntity
  8
0
  6
Continuous
100
AcDbLine
 10
3.336078707884386
 20
6.60937499999994
 30
0.0
 11
3.114611760156077
 21
6.472961507031297
 31
0.0
  0
ARC
  5
2BA
330
2
100
AcDbEntity
  8
0
  6
Continuous
100
AcDbCircle
 10
1.398578707884408
 20
5.849300461042436
 30
0.0
 40
0.1249999999999574
100
AcDbArc
 50
0.0000000000065208
 51
90.00000000000645
  0
LINE
  5
2BB
330
2
100
AcDbEntity
  8
0
  6
Continuous
100
AcDbLine
 10
1.523578707884365
 20
5.849300461042443
 30
0.0
 11
1.523578707884365
 21
5.849300461042443
 31
0.0
  0
LINE
  5
2BD
330
2
100
AcDbEntity
  8
0
  6
Continuous
100
AcDbLine
 10
3.336078707884386
 20
6.23437499999994
 30
0.0
 11
3.114611760156077
 21
6.370788492968597
 31
0.0
  0
ARC
  5
2BE
330
2
100
AcDbEntity
  8
0
  6
Continuous
100
AcDbCircle
 10
3.146078707884374
 20
6.421874999999947
 30
0.0
 40
0.06
100
AcDbArc
 50
121.6311662755242
 51
238.3688337244758
  0
ARC
  5
2BF
330
2
100
AcDbEntity
  8
0
  6
Continuous
100
AcDbCircle
 10
1.398578707884386
 20
6.974300461042407
 30
0.0
 40
0.1250000000000178
100
AcDbArc
 50
269.9999999999902
 51
359.9999999999984
  0
LINE
  5
2C1
330
2
100
AcDbEntity
  8
0
  6
Continuous
100
AcDbLine
 10
1.523578707884415
 20
8.974300461042528
 30
0.0
 11
1.523578707884401
 21
9.156250000000011
 31
0.0
  0
ARC
  5
2C3
330
2
100
AcDbEntity
  8
0
  6
Continuous
100
AcDbCircle
 10
1.398578707884379
 20
7.8493004610424
 30
0.0
 40
0.1249999999999858
100
AcDbArc
 50
359.9999999999935
 51
89.99999999999351
  0
ARC
  5
2C4
330
2
100
AcDbEntity
  8
0
  6
Continuous
100
AcDbCircle
 10
1.398578707884386
 20
8.974300461042528
 30
0.0
 40
0.1250000000000284
100
AcDbArc
 50
269.9999999999935
 51
0.000000000000007
  0
ARC
  5
2C6
330
2
100
AcDbEntity
  8
0
  6
Continuous
100
AcDbCircle
 10
3.146078707884367
 20
8.421875000000053
 30
0.0
 40
0.06
100
AcDbArc
 50
121.6311662755242
 51
238.3688337244758
  0
LINE
  5
2C7
330
2
100
AcDbEntity
  8
0
  6
Continuous
100
AcDbLine
 10
3.286768676984874
 20
8.264747719822999
 30
0.0
 11
3.114611760156077
 21
8.37078849296871
 31
0.0
  0
LINE
  5
2C8
330
2
100
AcDbEntity
  8
0
  6
Continuous
100
AcDbLine
 10
3.286768676984867
 20
8.579002280177111
 30
0.0
 11
3.114611760156077
 21
8.47296150703141
 31
0.0
  0
LINE
  5
2C9
330
2
100
AcDbEntity
  8
0
  6
Continuous
100
AcDbLine
 10
3.336078707884408
 20
9.156250000000011
 30
0.0
 11
1.523578707884401
 21
9.156250000000011
 31
0.0
  0
LINE
  5
311
330
2
100
AcDbEntity
  8
0
  6
Continuous
100
AcDbLine
 10
2.35995370788434
 20
4.230402050178862
 30
0.0
 11
2.522703707884343
 21
4.136438293868247
 31
0.0
  0
ARC
  5
312
330
2
100
AcDbEntity
  8
0
  6
Continuous
100
AcDbCircle
 10
2.507078707884343
 20
4.109374999999981
 30
0.0
 40
0.0312500000000026
100
AcDbArc
 50
299.9999999999973
 51
60.00000000000272
  0
LINE
  5
313
330
2
100
AcDbEntity
  8
0
  6
Continuous
100
AcDbLine
 10
2.522703707884343
 20
4.082311706131714
 30
0.0
 11
2.35995370788434
 21
3.988347949821128
 31
0.0
  0
ARC
  5
314
330
2
100
AcDbEntity
  8
0
  6
Continuous
100
AcDbCircle
 10
2.34432870788434
 20
4.015411243689394
 30
0.0
 40
0.0312500000000026
100
AcDbArc
 50
180.0
 51
299.9999999999973
  0
LINE
  5
315
330
2
100
AcDbEntity
  8
0
  6
Continuous
100
AcDbLine
 10
2.31307870788434
 20
4.015411243689394
 30
0.0
 11
2.31307870788434
 21
4.109374999999995
 31
0.0
  0
LINE
  5
316
330
2
100
AcDbEntity
  8
0
  6
Continuous
100
AcDbLine
 10
2.31307870788434
 20
4.109374999999995
 30
0.0
 11
2.31307870788434
 21
4.203338756310595
 31
0.0
  0
ARC
  5
317
330
2
100
AcDbEntity
  8
0
  6
Continuous
100
AcDbCircle
 10
2.34432870788434
 20
4.203338756310597
 30
0.0
 40
0.03125
100
AcDbArc
 50
60.00000000000109
 51
180.0000000000032
  0
LINE
  5
318
330
2
100
AcDbEntity
  8
0
  6
Continuous
100
AcDbLine
 10
1.73495370788434
 20
4.730402050178878
 30
0.0
 11
1.897703707884329
 21
4.636438293868249
 31
0.0
  0
ARC
  5
319
330
2
100
AcDbEntity
  8
0
  6
Continuous
100
AcDbCircle
 10
1.882078707884329
 20
4.609374999999982
 30
0.0
 40
0.0312500000000026
100
AcDbArc
 50
299.9999999999973
 51
60.00000000000272
  0
LINE
  5
31A
330
2
100
AcDbEntity
  8
0
  6
Continuous
100
AcDbLine
 10
1.897703707884329
 20
4.582311706131716
 30
0.0
 11
1.73495370788434
 21
4.488347949821099
 31
0.0
  0
ARC
  5
31B
330
2
100
AcDbEntity
  8
0
  6
Continuous
100
AcDbCircle
 10
1.71932870788434
 20
4.515411243689364
 30
0.0
 40
0.031250000000001
100
AcDbArc
 50
179.9999999999967
 51
299.9999999999989
  0
LINE
  5
31C
330
2
100
AcDbEntity
  8
0
  6
Continuous
100
AcDbLine
 10
1.68807870788434
 20
4.515411243689366
 30
0.0
 11
1.68807870788434
 21
4.609374999999996
 31
0.0
  0
LINE
  5
31D
330
2
100
AcDbEntity
  8
0
  6
Continuous
100
AcDbLine
 10
1.68807870788434
 20
4.609374999999996
 30
0.0
 11
1.68807870788434
 21
4.703338756310611
 31
0.0
  0
ARC
  5
31E
330
2
100
AcDbEntity
  8
0
  6
Continuous
100
AcDbCircle
 10
1.71932870788434
 20
4.703338756310613
 30
0.0
 40
0.03125
100
AcDbArc
 50
60.00000000000109
 51
180.0000000000032
  0
LINE
  5
31F
330
2
100
AcDbEntity
  8
0
  6
Continuous
100
AcDbLine
 10
2.047453707884355
 20
5.230402050178849
 30
0.0
 11
2.210203707884329
 21
5.136438293868263
 31
0.0
  0
ARC
  5
320
330
2
100
AcDbEntity
  8
0
  6
Continuous
100
AcDbCircle
 10
2.194578707884329
 20
5.109374999999996
 30
0.0
 40
0.0312500000000026
100
AcDbArc
 50
299.9999999999973
 51
60.00000000000272
  0
LINE
  5
321
330
2
100
AcDbEntity
  8
0
  6
Continuous
100
AcDbLine
 10
2.210203707884329
 20
5.08231170613173
 30
0.0
 11
2.047453707884355
 21
4.988347949821129
 31
0.0
  0
ARC
  5
322
330
2
100
AcDbEntity
  8
0
  6
Continuous
100
AcDbCircle
 10
2.031828707884355
 20
5.015411243689394
 30
0.0
 40
0.031250000000001
100
AcDbArc
 50
179.9999999999967
 51
299.9999999999989
  0
LINE
  5
323
330
2
100
AcDbEntity
  8
0
  6
Continuous
100
AcDbLine
 10
2.000578707884355
 20
5.015411243689396
 30
0.0
 11
2.00057870788434
 21
5.109374999999996
 31
0.0
  0
LINE
  5
324
330
2
100
AcDbEntity
  8
0
  6
Continuous
100
AcDbLine
 10
2.00057870788434
 20
5.109374999999996
 30
0.0
 11
2.000578707884355
 21
5.203338756310583
 31
0.0
  0
ARC
  5
325
330
2
100
AcDbEntity
  8
0
  6
Continuous
100
AcDbCircle
 10
2.031828707884355
 20
5.203338756310584
 30
0.0
 40
0.03125
100
AcDbArc
 50
60.00000000000109
 51
180.0000000000032
  0
LINE
  5
326
330
2
100
AcDbEntity
  8
0
  6
Continuous
100
AcDbLine
 10
2.234953707884348
 20
7.949152050178864
 30
0.0
 11
2.39770370788435
 21
7.855188293868249
 31
0.0
  0
ARC
  5
327
330
2
100
AcDbEntity
  8
0
  6
Continuous
100
AcDbCircle
 10
2.38207870788435
 20
7.828124999999982
 30
0.0
 40
0.0312500000000026
100
AcDbArc
 50
299.9999999999973
 51
60.00000000000272
  0
LINE
  5
328
330
2
100
AcDbEntity
  8
0
  6
Continuous
100
AcDbLine
 10
2.39770370788435
 20
7.801061706131716
 30
0.0
 11
2.234953707884348
 21
7.707097949821129
 31
0.0
  0
ARC
  5
329
330
2
100
AcDbEntity
  8
0
  6
Continuous
100
AcDbCircle
 10
2.219328707884348
 20
7.734161243689396
 30
0.0
 40
0.0312500000000026
100
AcDbArc
 50
180.0
 51
299.9999999999973
  0
LINE
  5
32A
330
2
100
AcDbEntity
  8
0
  6
Continuous
100
AcDbLine
 10
2.188078707884348
 20
7.734161243689396
 30
0.0
 11
2.188078707884348
 21
7.828124999999996
 31
0.0
  0
LINE
  5
32B
330
2
100
AcDbEntity
  8
0
  6
Continuous
100
AcDbLine
 10
2.188078707884348
 20
7.828124999999996
 30
0.0
 11
2.188078707884348
 21
7.922088756310597
 31
0.0
  0
ARC
  5
32C
330
2
100
AcDbEntity
  8
0
  6
Continuous
100
AcDbCircle
 10
2.219328707884348
 20
7.922088756310597
 30
0.0
 40
0.03125
100
AcDbArc
 50
60.00000000000272
 51
180.0
  0
LINE
  5
32D
330
2
100
AcDbEntity
  8
0
100
AcDbLine
 10
1.453703707884419
 20
6.449152050178764
 30
0.0
 11
1.616453707884407
 21
6.355188293868135
 31
0.0
  0
ARC
  5
32E
330
2
100
AcDbEntity
  8
0
100
AcDbCircle
 10
1.600828707884407
 20
6.328124999999869
 30
0.0
 40
0.0312500000000026
100
AcDbArc
 50
299.9999999999973
 51
60.00000000000272
  0
LINE
  5
32F
330
2
100
AcDbEntity
  8
0
100
AcDbLine
 10
1.616453707884407
 20
6.301061706131602
 30
0.0
 11
1.453703707884419
 21
6.207097949820987
 31
0.0
  0
ARC
  5
330
330
2
100
AcDbEntity
  8
0
100
AcDbCircle
 10
1.438078707884419
 20
6.234161243689254
 30
0.0
 40
0.0312500000000026
100
AcDbArc
 50
180.0
 51
299.9999999999973
  0
LINE
  5
331
330
2
100
AcDbEntity
  8
0
100
AcDbLine
 10
1.406828707884419
 20
6.234161243689254
 30
0.0
 11
1.406828707884419
 21
6.328124999999883
 31
0.0
  0
LINE
  5
332
330
2
100
AcDbEntity
  8
0
100
AcDbLine
 10
1.406828707884419
 20
6.328124999999883
 30
0.0
 11
1.406828707884419
 21
6.422088756310497
 31
0.0
  0
ARC
  5
333
330
2
100
AcDbEntity
  8
0
100
AcDbCircle
 10
1.438078707884419
 20
6.422088756310497
 30
0.0
 40
0.03125
100
AcDbArc
 50
60.00000000000272
 51
180.0
  0
LINE
  5
334
330
2
100
AcDbEntity
  8
0
100
AcDbLine
 10
2.23495370788434
 20
5.94915205017875
 30
0.0
 11
2.397703707884343
 21
5.855188293868135
 31
0.0
  0
ARC
  5
335
330
2
100
AcDbEntity
  8
0
100
AcDbCircle
 10
2.382078707884343
 20
5.828124999999869
 30
0.0
 40
0.0312500000000026
100
AcDbArc
 50
299.9999999999973
 51
60.00000000000272
  0
LINE
  5
336
330
2
100
AcDbEntity
  8
0
100
AcDbLine
 10
2.397703707884343
 20
5.801061706131602
 30
0.0
 11
2.23495370788434
 21
5.707097949821016
 31
0.0
  0
ARC
  5
337
330
2
100
AcDbEntity
  8
0
100
AcDbCircle
 10
2.21932870788434
 20
5.734161243689282
 30
0.0
 40
0.0312500000000026
100
AcDbArc
 50
180.0
 51
299.9999999999973
  0
LINE
  5
338
330
2
100
AcDbEntity
  8
0
100
AcDbLine
 10
2.18807870788434
 20
5.734161243689282
 30
0.0
 11
2.18807870788434
 21
5.828124999999883
 31
0.0
  0
LINE
  5
339
330
2
100
AcDbEntity
  8
0
100
AcDbLine
 10
2.18807870788434
 20
5.828124999999883
 30
0.0
 11
2.18807870788434
 21
5.922088756310483
 31
0.0
  0
ARC
  5
33A
330
2
100
AcDbEntity
  8
0
100
AcDbCircle
 10
2.21932870788434
 20
5.922088756310483
 30
0.0
 40
0.03125
100
AcDbArc
 50
60.00000000000272
 51
180.0
  0
LINE
  5
33B
330
2
100
AcDbEntity
  8
0
100
AcDbLine
 10
1.740927506555924
 20
6.902277050178764
 30
0.0
 11
1.903677506555912
 21
6.808313293868135
 31
0.0
  0
ARC
  5
33C
330
2
100
AcDbEntity
  8
0
100
AcDbCircle
 10
1.888052506555912
 20
6.781249999999869
 30
0.0
 40
0.0312500000000026
100
AcDbArc
 50
299.9999999999973
 51
60.00000000000272
  0
LINE
  5
33D
330
2
100
AcDbEntity
  8
0
100
AcDbLine
 10
1.903677506555912
 20
6.754186706131602
 30
0.0
 11
1.740927506555924
 21
6.660222949820987
 31
0.0
  0
ARC
  5
33E
330
2
100
AcDbEntity
  8
0
100
AcDbCircle
 10
1.725302506555924
 20
6.687286243689254
 30
0.0
 40
0.0312500000000026
100
AcDbArc
 50
180.0
 51
299.9999999999973
  0
LINE
  5
33F
330
2
100
AcDbEntity
  8
0
100
AcDbLine
 10
1.694052506555924
 20
6.687286243689254
 30
0.0
 11
1.694052506555924
 21
6.781249999999883
 31
0.0
  0
LINE
  5
340
330
2
100
AcDbEntity
  8
0
100
AcDbLine
 10
1.694052506555924
 20
6.781249999999883
 30
0.0
 11
1.694052506555924
 21
6.875213756310497
 31
0.0
  0
ARC
  5
341
330
2
100
AcDbEntity
  8
0
100
AcDbCircle
 10
1.725302506555924
 20
6.875213756310497
 30
0.0
 40
0.03125
100
AcDbArc
 50
60.00000000000272
 51
180.0
  0
LINE
  5
342
330
2
100
AcDbEntity
  8
0
  6
Continuous
100
AcDbLine
 10
1.453703707884419
 20
8.449152050178878
 30
0.0
 11
1.616453707884407
 21
8.355188293868249
 31
0.0
  0
ARC
  5
343
330
2
100
AcDbEntity
  8
0
  6
Continuous
100
AcDbCircle
 10
1.600828707884407
 20
8.328124999999982
 30
0.0
 40
0.0312500000000026
100
AcDbArc
 50
299.9999999999973
 51
60.00000000000272
  0
LINE
  5
344
330
2
100
AcDbEntity
  8
0
  6
Continuous
100
AcDbLine
 10
1.616453707884407
 20
8.301061706131716
 30
0.0
 11
1.453703707884419
 21
8.207097949821101
 31
0.0
  0
ARC
  5
345
330
2
100
AcDbEntity
  8
0
  6
Continuous
100
AcDbCircle
 10
1.438078707884419
 20
8.234161243689368
 30
0.0
 40
0.0312500000000026
100
AcDbArc
 50
180.0
 51
299.9999999999973
  0
LINE
  5
346
330
2
100
AcDbEntity
  8
0
  6
Continuous
100
AcDbLine
 10
1.406828707884419
 20
8.234161243689368
 30
0.0
 11
1.406828707884419
 21
8.328124999999996
 31
0.0
  0
LINE
  5
347
330
2
100
AcDbEntity
  8
0
  6
Continuous
100
AcDbLine
 10
1.406828707884419
 20
8.328124999999996
 30
0.0
 11
1.406828707884419
 21
8.422088756310611
 31
0.0
  0
ARC
  5
348
330
2
100
AcDbEntity
  8
0
  6
Continuous
100
AcDbCircle
 10
1.438078707884419
 20
8.422088756310611
 30
0.0
 40
0.03125
100
AcDbArc
 50
60.00000000000272
 51
180.0
  0
LINE
  5
349
330
2
100
AcDbEntity
  8
0
  6
Continuous
100
AcDbLine
 10
1.740927506555924
 20
8.902277050178878
 30
0.0
 11
1.903677506555912
 21
8.808313293868249
 31
0.0
  0
ARC
  5
34A
330
2
100
AcDbEntity
  8
0
  6
Continuous
100
AcDbCircle
 10
1.888052506555912
 20
8.781249999999982
 30
0.0
 40
0.0312500000000026
100
AcDbArc
 50
299.9999999999973
 51
60.00000000000272
  0
LINE
  5
34B
330
2
100
AcDbEntity
  8
0
  6
Continuous
100
AcDbLine
 10
1.903677506555912
 20
8.754186706131716
 30
0.0
 11
1.740927506555924
 21
8.660222949821101
 31
0.0
  0
ARC
  5
34C
330
2
100
AcDbEntity
  8
0
  6
Continuous
100
AcDbCircle
 10
1.725302506555924
 20
8.687286243689368
 30
0.0
 40
0.0312500000000026
100
AcDbArc
 50
180.0
 51
299.9999999999973
  0
LINE
  5
34D
330
2
100
AcDbEntity
  8
0
  6
Continuous
100
AcDbLine
 10
1.694052506555924
 20
8.687286243689368
 30
0.0
 11
1.694052506555924
 21
8.781249999999996
 31
0.0
  0
LINE
  5
34E
330
2
100
AcDbEntity
  8
0
  6
Continuous
100
AcDbLine
 10
1.694052506555924
 20
8.781249999999996
 30
0.0
 11
1.694052506555924
 21
8.875213756310611
 31
0.0
  0
ARC
  5
34F
330
2
100
AcDbEntity
  8
0
  6
Continuous
100
AcDbCircle
 10
1.725302506555924
 20
8.875213756310611
 30
0.0
 40
0.03125
100
AcDbArc
 50
60.00000000000272
 51
180.0
  0
ENDSEC
  0
SECTION
  2
OBJECTS
  0
DICTIONARY
  5
9
330
0
100
AcDbDictionary
281
     1
  3
ACAD_COLOR
350
357
  3
ACAD_GROUP
350
23
  3
ACAD_LAYOUT
350
D
  3
ACAD_MATERIAL
350
356
  3
ACAD_MLINESTYLE
350
24
  3
ACAD_PLOTSETTINGS
350
25
  3
ACAD_PLOTSTYLENAME
350
8
  3
ACAD_TABLESTYLE
350
358
  3
ACDBHEADERROUNDTRIPXREC
350
379
  3
AcDbVariableDictionary
350
178
  0
DICTIONARY
  5
357
102
{ACAD_REACTORS
330
9
102
}
330
9
100
AcDbDictionary
281
     1
  0
DICTIONARY
  5
23
102
{ACAD_REACTORS
330
9
102
}
330
9
100
AcDbDictionary
281
     1
  0
DICTIONARY
  5
D
102
{ACAD_REACTORS
330
9
102
}
330
9
100
AcDbDictionary
281
     1
  3
Layout1
350
13
  3
Model
350
C
  0
DICTIONARY
  5
356
102
{ACAD_REACTORS
330
9
102
}
330
9
100
AcDbDictionary
281
     1
  0
DICTIONARY
  5
24
102
{ACAD_REACTORS
330
9
102
}
330
9
100
AcDbDictionary
281
     1
  3
STANDARD
350
27
  0
DICTIONARY
  5
25
102
{ACAD_REACTORS
330
9
102
}
330
9
100
AcDbDictionary
281
     1
  0
ACDBDICTIONARYWDFLT
  5
8
102
{ACAD_REACTORS
330
9
102
}
330
9
100
AcDbDictionary
281
     1
  3
Normal
350
7
100
AcDbDictionaryWithDefault
340
7
  0
DICTIONARY
  5
358
102
{ACAD_REACTORS
330
9
102
}
330
9
100
AcDbDictionary
281
     1
  3
Standard
350
359
  0
DICTIONARY
  5
379
102
{ACAD_REACTORS
330
9
102
}
330
9
100
AcDbDictionary
281
     1
  3
COLORDICT
350
37A
  3
MATERIALDICT
350
37B
  0
DICTIONARY
  5
178
102
{ACAD_REACTORS
330
9
102
}
330
9
100
AcDbDictionary
281
     1
  3
CTABLESTYLE
350
366
  3
HIDETEXT
350
378
  0
LAYOUT
  5
13
102
{ACAD_REACTORS
330
D
102
}
102
{ACAD_XDICTIONARY
360
37C
102
}
330
D
100
AcDbPlotSettings
  1

  2
C:\ACAD2000\plotters\HP LaserJet 2100 Series PS.pc3
  4

  6

 40
0.0
 41
0.0
 42
0.0
 43
0.0
 44
0.0
 45
0.0
 46
0.0
 47
0.0
 48
0.0
 49
0.0
140
0.0
141
0.0
142
1.0
143
1.0
 70
   688
 72
     0
 73
     0
 74
     5
  7

 75
    16
147
1.0
148
0.0
149
0.0
100
AcDbLayout
  1
Layout1
 70
     0
 71
     1
 10
0.0
 20
0.0
 11
12.0
 21
9.0
 12
0.0
 22
0.0
 32
0.0
 14
1.000000000000000E+20
 24
1.000000000000000E+20
 34
1.000000000000000E+20
 15
-1.000000000000000E+20
 25
-1.000000000000000E+20
 35
-1.000000000000000E+20
146
0.0
 13
0.0
 23
0.0
 33
0.0
 16
1.0
 26
0.0
 36
0.0
 17
0.0
 27
1.0
 37
0.0
 76
     0
330
E
  0
LAYOUT
  5
C
102
{ACAD_REACTORS
330
D
102
}
102
{ACAD_XDICTIONARY
360
37E
102
}
330
D
100
AcDbPlotSettings
  1

  2
HP LaserJet 2100 Series PS
  4
Letter
  6

 40
3.174999952316284
 41
3.174999952316284
 42
3.175003051757813
 43
3.17498779296875
 44
215.9000091552734
 45
279.3999938964844
 46
0.0
 47
0.0
 48
0.0
 49
0.0
140
0.0
141
0.0
142
1.0
143
5.090908941468881
 70
 28336
 72
     0
 73
     1
 74
     2
  7

 75
     0
147
0.1964285771946001
148
0.0
149
0.0
100
AcDbLayout
  1
Model
 70
     1
 71
     0
 10
0.0
 20
0.0
 11
12.0
 21
9.0
 12
0.0
 22
0.0
 32
0.0
 14
0.0
 24
0.0
 34
0.0
 15
0.0
 25
0.0
 35
0.0
146
0.0
 13
0.0
 23
0.0
 33
0.0
 16
1.0
 26
0.0
 36
0.0
 17
0.0
 27
1.0
 37
0.0
 76
     0
330
2
  0
MLINESTYLE
  5
27
102
{ACAD_REACTORS
330
24
102
}
330
24
100
AcDbMlineStyle
  2
STANDARD
 70
     0
  3

 62
   256
 51
90.0
 52
90.0
 71
     2
 49
0.5
 62
   256
  6
BYLAYER
 49
-0.5
 62
   256
  6
BYLAYER
  0
ACDBPLACEHOLDER
  5
7
102
{ACAD_REACTORS
330
8
102
}
330
8
  0
ACAD_PROXY_OBJECT
  5
359
102
{ACAD_REACTORS
330
358
102
}
330
358
100
AcDbProxyObject
 90
      499
 91
      585
 95
   983063
 70
     0
 93
     1841
310
4214DD185B99185C9928B81E85EB51B8AE3F2E07A17AD46E2B8FC02B5E8DC0F42B1CFD028000000C1008070000C3001FDFF8000000C1003FBFF000000182007F7FE00000030400FEFFC00000060801FDFF8000000C1003FBFF00000018200000000000000681FA0B0000001820100E000186003FBFF000000182007F7FE000
310
00030400FEFFC00000060801FDFF8000000C1003FBFF000000182007F7FE000000304000AD7A3703D0AC73F4160000003040201C00030C007F7FE00000030400FEFFC00000060801FDFF8000000C1003FBFF000000182007F7FE00000030400FEFFC000000608000
340
16
340
16
340
16
 94
        0
  0
XRECORD
  5
37A
102
{ACAD_REACTORS
330
379
102
}
330
379
100
AcDbXrecord
340
357
  0
XRECORD
  5
37B
102
{ACAD_REACTORS
330
379
102
}
330
379
100
AcDbXrecord
340
356
  0
DICTIONARYVAR
  5
366
102
{ACAD_REACTORS
330
178
102
}
330
178
100
DictionaryVariables
280
     0
  1
STANDARD
  0
DICTIONARYVAR
  5
378
102
{ACAD_REACTORS
330
178
102
}
330
178
100
DictionaryVariables
280
     0
  1
0
  0
DICTIONARY
  5
37C
330
13
100
AcDbDictionary
280
     1
281
     1
  3
ACAD_XREC_ROUNDTRIP
360
37D
  0
DICTIONARY
  5
37E
330
C
100
AcDbDictionary
280
     1
281
     1
  3
ACAD_XREC_ROUNDTRIP
360
37F
  0
XRECORD
  5
37D
102
{ACAD_REACTORS
330
37C
102
}
330
37C
100
AcDbXrecord
102
SHADEPLOT
 70
     0
102
SHADEPLOTRESLEVEL
 70
     2
102
SHADEPLOTCUSTOMDPI
 70
   300
  0
XRECORD
  5
37F
102
{ACAD_REACTORS
330
37E
102
}
330
37E
100
AcDbXrecord
102
SHADEPLOT
 70
     0
102
SHADEPLOTRESLEVEL
 70
     2
102
SHADEPLOTCUSTOMDPI
 70
   300
  0
ENDSEC
  0
EOF
