  0
SECTION
  2
HEADER
  9
$ACADVER
  1
AC1015
  9
$ACADMAINTVER
 70
     6
  9
$DWGCODEPAGE
  3
ANSI_1252
  9
$INSBASE
 10
0.0
 20
0.0
 30
0.0
  9
$EXTMIN
 10
0.0812514442719134
 20
-0.0268656256330502
 30
-0.0015258207003583
  9
$EXTMAX
 10
21.5886029380074
 20
19.25874354593577
 30
0.0000000349246037
  9
$LIMMIN
 10
0.0
 20
0.0
  9
$LIMMAX
 10
42.0
 20
32.0
  9
$ORTHOMODE
 70
     1
  9
$REGENMODE
 70
     1
  9
$FILLMODE
 70
     1
  9
$QTEXTMODE
 70
     0
  9
$MIRRTEXT
 70
     0
  9
$LTSCALE
 40
0.5
  9
$ATTMODE
 70
     1
  9
$TEXTSIZE
 40
0.36
  9
$TRACEWID
 40
0.05
  9
$TEXTSTYLE
  7
STANDARD
  9
$CLAYER
  8
0
  9
$CELTYPE
  6
BYLAYER
  9
$CECOLOR
 62
   256
  9
$CELTSCALE
 40
1.0
  9
$DISPSILH
 70
     0
  9
$DIMSCALE
 40
4.0
  9
$DIMASZ
 40
0.125
  9
$DIMEXO
 40
0.062
  9
$DIMDLI
 40
0.375
  9
$DIMRND
 40
0.0
  9
$DIMDLE
 40
0.0
  9
$DIMEXE
 40
0.08
  9
$DIMTP
 40
0.0
  9
$DIMTM
 40
0.0
  9
$DIMTXT
 40
0.09
  9
$DIMCEN
 40
-0.06
  9
$DIMTSZ
 40
0.0
  9
$DIMTOL
 70
     0
  9
$DIMLIM
 70
     0
  9
$DIMTIH
 70
     1
  9
$DIMTOH
 70
     1
  9
$DIMSE1
 70
     0
  9
$DIMSE2
 70
     0
  9
$DIMTAD
 70
     0
  9
$DIMZIN
 70
     0
  9
$DIMBLK
  1

  9
$DIMASO
 70
     0
  9
$DIMSHO
 70
     0
  9
$DIMPOST
  1

  9
$DIMAPOST
  1

  9
$DIMALT
 70
     0
  9
$DIMALTD
 70
     2
  9
$DIMALTF
 40
25.4
  9
$DIMLFAC
 40
1.0
  9
$DIMTOFL
 70
     0
  9
$DIMTVP
 40
0.0
  9
$DIMTIX
 70
     0
  9
$DIMSOXD
 70
     0
  9
$DIMSAH
 70
     0
  9
$DIMBLK1
  1

  9
$DIMBLK2
  1

  9
$DIMSTYLE
  2
STANDARD
  9
$DIMCLRD
 70
     0
  9
$DIMCLRE
 70
     0
  9
$DIMCLRT
 70
     0
  9
$DIMTFAC
 40
1.0
  9
$DIMGAP
 40
0.09
  9
$DIMJUST
 70
     0
  9
$DIMSD1
 70
     0
  9
$DIMSD2
 70
     0
  9
$DIMTOLJ
 70
     1
  9
$DIMTZIN
 70
     0
  9
$DIMALTZ
 70
     0
  9
$DIMALTTZ
 70
     0
  9
$DIMUPT
 70
     0
  9
$DIMDEC
 70
     5
  9
$DIMTDEC
 70
     4
  9
$DIMALTU
 70
     2
  9
$DIMALTTD
 70
     2
  9
$DIMTXSTY
  7
STANDARD
  9
$DIMAUNIT
 70
     0
  9
$DIMADEC
 70
     0
  9
$DIMALTRND
 40
0.0
  9
$DIMAZIN
 70
     0
  9
$DIMDSEP
 70
    46
  9
$DIMATFIT
 70
     3
  9
$DIMFRAC
 70
     2
  9
$DIMLDRBLK
  1

  9
$DIMLUNIT
 70
     5
  9
$DIMLWD
 70
    -2
  9
$DIMLWE
 70
    -2
  9
$DIMTMOVE
 70
     2
  9
$LUNITS
 70
     2
  9
$LUPREC
 70
     4
  9
$SKETCHINC
 40
0.1
  9
$FILLETRAD
 40
0.0
  9
$AUNITS
 70
     0
  9
$AUPREC
 70
     0
  9
$MENU
  1
acad
  9
$ELEVATION
 40
0.0
  9
$PELEVATION
 40
0.0
  9
$THICKNESS
 40
0.0
  9
$LIMCHECK
 70
     0
  9
$CHAMFERA
 40
0.0
  9
$CHAMFERB
 40
0.0
  9
$CHAMFERC
 40
0.0
  9
$CHAMFERD
 40
0.0
  9
$SKPOLY
 70
     0
  9
$TDCREATE
 40
2448880.712842593
  9
$TDUCREATE
 40
2448881.046175926
  9
$TDUPDATE
 40
2454165.7977789
  9
$TDUUPDATE
 40
2454166.131112234
  9
$TDINDWG
 40
0.6214971065
  9
$TDUSRTIMER
 40
0.6214971065
  9
$USRTIMER
 70
     1
  9
$ANGBASE
 50
0.0
  9
$ANGDIR
 70
     0
  9
$PDMODE
 70
     0
  9
$PDSIZE
 40
0.0
  9
$PLINEWID
 40
0.0
  9
$SPLFRAME
 70
     0
  9
$SPLINETYPE
 70
     6
  9
$SPLINESEGS
 70
     8
  9
$HANDSEED
  5
370
  9
$SURFTAB1
 70
     6
  9
$SURFTAB2
 70
     6
  9
$SURFTYPE
 70
     6
  9
$SURFU
 70
     6
  9
$SURFV
 70
     6
  9
$UCSBASE
  2

  9
$UCSNAME
  2

  9
$UCSORG
 10
0.0
 20
0.0
 30
0.0
  9
$UCSXDIR
 10
1.0
 20
0.0
 30
0.0
  9
$UCSYDIR
 10
0.0
 20
1.0
 30
0.0
  9
$UCSORTHOREF
  2

  9
$UCSORTHOVIEW
 70
     0
  9
$UCSORGTOP
 10
0.0
 20
0.0
 30
0.0
  9
$UCSORGBOTTOM
 10
0.0
 20
0.0
 30
0.0
  9
$UCSORGLEFT
 10
0.0
 20
0.0
 30
0.0
  9
$UCSORGRIGHT
 10
0.0
 20
0.0
 30
0.0
  9
$UCSORGFRONT
 10
0.0
 20
0.0
 30
0.0
  9
$UCSORGBACK
 10
0.0
 20
0.0
 30
0.0
  9
$PUCSBASE
  2

  9
$PUCSNAME
  2

  9
$PUCSORG
 10
0.0
 20
0.0
 30
0.0
  9
$PUCSXDIR
 10
1.0
 20
0.0
 30
0.0
  9
$PUCSYDIR
 10
0.0
 20
1.0
 30
0.0
  9
$PUCSORTHOREF
  2

  9
$PUCSORTHOVIEW
 70
     0
  9
$PUCSORGTOP
 10
0.0
 20
0.0
 30
0.0
  9
$PUCSORGBOTTOM
 10
0.0
 20
0.0
 30
0.0
  9
$PUCSORGLEFT
 10
0.0
 20
0.0
 30
0.0
  9
$PUCSORGRIGHT
 10
0.0
 20
0.0
 30
0.0
  9
$PUCSORGFRONT
 10
0.0
 20
0.0
 30
0.0
  9
$PUCSORGBACK
 10
0.0
 20
0.0
 30
0.0
  9
$USERI1
 70
     0
  9
$USERI2
 70
     0
  9
$USERI3
 70
     0
  9
$USERI4
 70
     0
  9
$USERI5
 70
     0
  9
$USERR1
 40
0.0
  9
$USERR2
 40
0.0
  9
$USERR3
 40
0.0
  9
$USERR4
 40
0.0
  9
$USERR5
 40
0.0
  9
$WORLDVIEW
 70
     1
  9
$SHADEDGE
 70
     3
  9
$SHADEDIF
 70
    70
  9
$TILEMODE
 70
     1
  9
$MAXACTVP
 70
    16
  9
$PINSBASE
 10
0.0
 20
0.0
 30
0.0
  9
$PLIMCHECK
 70
     0
  9
$PEXTMIN
 10
1.000000000000000E+20
 20
1.000000000000000E+20
 30
1.000000000000000E+20
  9
$PEXTMAX
 10
-1.000000000000000E+20
 20
-1.000000000000000E+20
 30
-1.000000000000000E+20
  9
$PLIMMIN
 10
0.0
 20
0.0
  9
$PLIMMAX
 10
12.0
 20
9.0
  9
$UNITMODE
 70
     0
  9
$VISRETAIN
 70
     0
  9
$PLINEGEN
 70
     0
  9
$PSLTSCALE
 70
     0
  9
$TREEDEPTH
 70
  3020
  9
$CMLSTYLE
  2
STANDARD
  9
$CMLJUST
 70
     0
  9
$CMLSCALE
 40
1.0
  9
$PROXYGRAPHICS
 70
     1
  9
$MEASUREMENT
 70
     0
  9
$CELWEIGHT
370
    -1
  9
$ENDCAPS
280
     0
  9
$JOINSTYLE
280
     0
  9
$LWDISPLAY
290
     0
  9
$INSUNITS
 70
     0
  9
$HYPERLINKBASE
  1

  9
$STYLESHEET
  1

  9
$XEDIT
290
     1
  9
$CEPSNTYPE
380
     0
  9
$PSTYLEMODE
290
     1
  9
$FINGERPRINTGUID
  2
{D2F66ADB-A264-4ADF-B7D5-0BD741C9DFA9}
  9
$VERSIONGUID
  2
{7012E279-2FD7-44CB-B456-61B134EC589B}
  9
$EXTNAMES
290
     1
  9
$PSVPSCALE
 40
0.0
  9
$OLESTARTUP
290
     0
  0
ENDSEC
  0
SECTION
  2
CLASSES
  0
CLASS
  1
DICTIONARYVAR
  2
AcDbDictionaryVar
  3
AutoCAD 2000
 90
        0
280
     0
281
     0
  0
CLASS
  1
LWPOLYLINE
  2
AcDbPolyline
  3
AutoCAD 2000
 90
        0
280
     0
281
     1
  0
CLASS
  1
ACDBDICTIONARYWDFLT
  2
AcDbDictionaryWithDefault
  3
AutoCAD 2000
 90
        0
280
     0
281
     0
  0
CLASS
  1
ACDBPLACEHOLDER
  2
AcDbPlaceHolder
  3
ObjectDBX Classes
 90
        0
280
     0
281
     0
  0
CLASS
  1
LAYOUT
  2
AcDbLayout
  3
ObjectDBX Classes
 90
        0
280
     0
281
     0
  0
CLASS
  1
LONG_TRANSACTION
  2
AcDbLongTransaction
  3
ObjectDBX Classes
 90
   -65536
280
     1
281
     0
  0
CLASS
  1
LWPOLYLINE
  2
AcDbPolyline
  3
AutoCAD 2000
 90
        0
280
     0
281
     1
  0
CLASS
  1
HATCH
  2
AcDbHatch
  3
AutoCAD 2000
 90
        0
280
     0
281
     1
  0
CLASS
  1
XRECORD
  2
AcDbXrecord
  3
AutoCAD 2000
 90
        0
280
     0
281
     0
  0
CLASS
  1
LONG_TRANSACTION
  2
AcDbLongTransaction
  3
ObjectDBX Classes
 90
   -65536
280
     1
281
     0
  0
CLASS
  1
LWPOLYLINE
  2
AcDbPolyline
  3
AutoCAD 2000
 90
        0
280
     0
281
     1
  0
CLASS
  1
HATCH
  2
AcDbHatch
  3
AutoCAD 2000
 90
        0
280
     0
281
     1
  0
CLASS
  1
XRECORD
  2
AcDbXrecord
  3
AutoCAD 2000
 90
        0
280
     0
281
     0
  0
CLASS
  1
LONG_TRANSACTION
  2
AcDbLongTransaction
  3
ObjectDBX Classes
 90
   -65536
280
     1
281
     0
  0
CLASS
  1
LWPOLYLINE
  2
AcDbPolyline
  3
AutoCAD 2000
 90
        0
280
     0
281
     1
  0
CLASS
  1
HATCH
  2
AcDbHatch
  3
AutoCAD 2000
 90
        0
280
     0
281
     1
  0
CLASS
  1
XRECORD
  2
AcDbXrecord
  3
AutoCAD 2000
 90
        0
280
     0
281
     0
  0
CLASS
  1
LONG_TRANSACTION
  2
AcDbLongTransaction
  3
ObjectDBX Classes
 90
   -65536
280
     1
281
     0
  0
CLASS
  1
LWPOLYLINE
  2
AcDbPolyline
  3
AutoCAD 2000
 90
        0
280
     0
281
     1
  0
CLASS
  1
HATCH
  2
AcDbHatch
  3
AutoCAD 2000
 90
        0
280
     0
281
     1
  0
CLASS
  1
XRECORD
  2
AcDbXrecord
  3
AutoCAD 2000
 90
        0
280
     0
281
     0
  0
CLASS
  1
LONG_TRANSACTION
  2
AcDbLongTransaction
  3
ObjectDBX Classes
 90
   -65536
280
     1
281
     0
  0
CLASS
  1
LWPOLYLINE
  2
AcDbPolyline
  3
AutoCAD 2000
 90
        0
280
     0
281
     1
  0
CLASS
  1
HATCH
  2
AcDbHatch
  3
AutoCAD 2000
 90
        0
280
     0
281
     1
  0
CLASS
  1
XRECORD
  2
AcDbXrecord
  3
AutoCAD 2000
 90
        0
280
     0
281
     0
  0
CLASS
  1
LONG_TRANSACTION
  2
AcDbLongTransaction
  3
ObjectDBX Classes
 90
   -65536
280
     1
281
     0
  0
CLASS
  1
LWPOLYLINE
  2
AcDbPolyline
  3
AutoCAD 2000
 90
        0
280
     0
281
     1
  0
CLASS
  1
HATCH
  2
AcDbHatch
  3
AutoCAD 2000
 90
        0
280
     0
281
     1
  0
CLASS
  1
XRECORD
  2
AcDbXrecord
  3
AutoCAD 2000
 90
        0
280
     0
281
     0
  0
CLASS
  1
LONG_TRANSACTION
  2
AcDbLongTransaction
  3
ObjectDBX Classes
 90
   -65536
280
     1
281
     0
  0
CLASS
  1
LWPOLYLINE
  2
AcDbPolyline
  3
AutoCAD 2000
 90
        0
280
     0
281
     1
  0
CLASS
  1
HATCH
  2
AcDbHatch
  3
AutoCAD 2000
 90
        0
280
     0
281
     1
  0
CLASS
  1
XRECORD
  2
AcDbXrecord
  3
AutoCAD 2000
 90
        0
280
     0
281
     0
  0
CLASS
  1
LONG_TRANSACTION
  2
AcDbLongTransaction
  3
ObjectDBX Classes
 90
   -65536
280
     1
281
     0
  0
CLASS
  1
LWPOLYLINE
  2
AcDbPolyline
  3
AutoCAD 2000
 90
        0
280
     0
281
     1
  0
CLASS
  1
HATCH
  2
AcDbHatch
  3
AutoCAD 2000
 90
        0
280
     0
281
     1
  0
CLASS
  1
XRECORD
  2
AcDbXrecord
  3
AutoCAD 2000
 90
        0
280
     0
281
     0
  0
CLASS
  1
LONG_TRANSACTION
  2
AcDbLongTransaction
  3
ObjectDBX Classes
 90
   -65536
280
     1
281
     0
  0
CLASS
  1
LWPOLYLINE
  2
AcDbPolyline
  3
AutoCAD 2000
 90
        0
280
     0
281
     1
  0
CLASS
  1
HATCH
  2
AcDbHatch
  3
AutoCAD 2000
 90
        0
280
     0
281
     1
  0
CLASS
  1
XRECORD
  2
AcDbXrecord
  3
AutoCAD 2000
 90
        0
280
     0
281
     0
  0
CLASS
  1
LONG_TRANSACTION
  2
AcDbLongTransaction
  3
ObjectDBX Classes
 90
   -65536
280
     1
281
     0
  0
CLASS
  1
LWPOLYLINE
  2
AcDbPolyline
  3
AutoCAD 2000
 90
        0
280
     0
281
     1
  0
CLASS
  1
HATCH
  2
AcDbHatch
  3
AutoCAD 2000
 90
        0
280
     0
281
     1
  0
CLASS
  1
XRECORD
  2
AcDbXrecord
  3
AutoCAD 2000
 90
        0
280
     0
281
     0
  0
CLASS
  1
LONG_TRANSACTION
  2
AcDbLongTransaction
  3
ObjectDBX Classes
 90
   -65536
280
     1
281
     0
  0
CLASS
  1
LWPOLYLINE
  2
AcDbPolyline
  3
AutoCAD 2000
 90
        0
280
     0
281
     1
  0
CLASS
  1
HATCH
  2
AcDbHatch
  3
AutoCAD 2000
 90
        0
280
     0
281
     1
  0
CLASS
  1
XRECORD
  2
AcDbXrecord
  3
AutoCAD 2000
 90
        0
280
     0
281
     0
  0
CLASS
  1
LONG_TRANSACTION
  2
AcDbLongTransaction
  3
ObjectDBX Classes
 90
   -65536
280
     1
281
     0
  0
CLASS
  1
LWPOLYLINE
  2
AcDbPolyline
  3
AutoCAD 2000
 90
        0
280
     0
281
     1
  0
CLASS
  1
HATCH
  2
AcDbHatch
  3
AutoCAD 2000
 90
        0
280
     0
281
     1
  0
CLASS
  1
XRECORD
  2
AcDbXrecord
  3
AutoCAD 2000
 90
        0
280
     0
281
     0
  0
CLASS
  1
LONG_TRANSACTION
  2
AcDbLongTransaction
  3
ObjectDBX Classes
 90
   -65536
280
     1
281
     0
  0
CLASS
  1
LWPOLYLINE
  2
AcDbPolyline
  3
AutoCAD 2000
 90
        0
280
     0
281
     1
  0
CLASS
  1
HATCH
  2
AcDbHatch
  3
AutoCAD 2000
 90
        0
280
     0
281
     1
  0
CLASS
  1
XRECORD
  2
AcDbXrecord
  3
AutoCAD 2000
 90
        0
280
     0
281
     0
  0
CLASS
  1
LONG_TRANSACTION
  2
AcDbLongTransaction
  3
ObjectDBX Classes
 90
   -65536
280
     1
281
     0
  0
CLASS
  1
LWPOLYLINE
  2
AcDbPolyline
  3
AutoCAD 2000
 90
        0
280
     0
281
     1
  0
CLASS
  1
HATCH
  2
AcDbHatch
  3
AutoCAD 2000
 90
        0
280
     0
281
     1
  0
CLASS
  1
XRECORD
  2
AcDbXrecord
  3
AutoCAD 2000
 90
        0
280
     0
281
     0
  0
CLASS
  1
LONG_TRANSACTION
  2
AcDbLongTransaction
  3
ObjectDBX Classes
 90
   -65536
280
     1
281
     0
  0
CLASS
  1
LWPOLYLINE
  2
AcDbPolyline
  3
AutoCAD 2000
 90
        0
280
     0
281
     1
  0
CLASS
  1
HATCH
  2
AcDbHatch
  3
AutoCAD 2000
 90
        0
280
     0
281
     1
  0
CLASS
  1
XRECORD
  2
AcDbXrecord
  3
AutoCAD 2000
 90
        0
280
     0
281
     0
  0
CLASS
  1
LONG_TRANSACTION
  2
AcDbLongTransaction
  3
ObjectDBX Classes
 90
   -65536
280
     1
281
     0
  0
CLASS
  1
LWPOLYLINE
  2
AcDbPolyline
  3
AutoCAD 2000
 90
        0
280
     0
281
     1
  0
CLASS
  1
HATCH
  2
AcDbHatch
  3
AutoCAD 2000
 90
        0
280
     0
281
     1
  0
CLASS
  1
XRECORD
  2
AcDbXrecord
  3
AutoCAD 2000
 90
        0
280
     0
281
     0
  0
CLASS
  1
LONG_TRANSACTION
  2
AcDbLongTransaction
  3
ObjectDBX Classes
 90
   -65536
280
     1
281
     0
  0
CLASS
  1
LWPOLYLINE
  2
AcDbPolyline
  3
AutoCAD 2000
 90
        0
280
     0
281
     1
  0
CLASS
  1
HATCH
  2
AcDbHatch
  3
AutoCAD 2000
 90
        0
280
     0
281
     1
  0
CLASS
  1
XRECORD
  2
AcDbXrecord
  3
AutoCAD 2000
 90
        0
280
     0
281
     0
  0
CLASS
  1
LONG_TRANSACTION
  2
AcDbLongTransaction
  3
ObjectDBX Classes
 90
   -65536
280
     1
281
     0
  0
CLASS
  1
LWPOLYLINE
  2
AcDbPolyline
  3
AutoCAD 2000
 90
        0
280
     0
281
     1
  0
CLASS
  1
HATCH
  2
AcDbHatch
  3
AutoCAD 2000
 90
        0
280
     0
281
     1
  0
CLASS
  1
XRECORD
  2
AcDbXrecord
  3
AutoCAD 2000
 90
        0
280
     0
281
     0
  0
CLASS
  1
LONG_TRANSACTION
  2
AcDbLongTransaction
  3
ObjectDBX Classes
 90
   -65536
280
     1
281
     0
  0
CLASS
  1
LWPOLYLINE
  2
AcDbPolyline
  3
AutoCAD 2000
 90
        0
280
     0
281
     1
  0
CLASS
  1
HATCH
  2
AcDbHatch
  3
AutoCAD 2000
 90
        0
280
     0
281
     1
  0
CLASS
  1
XRECORD
  2
AcDbXrecord
  3
AutoCAD 2000
 90
        0
280
     0
281
     0
  0
CLASS
  1
LONG_TRANSACTION
  2
AcDbLongTransaction
  3
ObjectDBX Classes
 90
   -65536
280
     1
281
     0
  0
CLASS
  1
LWPOLYLINE
  2
AcDbPolyline
  3
AutoCAD 2000
 90
        0
280
     0
281
     1
  0
CLASS
  1
HATCH
  2
AcDbHatch
  3
AutoCAD 2000
 90
        0
280
     0
281
     1
  0
CLASS
  1
XRECORD
  2
AcDbXrecord
  3
AutoCAD 2000
 90
        0
280
     0
281
     0
  0
CLASS
  1
TABLESTYLE
  2
AcDbTableStyle
  3
ObjectDBX Classes
 90
     2047
280
     1
281
     0
  0
ENDSEC
  0
SECTION
  2
TABLES
  0
TABLE
  2
VPORT
  5
1D
330
0
100
AcDbSymbolTable
 70
     2
  0
VPORT
  5
360
330
1D
100
AcDbSymbolTableRecord
100
AcDbViewportTableRecord
  2
*Active
 70
     0
 10
0.0
 20
0.0
 11
1.0
 21
1.0
 12
20.34028061826996
 22
9.009856451720317
 13
0.0
 23
0.0
 14
0.063
 24
0.063
 15
0.25
 25
0.25
 16
0.0
 26
0.0
 36
1.0
 17
0.0
 27
0.0
 37
0.0
 40
36.39496955639423
 41
1.814583333333334
 42
50.0
 43
0.0
 44
0.0
 50
0.0
 51
0.0
 71
     0
 72
   100
 73
     1
 74
     3
 75
     0
 76
     0
 77
     0
 78
     0
281
     0
 65
     1
110
0.0
120
0.0
130
0.0
111
1.0
121
0.0
131
0.0
112
0.0
122
1.0
132
0.0
 79
     0
146
0.0
  0
ENDTAB
  0
TABLE
  2
LTYPE
  5
18
330
0
100
AcDbSymbolTable
 70
     2
  0
LTYPE
  5
19
330
18
100
AcDbSymbolTableRecord
100
AcDbLinetypeTableRecord
  2
BYBLOCK
 70
     0
  3

 72
    65
 73
     0
 40
0.0
  0
LTYPE
  5
1A
330
18
100
AcDbSymbolTableRecord
100
AcDbLinetypeTableRecord
  2
BYLAYER
 70
     0
  3

 72
    65
 73
     0
 40
0.0
  0
LTYPE
  5
A
330
18
100
AcDbSymbolTableRecord
100
AcDbLinetypeTableRecord
  2
CONTINUOUS
 70
     0
  3
Solid line
 72
    65
 73
     0
 40
0.0
  0
LTYPE
  5
35F
330
18
100
AcDbSymbolTableRecord
100
AcDbLinetypeTableRecord
  2
HIDDEN
 70
     0
  3
Hidden __ __ __ __ __ __ __ __ __ __ __ __ __ _
 72
    65
 73
     2
 40
0.375
 49
0.25
 74
     0
 49
-0.125
 74
     0
  0
ENDTAB
  0
TABLE
  2
LAYER
  5
14
330
0
100
AcDbSymbolTable
 70
     1
  0
LAYER
  5
6
330
14
100
AcDbSymbolTableRecord
100
AcDbLayerTableRecord
  2
0
 70
     0
 62
     7
  6
CONTINUOUS
370
    -3
390
7
  0
ENDTAB
  0
TABLE
  2
STYLE
  5
15
330
0
100
AcDbSymbolTable
 70
     2
  0
STYLE
  5
16
330
15
100
AcDbSymbolTableRecord
100
AcDbTextStyleTableRecord
  2
STANDARD
 70
     0
 40
0.0
 41
1.0
 50
0.0
 71
     0
 42
0.36
  3
TXT
  4

  0
STYLE
  5
35E
330
15
100
AcDbSymbolTableRecord
100
AcDbTextStyleTableRecord
  2

 70
     1
 40
0.0
 41
1.0
 50
0.0
 71
     0
 42
0.36
  3
ltypeshp.shx
  4

  0
ENDTAB
  0
TABLE
  2
VIEW
  5
1B
330
0
100
AcDbSymbolTable
 70
     0
  0
ENDTAB
  0
TABLE
  2
UCS
  5
1C
330
0
100
AcDbSymbolTable
 70
     0
  0
ENDTAB
  0
TABLE
  2
APPID
  5
1F
330
0
100
AcDbSymbolTable
 70
     1
  0
APPID
  5
20
330
1F
100
AcDbSymbolTableRecord
100
AcDbRegAppTableRecord
  2
ACAD
 70
     0
  0
ENDTAB
  0
TABLE
  2
DIMSTYLE
  5
21
330
0
100
AcDbSymbolTable
 70
     1
100
AcDbDimStyleTable
  0
DIMSTYLE
105
28
330
21
100
AcDbSymbolTableRecord
100
AcDbDimStyleTableRecord
  2
STANDARD
 70
     0
  3

  4

340
16
  0
ENDTAB
  0
TABLE
  2
BLOCK_RECORD
  5
1
330
0
100
AcDbSymbolTable
 70
     0
  0
BLOCK_RECORD
  5
2
330
1
100
AcDbSymbolTableRecord
100
AcDbBlockTableRecord
  2
*MODEL_SPACE
340
C
  0
BLOCK_RECORD
  5
E
330
1
100
AcDbSymbolTableRecord
100
AcDbBlockTableRecord
  2
*PAPER_SPACE
340
13
  0
ENDTAB
  0
ENDSEC
  0
SECTION
  2
BLOCKS
  0
BLOCK
  5
5
330
2
100
AcDbEntity
  8
0
100
AcDbBlockBegin
  2
*MODEL_SPACE
 70
     0
 10
0.0
 20
0.0
 30
0.0
  3
*MODEL_SPACE
  1

  4

  0
ENDBLK
  5
B
330
2
100
AcDbEntity
  8
0
100
AcDbBlockEnd
  0
BLOCK
  5
11
330
E
100
AcDbEntity
 67
     1
  8
0
100
AcDbBlockBegin
  2
*PAPER_SPACE
 70
     0
 10
0.0
 20
0.0
 30
0.0
  3
*PAPER_SPACE
  1

  4

  0
ENDBLK
  5
12
330
E
100
AcDbEntity
 67
     1
  8
0
100
AcDbBlockEnd
  0
ENDSEC
  0
SECTION
  2
ENTITIES
  0
ARC
  5
18E
330
2
100
AcDbEntity
  8
0
100
AcDbCircle
 10
12.18834935897972
 20
16.0449782341462
 30
0.0
 40
0.5
100
AcDbArc
 50
270.0
 51
295.1175762378231
  0
ARC
  5
18F
330
2
100
AcDbEntity
  8
0
100
AcDbCircle
 10
12.18834935897971
 20
19.5449782341462
 30
0.0
 40
0.5
100
AcDbArc
 50
270.0
 51
295.1175762378232
  0
LINE
  5
190
330
2
100
AcDbEntity
  8
0
100
AcDbLine
 10
8.963087957970991
 20
19.16997823414621
 30
0.0
 11
7.025587957970991
 21
19.16997823414621
 31
0.0
  0
LINE
  5
191
330
2
100
AcDbEntity
  8
0
100
AcDbLine
 10
8.96308795797097
 20
19.23247823414621
 30
0.0
 11
7.025587957970991
 21
19.23247823414621
 31
0.0
  0
LINE
  5
192
330
2
100
AcDbEntity
  8
0
100
AcDbLine
 10
7.025587957970991
 20
19.16997823414622
 30
0.0
 11
7.025587957970991
 21
19.23247823414621
 31
0.0
  0
LINE
  5
193
330
2
100
AcDbEntity
  8
0
100
AcDbLine
 10
9.088087957970991
 20
15.59225892033439
 30
0.0
 11
9.08808795797097
 21
19.10747823414621
 31
0.0
  0
LINE
  5
194
330
2
100
AcDbEntity
  8
0
100
AcDbLine
 10
9.025587957970991
 20
15.59225892033439
 30
0.0
 11
9.025587957970991
 21
19.10747823414621
 31
0.0
  0
LINE
  5
195
330
2
100
AcDbEntity
  8
0
100
AcDbLine
 10
9.61209668321872
 20
15.54497823414621
 30
0.0
 11
11.87693408190931
 21
15.54497823414621
 31
0.0
  0
ARC
  5
196
330
2
100
AcDbEntity
  8
0
100
AcDbCircle
 10
9.525751613611657
 20
15.54456682084685
 30
0.0
 40
0.0863460497437565
100
AcDbArc
 50
0.272998416842015
 51
179.7270015831582
  0
LINE
  5
197
330
2
100
AcDbEntity
  8
0
100
AcDbLine
 10
9.300326556962219
 20
15.5449782341462
 30
0.0
 11
9.439406544004608
 21
15.5449782341462
 31
0.0
  0
LINE
  5
198
330
2
100
AcDbEntity
  8
0
100
AcDbLine
 10
9.300326556962219
 20
15.5449782341462
 30
0.0
 11
9.400587957970963
 21
15.5449782341462
 31
0.0
  0
LINE
  5
199
330
2
100
AcDbEntity
  8
0
100
AcDbLine
 10
9.025587957970991
 20
15.59225892033439
 30
0.0
 11
9.088087957970991
 21
15.59225892033439
 31
0.0
  0
LINE
  5
19A
330
2
100
AcDbEntity
  8
0
100
AcDbLine
 10
9.025587957970991
 20
15.59225892033439
 30
0.0
 11
9.088087957970991
 21
15.59225892033439
 31
0.0
  0
ARC
  5
19B
330
2
100
AcDbEntity
  8
0
100
AcDbCircle
 10
9.300326556962219
 20
16.0449782341462
 30
0.0
 40
0.5
100
AcDbArc
 50
244.8824237621802
 51
269.9999999999999
  0
LINE
  5
19C
330
2
100
AcDbEntity
  8
0
100
AcDbLine
 10
12.08808795797097
 20
15.54497823414621
 30
0.0
 11
12.18834935897972
 21
15.5449782341462
 31
0.0
  0
LINE
  5
19D
330
2
100
AcDbEntity
  8
0
100
AcDbLine
 10
12.04992040199416
 20
15.5449782341462
 30
0.0
 11
12.18834935897972
 21
15.5449782341462
 31
0.0
  0
ARC
  5
19E
330
2
100
AcDbEntity
  8
0
100
AcDbCircle
 10
11.96342724195173
 20
15.54426674771296
 30
0.0
 40
0.0864960863107047
100
AcDbArc
 50
0.4713002780001075
 51
179.5286997219983
  0
CIRCLE
  5
19F
330
2
100
AcDbEntity
  8
0
100
AcDbCircle
 10
10.74760455354621
 20
16.9199782341462
 30
0.0
 40
0.1405
  0
LINE
  5
1A1
330
2
100
AcDbEntity
  8
0
100
AcDbLine
 10
9.624237125702969
 20
19.0449782341462
 30
0.0
 11
11.87097198138947
 21
19.0449782341462
 31
0.0
  0
ARC
  5
1A2
330
2
100
AcDbEntity
  8
0
100
AcDbCircle
 10
9.528854553546214
 20
19.04535029005814
 30
0.0
 40
0.0953832977876115
100
AcDbArc
 50
180.223490779295
 51
359.7765092207052
  0
ARC
  5
1A3
330
2
100
AcDbEntity
  8
0
100
AcDbCircle
 10
8.96308795797097
 20
19.10747823414621
 30
0.0
 40
0.125
100
AcDbArc
 50
0.0
 51
90.00000000000003
  0
ARC
  5
1A4
330
2
100
AcDbEntity
  8
0
100
AcDbCircle
 10
8.963087957970991
 20
19.10747823414621
 30
0.0
 40
0.0625
100
AcDbArc
 50
0.0
 51
90.00000000000003
  0
LINE
  5
1A5
330
2
100
AcDbEntity
  8
0
100
AcDbLine
 10
9.025587957970991
 20
19.0610089203344
 30
0.0
 11
9.08808795797097
 21
19.0610089203344
 31
0.0
  0
LINE
  5
1A6
330
2
100
AcDbEntity
  8
0
100
AcDbLine
 10
9.300326556962219
 20
19.0449782341462
 30
0.0
 11
9.43347198138936
 21
19.0449782341462
 31
0.0
  0
ARC
  5
1A7
330
2
100
AcDbEntity
  8
0
100
AcDbCircle
 10
9.300326556962219
 20
19.5449782341462
 30
0.0
 40
0.5
100
AcDbArc
 50
244.8824237621772
 51
269.9999999999999
  0
ARC
  5
1A8
330
2
100
AcDbEntity
  8
0
100
AcDbCircle
 10
11.96635455354622
 20
19.04535029005814
 30
0.0
 40
0.0953832977876115
100
AcDbArc
 50
180.223490779295
 51
359.7765092207052
  0
LINE
  5
1A9
330
2
100
AcDbEntity
  8
0
100
AcDbLine
 10
12.06173712570294
 20
19.0449782341462
 30
0.0
 11
12.18834935897971
 21
19.0449782341462
 31
0.0
  0
LINE
  5
1AA
330
2
100
AcDbEntity
  8
0
100
AcDbLine
 10
12.08808795797097
 20
19.0449782341462
 30
0.0
 11
12.18834935897971
 21
19.0449782341462
 31
0.0
  0
LINE
  5
1AB
330
2
100
AcDbEntity
  8
0
100
AcDbLine
 10
12.40058795797097
 20
15.59225892033441
 30
0.0
 11
12.40058795797097
 21
19.09225892033441
 31
0.0
  0
LINE
  5
1AC
330
2
100
AcDbEntity
  8
0
100
AcDbLine
 10
12.46308795797097
 20
15.59225892033441
 30
0.0
 11
12.46308795797097
 21
19.10747823414621
 31
0.0
  0
LINE
  5
1AD
330
2
100
AcDbEntity
  8
0
100
AcDbLine
 10
12.46308795797097
 20
15.59225892033441
 30
0.0
 11
12.40058795797097
 21
15.59225892033441
 31
0.0
  0
LINE
  5
1AE
330
2
100
AcDbEntity
  8
0
100
AcDbLine
 10
14.463087957971
 20
19.16997823414621
 30
0.0
 11
12.52558795797097
 21
19.16997823414621
 31
0.0
  0
LINE
  5
1AF
330
2
100
AcDbEntity
  8
0
100
AcDbLine
 10
14.463087957971
 20
19.23247823414621
 30
0.0
 11
12.52558795797097
 21
19.23247823414621
 31
0.0
  0
LINE
  5
1B0
330
2
100
AcDbEntity
  8
0
100
AcDbLine
 10
12.46308795797095
 20
19.0610089203344
 30
0.0
 11
12.40058795797097
 21
19.0610089203344
 31
0.0
  0
LINE
  5
1B1
330
2
100
AcDbEntity
  8
0
100
AcDbLine
 10
12.40058795797097
 20
19.09225892033441
 30
0.0
 11
12.40058795797097
 21
19.10747823414621
 31
0.0
  0
ARC
  5
1B2
330
2
100
AcDbEntity
  8
0
100
AcDbCircle
 10
12.52558795797097
 20
19.10747823414621
 30
0.0
 40
0.125
100
AcDbArc
 50
90.00000000000006
 51
180.0
  0
ARC
  5
1B3
330
2
100
AcDbEntity
  8
0
100
AcDbCircle
 10
12.52558795797097
 20
19.10747823414621
 30
0.0
 40
0.0625
100
AcDbArc
 50
90.00000000000006
 51
180.0
  0
LINE
  5
1B4
330
2
100
AcDbEntity
  8
0
100
AcDbLine
 10
14.463087957971
 20
19.16997823414621
 30
0.0
 11
14.463087957971
 21
19.23247823414621
 31
0.0
  0
LINE
  5
1B5
330
2
100
AcDbEntity
  8
0
  6
Continuous
100
AcDbLine
 10
14.08808795797095
 20
5.849300461042436
 30
0.0
 11
14.08808795797095
 21
5.224300461042319
 31
0.0
  0
LINE
  5
1B6
330
2
100
AcDbEntity
  8
0
100
AcDbLine
 10
12.40058795797097
 20
0.1250000000000124
 30
0.0
 11
12.40058795797097
 21
9.156249999999996
 31
0.0
  0
LINE
  5
1B7
330
2
100
AcDbEntity
  8
0
100
AcDbLine
 10
12.46308795797097
 20
0.1250000000000053
 30
0.0
 11
12.46308795797097
 21
9.156249999999996
 31
0.0
  0
LINE
  5
1B8
330
2
100
AcDbEntity
  8
0
  6
Continuous
100
AcDbLine
 10
7.400587957971002
 20
5.849300461042432
 30
0.0
 11
7.400587957971002
 21
5.224300461042319
 31
0.0
  0
LINE
  5
1B9
330
2
100
AcDbEntity
  8
0
100
AcDbLine
 10
9.088087957970974
 20
0.1250000000000107
 30
0.0
 11
9.08808795797097
 21
9.156249999999993
 31
0.0
  0
LINE
  5
1BA
330
2
100
AcDbEntity
  8
0
100
AcDbLine
 10
9.025587957970974
 20
0.1250000000000036
 30
0.0
 11
9.025587957970966
 21
9.156249999999989
 31
0.0
  0
ARC
  5
1BB
330
2
100
AcDbEntity
  8
0
100
AcDbCircle
 10
12.33808795797097
 20
0.1250000000000124
 30
0.0
 40
0.0625
100
AcDbArc
 50
270.0000000000002
 51
0.000000000000007
  0
ARC
  5
1BC
330
2
100
AcDbEntity
  8
0
100
AcDbCircle
 10
12.33808795797097
 20
0.1250000000000053
 30
0.0
 40
0.125
100
AcDbArc
 50
270.0000000000001
 51
0.000000000000007
  0
LINE
  5
1BD
330
2
100
AcDbEntity
  8
0
100
AcDbLine
 10
12.33808795797097
 20
0.0000000000000053
 30
0.0
 11
9.150587957970974
 21
0.0000000000000036
 31
0.0
  0
LINE
  5
1BE
330
2
100
AcDbEntity
  8
0
100
AcDbLine
 10
12.33808795797097
 20
0.0625000000000124
 30
0.0
 11
9.150587957970974
 21
0.0625000000000107
 31
0.0
  0
ARC
  5
1BF
330
2
100
AcDbEntity
  8
0
100
AcDbCircle
 10
9.150587957970974
 20
0.1250000000000036
 30
0.0
 40
0.125
100
AcDbArc
 50
180.0
 51
269.9999999999999
  0
ARC
  5
1C0
330
2
100
AcDbEntity
  8
0
100
AcDbCircle
 10
9.150587957970974
 20
0.1250000000000107
 30
0.0
 40
0.0625
100
AcDbArc
 50
180.0
 51
269.9999999999998
  0
ARC
  5
1C1
330
2
100
AcDbEntity
  8
0
  6
Continuous
100
AcDbCircle
 10
8.713087957970981
 20
2.07448489359639
 30
0.0
 40
1.0
100
AcDbArc
 50
179.9999999999976
 51
224.9999999999991
  0
LINE
  5
1C2
330
2
100
AcDbEntity
  8
0
  6
Continuous
100
AcDbLine
 10
7.713087957971037
 20
3.224300461042303
 30
0.0
 11
7.713087957970995
 21
2.074484893596427
 31
0.0
  0
CIRCLE
  5
1C3
330
2
100
AcDbEntity
  8
0
  6
Continuous
100
AcDbCircle
 10
7.681837957970981
 20
3.937499999999934
 30
0.0
 40
0.0855
  0
LINE
  5
1C4
330
2
100
AcDbEntity
  8
0
  6
Continuous
100
AcDbLine
 10
7.40058795797103
 20
4.099300461042317
 30
0.0
 11
7.400587957971002
 21
3.474300461042331
 31
0.0
  0
ARC
  5
1C5
330
2
100
AcDbEntity
  8
0
  6
Continuous
100
AcDbCircle
 10
7.525587957971016
 20
3.474300461042338
 30
0.0
 40
0.1250000000000142
100
AcDbArc
 50
180.0
 51
270.0000000000065
  0
ARC
  5
1C6
330
2
100
AcDbEntity
  8
0
  6
Continuous
100
AcDbCircle
 10
7.588087957971023
 20
3.22430046104231
 30
0.0
 40
0.1250000000000142
100
AcDbArc
 50
0.000000000000007
 51
90.00000000000976
  0
LINE
  5
1C7
330
2
100
AcDbEntity
  8
0
  6
Continuous
100
AcDbLine
 10
7.52558795797103
 20
3.349300461042317
 30
0.0
 11
7.588087957971002
 21
3.349300461042317
 31
0.0
  0
LINE
  5
1C8
330
2
100
AcDbEntity
  8
0
  6
Continuous
100
AcDbLine
 10
7.71308795797103
 20
4.974300461042319
 30
0.0
 11
7.713087957971002
 21
4.349300461042317
 31
0.0
  0
LINE
  5
1C9
330
2
100
AcDbEntity
  8
0
  6
Continuous
100
AcDbLine
 10
7.58808795797103
 20
4.224300461042317
 30
0.0
 11
7.525587957971002
 21
4.224300461042317
 31
0.0
  0
ARC
  5
1CA
330
2
100
AcDbEntity
  8
0
  6
Continuous
100
AcDbCircle
 10
7.588087957971016
 20
4.34930046104231
 30
0.0
 40
0.1249999999999858
100
AcDbArc
 50
270.0000000000065
 51
0.0000000000064699
  0
ARC
  5
1CB
330
2
100
AcDbEntity
  8
0
  6
Continuous
100
AcDbCircle
 10
7.525587957971016
 20
4.099300461042338
 30
0.0
 40
0.1249999999999858
100
AcDbArc
 50
90.00000000000649
 51
180.0000000000066
  0
LINE
  5
1CC
330
2
100
AcDbEntity
  8
0
  6
Continuous
100
AcDbLine
 10
7.52558795797103
 20
5.099300461042319
 30
0.0
 11
7.588087957971002
 21
5.099300461042319
 31
0.0
  0
ARC
  5
1CD
330
2
100
AcDbEntity
  8
0
  6
Continuous
100
AcDbCircle
 10
7.588087957971016
 20
4.974300461042311
 30
0.0
 40
0.1250000000000142
100
AcDbArc
 50
0.0000000000064699
 51
90.00000000000649
  0
ARC
  5
1CE
330
2
100
AcDbEntity
  8
0
  6
Continuous
100
AcDbCircle
 10
7.525587957971016
 20
5.22430046104234
 30
0.0
 40
0.1250000000000142
100
AcDbArc
 50
180.0000000000066
 51
270.0000000000065
  0
ARC
  5
1CF
330
2
100
AcDbEntity
  8
0
  6
Continuous
100
AcDbCircle
 10
9.088087957970988
 20
2.641624999999854
 30
0.0
 40
0.1875
100
AcDbArc
 50
109.4712206344954
 51
250.5287793655046
  0
LINE
  5
1D0
330
2
100
AcDbEntity
  8
0
  6
Continuous
100
AcDbLine
 10
8.005981176784424
 20
1.367378112409853
 30
0.0
 11
9.025587957970977
 21
0.2817093948484022
 31
0.0
  0
CIRCLE
  5
1D1
330
2
100
AcDbEntity
  8
0
  6
Continuous
100
AcDbCircle
 10
8.588087957970988
 20
1.141624999999854
 30
0.0
 40
0.0855
  0
CIRCLE
  5
1D2
330
2
100
AcDbEntity
  8
0
  6
Continuous
100
AcDbCircle
 10
8.588087957970988
 20
2.141624999999854
 30
0.0
 40
0.0855
  0
CIRCLE
  5
1D3
330
2
100
AcDbEntity
  8
0
  6
Continuous
100
AcDbCircle
 10
8.119337957970988
 20
1.641624999999854
 30
0.0
 40
0.0855
  0
CIRCLE
  5
1D4
330
2
100
AcDbEntity
  8
0
  6
Continuous
100
AcDbCircle
 10
8.119337957970988
 20
2.641624999999854
 30
0.0
 40
0.0855
  0
ARC
  5
1D5
330
2
100
AcDbEntity
  8
0
  6
Continuous
100
AcDbCircle
 10
8.875976996681455
 20
3.415416796182173
 30
0.0
 40
0.06
100
AcDbArc
 50
121.631166275524
 51
238.368833724476
  0
LINE
  5
1D6
330
2
100
AcDbEntity
  8
0
  6
Continuous
100
AcDbLine
 10
9.003476996681471
 20
3.266413932653292
 30
0.0
 11
8.844510048953158
 21
3.364330289150823
 31
0.0
  0
CIRCLE
  5
1D7
330
2
100
AcDbEntity
  8
0
  6
Continuous
100
AcDbCircle
 10
8.588087957970988
 20
3.141624999999854
 30
0.0
 40
0.0855
  0
CIRCLE
  5
1D8
330
2
100
AcDbEntity
  8
0
  6
Continuous
100
AcDbCircle
 10
8.119337957970988
 20
3.641624999999854
 30
0.0
 40
0.0855
  0
LINE
  5
1D9
330
2
100
AcDbEntity
  8
0
  6
Continuous
100
AcDbLine
 10
9.003476996681471
 20
3.564419659711041
 30
0.0
 11
8.844510048953158
 21
3.466503303213523
 31
0.0
  0
CIRCLE
  5
1DA
330
2
100
AcDbEntity
  8
0
  6
Continuous
100
AcDbCircle
 10
8.119337957970988
 20
4.641624999999856
 30
0.0
 40
0.0855
  0
CIRCLE
  5
1DB
330
2
100
AcDbEntity
  8
0
  6
Continuous
100
AcDbCircle
 10
8.588087957970988
 20
4.140624999999877
 30
0.0
 40
0.0855
  0
CIRCLE
  5
1DC
330
2
100
AcDbEntity
  8
0
  6
Continuous
100
AcDbCircle
 10
8.588087957970988
 20
5.140624999999879
 30
0.0
 40
0.0855
  0
ARC
  5
1DD
330
2
100
AcDbEntity
  8
0
  6
Continuous
100
AcDbCircle
 10
8.875976996681455
 20
4.915416796182175
 30
0.0
 40
0.06
100
AcDbArc
 50
121.631166275524
 51
238.368833724476
  0
LINE
  5
1DE
330
2
100
AcDbEntity
  8
0
  6
Continuous
100
AcDbLine
 10
9.003476996681471
 20
4.76641393265329
 30
0.0
 11
8.844510048953158
 21
4.864330289150825
 31
0.0
  0
LINE
  5
1DF
330
2
100
AcDbEntity
  8
0
  6
Continuous
100
AcDbLine
 10
9.003476996681471
 20
5.064419659711039
 30
0.0
 11
8.844510048953158
 21
4.966503303213525
 31
0.0
  0
ARC
  5
1E0
330
2
100
AcDbEntity
  8
0
  6
Continuous
100
AcDbCircle
 10
12.40058795797096
 20
2.641624999999856
 30
0.0
 40
0.1875
100
AcDbArc
 50
289.4712206344954
 51
70.52877936550463
  0
LINE
  5
1E1
330
2
100
AcDbEntity
  8
0
  6
Continuous
100
AcDbLine
 10
13.77558795797091
 20
3.224300461042304
 30
0.0
 11
13.77558795797095
 21
2.074484893596431
 31
0.0
  0
ARC
  5
1E2
330
2
100
AcDbEntity
  8
0
  6
Continuous
100
AcDbCircle
 10
12.77558795797097
 20
2.074484893596393
 30
0.0
 40
1.0
100
AcDbArc
 50
315.0000000000009
 51
0.0000000000024497
  0
LINE
  5
1E3
330
2
100
AcDbEntity
  8
0
  6
Continuous
100
AcDbLine
 10
13.48269473915753
 20
1.367378112409856
 30
0.0
 11
12.46308795797097
 21
0.2817093948484057
 31
0.0
  0
CIRCLE
  5
1E4
330
2
100
AcDbEntity
  8
0
  6
Continuous
100
AcDbCircle
 10
12.90058795797096
 20
1.141624999999856
 30
0.0
 40
0.0855
  0
CIRCLE
  5
1E5
330
2
100
AcDbEntity
  8
0
  6
Continuous
100
AcDbCircle
 10
12.90058795797096
 20
2.141624999999856
 30
0.0
 40
0.0855
  0
CIRCLE
  5
1E6
330
2
100
AcDbEntity
  8
0
  6
Continuous
100
AcDbCircle
 10
13.36933795797096
 20
1.641624999999856
 30
0.0
 40
0.0855
  0
CIRCLE
  5
1E7
330
2
100
AcDbEntity
  8
0
  6
Continuous
100
AcDbCircle
 10
13.36933795797096
 20
2.641624999999856
 30
0.0
 40
0.0855
  0
CIRCLE
  5
1E8
330
2
100
AcDbEntity
  8
0
  6
Continuous
100
AcDbCircle
 10
13.80683795797097
 20
3.937499999999936
 30
0.0
 40
0.0855
  0
LINE
  5
1E9
330
2
100
AcDbEntity
  8
0
  6
Continuous
100
AcDbLine
 10
14.08808795797092
 20
4.099300461042319
 30
0.0
 11
14.08808795797095
 21
3.474300461042333
 31
0.0
  0
ARC
  5
1EA
330
2
100
AcDbEntity
  8
0
  6
Continuous
100
AcDbCircle
 10
12.56847699668149
 20
3.415416796182175
 30
0.0
 40
0.06
100
AcDbArc
 50
301.631166275524
 51
58.36883372447599
  0
CIRCLE
  5
1EB
330
2
100
AcDbEntity
  8
0
  6
Continuous
100
AcDbCircle
 10
12.90058795797096
 20
3.141624999999856
 30
0.0
 40
0.0855
  0
LINE
  5
1EC
330
2
100
AcDbEntity
  8
0
  6
Continuous
100
AcDbLine
 10
12.44097699668148
 20
3.266413932653293
 30
0.0
 11
12.59994394440979
 21
3.364330289150825
 31
0.0
  0
LINE
  5
1ED
330
2
100
AcDbEntity
  8
0
  6
Continuous
100
AcDbLine
 10
12.44097699668148
 20
3.564419659711042
 30
0.0
 11
12.59994394440979
 21
3.466503303213525
 31
0.0
  0
CIRCLE
  5
1EE
330
2
100
AcDbEntity
  8
0
  6
Continuous
100
AcDbCircle
 10
13.36933795797096
 20
3.641624999999856
 30
0.0
 40
0.0855
  0
ARC
  5
1EF
330
2
100
AcDbEntity
  8
0
  6
Continuous
100
AcDbCircle
 10
13.96308795797093
 20
3.47430046104234
 30
0.0
 40
0.1250000000000142
100
AcDbArc
 50
269.9999999999935
 51
0.000000000000007
  0
LINE
  5
1F0
330
2
100
AcDbEntity
  8
0
  6
Continuous
100
AcDbLine
 10
13.96308795797092
 20
3.349300461042319
 30
0.0
 11
13.90058795797095
 21
3.349300461042319
 31
0.0
  0
ARC
  5
1F1
330
2
100
AcDbEntity
  8
0
  6
Continuous
100
AcDbCircle
 10
13.90058795797092
 20
3.224300461042311
 30
0.0
 40
0.1250000000000142
100
AcDbArc
 50
89.99999999999025
 51
180.0
  0
CIRCLE
  5
1F2
330
2
100
AcDbEntity
  8
0
  6
Continuous
100
AcDbCircle
 10
13.36933795797096
 20
4.641624999999856
 30
0.0
 40
0.0855
  0
CIRCLE
  5
1F3
330
2
100
AcDbEntity
  8
0
  6
Continuous
100
AcDbCircle
 10
12.90058795797096
 20
4.140624999999879
 30
0.0
 40
0.0855
  0
CIRCLE
  5
1F4
330
2
100
AcDbEntity
  8
0
  6
Continuous
100
AcDbCircle
 10
12.90058795797096
 20
5.140624999999879
 30
0.0
 40
0.0855
  0
ARC
  5
1F5
330
2
100
AcDbEntity
  8
0
  6
Continuous
100
AcDbCircle
 10
12.56847699668149
 20
4.915416796182175
 30
0.0
 40
0.06
100
AcDbArc
 50
301.631166275524
 51
58.36883372447599
  0
LINE
  5
1F6
330
2
100
AcDbEntity
  8
0
  6
Continuous
100
AcDbLine
 10
12.44097699668148
 20
5.064419659711042
 30
0.0
 11
12.59994394440979
 21
4.966503303213525
 31
0.0
  0
LINE
  5
1F7
330
2
100
AcDbEntity
  8
0
  6
Continuous
100
AcDbLine
 10
12.44097699668148
 20
4.766413932653293
 30
0.0
 11
12.59994394440979
 21
4.864330289150825
 31
0.0
  0
LINE
  5
1F8
330
2
100
AcDbEntity
  8
0
  6
Continuous
100
AcDbLine
 10
13.77558795797092
 20
4.974300461042319
 30
0.0
 11
13.77558795797095
 21
4.349300461042319
 31
0.0
  0
ARC
  5
1F9
330
2
100
AcDbEntity
  8
0
  6
Continuous
100
AcDbCircle
 10
13.96308795797093
 20
4.09930046104234
 30
0.0
 40
0.1249999999999858
100
AcDbArc
 50
359.9999999999934
 51
89.99999999999351
  0
LINE
  5
1FA
330
2
100
AcDbEntity
  8
0
  6
Continuous
100
AcDbLine
 10
13.90058795797092
 20
4.224300461042319
 30
0.0
 11
13.96308795797095
 21
4.224300461042319
 31
0.0
  0
ARC
  5
1FB
330
2
100
AcDbEntity
  8
0
  6
Continuous
100
AcDbCircle
 10
13.90058795797093
 20
4.349300461042311
 30
0.0
 40
0.1249999999999858
100
AcDbArc
 50
179.9999999999936
 51
269.9999999999935
  0
ARC
  5
1FC
330
2
100
AcDbEntity
  8
0
  6
Continuous
100
AcDbCircle
 10
13.96308795797093
 20
5.22430046104234
 30
0.0
 40
0.1250000000000142
100
AcDbArc
 50
269.9999999999935
 51
359.9999999999934
  0
LINE
  5
1FD
330
2
100
AcDbEntity
  8
0
  6
Continuous
100
AcDbLine
 10
13.96308795797092
 20
5.099300461042319
 30
0.0
 11
13.90058795797095
 21
5.099300461042319
 31
0.0
  0
ARC
  5
1FE
330
2
100
AcDbEntity
  8
0
  6
Continuous
100
AcDbCircle
 10
13.90058795797093
 20
4.974300461042311
 30
0.0
 40
0.1250000000000142
100
AcDbArc
 50
89.99999999999351
 51
179.9999999999936
  0
LINE
  5
1FF
330
2
100
AcDbEntity
  8
0
  6
Continuous
100
AcDbLine
 10
7.400587957970966
 20
9.156249999999986
 30
0.0
 11
9.088087957970959
 21
9.156249999999993
 31
0.0
  0
LINE
  5
200
330
2
100
AcDbEntity
  8
0
100
AcDbLine
 10
7.400587957971005
 20
7.849300461042375
 30
0.0
 11
7.400587957970974
 21
6.97430046104239
 31
0.0
  0
CIRCLE
  5
201
330
2
100
AcDbEntity
  8
0
  6
Continuous
100
AcDbCircle
 10
7.681837957970984
 20
7.687499999999986
 30
0.0
 40
0.0855
  0
LINE
  5
202
330
2
100
AcDbEntity
  8
0
100
AcDbLine
 10
7.713087957970995
 20
6.724300461042361
 30
0.0
 11
7.713087957970974
 21
6.099300461042375
 31
0.0
  0
ARC
  5
203
330
2
100
AcDbEntity
  8
0
100
AcDbCircle
 10
7.525587957970959
 20
5.849300461042418
 30
0.0
 40
0.1249999999999574
100
AcDbArc
 50
89.99999999999351
 51
179.9999999999935
  0
CIRCLE
  5
204
330
2
100
AcDbEntity
  8
0
100
AcDbCircle
 10
7.681837957970981
 20
5.687499999999872
 30
0.0
 40
0.0855
  0
ARC
  5
205
330
2
100
AcDbEntity
  8
0
100
AcDbCircle
 10
7.588087957971016
 20
6.09930046104239
 30
0.0
 40
0.1249999999999574
100
AcDbArc
 50
269.9999999999935
 51
359.9999999999935
  0
LINE
  5
206
330
2
100
AcDbEntity
  8
0
100
AcDbLine
 10
7.588087957971002
 20
5.974300461042432
 30
0.0
 11
7.525587957970974
 21
5.974300461042375
 31
0.0
  0
ARC
  5
207
330
2
100
AcDbEntity
  8
0
100
AcDbCircle
 10
7.588087957970981
 20
6.724300461042361
 30
0.0
 40
0.1250000000000107
100
AcDbArc
 50
359.9999999999984
 51
90.00000000000328
  0
LINE
  5
208
330
2
100
AcDbEntity
  8
0
100
AcDbLine
 10
7.525587957971002
 20
6.849300461042375
 30
0.0
 11
7.588087957970974
 21
6.849300461042375
 31
0.0
  0
ARC
  5
209
330
2
100
AcDbEntity
  8
0
100
AcDbCircle
 10
7.525587957970988
 20
6.97430046104239
 30
0.0
 40
0.1250000000000142
100
AcDbArc
 50
180.0
 51
270.0000000000065
  0
LINE
  5
20A
330
2
100
AcDbEntity
  8
0
  6
Continuous
100
AcDbLine
 10
7.400587957970966
 20
9.156249999999986
 30
0.0
 11
7.400587957970966
 21
8.974300461042503
 31
0.0
  0
LINE
  5
20B
330
2
100
AcDbEntity
  8
0
  6
Continuous
100
AcDbLine
 10
7.713087957971002
 20
8.724300461042475
 30
0.0
 11
7.713087957970974
 21
8.099300461042375
 31
0.0
  0
ARC
  5
20C
330
2
100
AcDbEntity
  8
0
  6
Continuous
100
AcDbCircle
 10
7.525587957970991
 20
7.84930046104239
 30
0.0
 40
0.1249999999999858
100
AcDbArc
 50
90.00000000000654
 51
180.0000000000066
  0
LINE
  5
20D
330
2
100
AcDbEntity
  8
0
  6
Continuous
100
AcDbLine
 10
7.588087957971002
 20
7.974300461042375
 30
0.0
 11
7.525587957970974
 21
7.974300461042375
 31
0.0
  0
ARC
  5
20E
330
2
100
AcDbEntity
  8
0
  6
Continuous
100
AcDbCircle
 10
7.588087957970991
 20
8.099300461042361
 30
0.0
 40
0.1249999999999858
100
AcDbArc
 50
270.0000000000065
 51
0.0000000000065208
  0
ARC
  5
20F
330
2
100
AcDbEntity
  8
0
  6
Continuous
100
AcDbCircle
 10
7.588087957970984
 20
8.724300461042468
 30
0.0
 40
0.1250000000000178
100
AcDbArc
 50
0.0000000000016355
 51
90.00000000000654
  0
LINE
  5
210
330
2
100
AcDbEntity
  8
0
  6
Continuous
100
AcDbLine
 10
7.525587957970995
 20
8.849300461042489
 30
0.0
 11
7.588087957970966
 21
8.849300461042489
 31
0.0
  0
ARC
  5
211
330
2
100
AcDbEntity
  8
0
  6
Continuous
100
AcDbCircle
 10
7.525587957970984
 20
8.974300461042503
 30
0.0
 40
0.1250000000000142
100
AcDbArc
 50
180.0
 51
270.0000000000065
  0
ARC
  5
212
330
2
100
AcDbEntity
  8
0
  6
Continuous
100
AcDbCircle
 10
8.898087957970954
 20
6.499999999999879
 30
0.0
 40
0.06
100
AcDbArc
 50
121.631166275524
 51
238.368833724476
  0
LINE
  5
213
330
2
100
AcDbEntity
  8
0
  6
Continuous
100
AcDbLine
 10
9.02558795797097
 20
6.350997136470994
 30
0.0
 11
8.866621010242657
 21
6.448913492968529
 31
0.0
  0
CIRCLE
  5
214
330
2
100
AcDbEntity
  8
0
100
AcDbCircle
 10
8.119337957970995
 20
6.360374999999849
 30
0.0
 40
0.0855
  0
LINE
  5
215
330
2
100
AcDbEntity
  8
0
  6
Continuous
100
AcDbLine
 10
9.02558795797097
 20
6.649002863528743
 30
0.0
 11
8.866621010242657
 21
6.551086507031229
 31
0.0
  0
CIRCLE
  5
216
330
2
100
AcDbEntity
  8
0
100
AcDbCircle
 10
8.588087957970995
 20
6.859374999999872
 30
0.0
 40
0.0855
  0
LINE
  5
217
330
2
100
AcDbEntity
  8
0
  6
Continuous
100
AcDbLine
 10
9.025587957970966
 20
8.272872136471122
 30
0.0
 11
8.866621010242664
 21
8.370788492968643
 31
0.0
  0
LINE
  5
218
330
2
100
AcDbEntity
  8
0
  6
Continuous
100
AcDbLine
 10
9.025587957970966
 20
8.57087786352886
 30
0.0
 11
8.866621010242664
 21
8.472961507031343
 31
0.0
  0
CIRCLE
  5
219
330
2
100
AcDbEntity
  8
0
  6
Continuous
100
AcDbCircle
 10
8.119337957970998
 20
8.360374999999962
 30
0.0
 40
0.0855
  0
ARC
  5
21A
330
2
100
AcDbEntity
  8
0
  6
Continuous
100
AcDbCircle
 10
8.898087957970965
 20
8.421874999999986
 30
0.0
 40
0.06
100
AcDbArc
 50
121.631166275524
 51
238.368833724476
  0
CIRCLE
  5
21B
330
2
100
AcDbEntity
  8
0
  6
Continuous
100
AcDbCircle
 10
8.588087957970998
 20
8.859374999999986
 30
0.0
 40
0.0855
  0
CIRCLE
  5
21C
330
2
100
AcDbEntity
  8
0
  6
Continuous
100
AcDbCircle
 10
13.80683795797096
 20
7.687499999999989
 30
0.0
 40
0.0855
  0
LINE
  5
21D
330
2
100
AcDbEntity
  8
0
100
AcDbLine
 10
14.08808795797094
 20
7.849300461042379
 30
0.0
 11
14.08808795797097
 21
6.974300461042393
 31
0.0
  0
ARC
  5
21E
330
2
100
AcDbEntity
  8
0
  6
Continuous
100
AcDbCircle
 10
12.59058795797099
 20
6.499999999999883
 30
0.0
 40
0.06
100
AcDbArc
 50
301.631166275524
 51
58.36883372447599
  0
LINE
  5
21F
330
2
100
AcDbEntity
  8
0
100
AcDbLine
 10
13.77558795797095
 20
6.724300461042365
 30
0.0
 11
13.77558795797097
 21
6.099300461042379
 31
0.0
  0
LINE
  5
220
330
2
100
AcDbEntity
  8
0
  6
Continuous
100
AcDbLine
 10
12.46308795797098
 20
6.350997136470998
 30
0.0
 11
12.62205490569929
 21
6.448913492968533
 31
0.0
  0
CIRCLE
  5
221
330
2
100
AcDbEntity
  8
0
100
AcDbCircle
 10
13.36933795797095
 20
6.360374999999852
 30
0.0
 40
0.0855
  0
ARC
  5
222
330
2
100
AcDbEntity
  8
0
100
AcDbCircle
 10
13.96308795797099
 20
5.849300461042422
 30
0.0
 40
0.1249999999999574
100
AcDbArc
 50
0.0000000000065208
 51
90.00000000000649
  0
CIRCLE
  5
223
330
2
100
AcDbEntity
  8
0
100
AcDbCircle
 10
13.80683795797097
 20
5.687499999999876
 30
0.0
 40
0.0855
  0
LINE
  5
224
330
2
100
AcDbEntity
  8
0
100
AcDbLine
 10
13.90058795797095
 20
5.974300461042436
 30
0.0
 11
13.96308795797097
 21
5.974300461042379
 31
0.0
  0
ARC
  5
225
330
2
100
AcDbEntity
  8
0
100
AcDbCircle
 10
13.90058795797093
 20
6.099300461042393
 30
0.0
 40
0.1249999999999574
100
AcDbArc
 50
180.0000000000066
 51
270.0000000000065
  0
CIRCLE
  5
226
330
2
100
AcDbEntity
  8
0
100
AcDbCircle
 10
12.90058795797095
 20
6.859374999999876
 30
0.0
 40
0.0855
  0
LINE
  5
227
330
2
100
AcDbEntity
  8
0
  6
Continuous
100
AcDbLine
 10
12.46308795797098
 20
6.649002863528747
 30
0.0
 11
12.62205490569929
 21
6.551086507031233
 31
0.0
  0
ARC
  5
228
330
2
100
AcDbEntity
  8
0
100
AcDbCircle
 10
13.96308795797096
 20
6.974300461042393
 30
0.0
 40
0.1250000000000142
100
AcDbArc
 50
269.9999999999935
 51
0.000000000000007
  0
LINE
  5
229
330
2
100
AcDbEntity
  8
0
100
AcDbLine
 10
13.96308795797095
 20
6.849300461042379
 30
0.0
 11
13.90058795797097
 21
6.849300461042379
 31
0.0
  0
ARC
  5
22A
330
2
100
AcDbEntity
  8
0
100
AcDbCircle
 10
13.90058795797097
 20
6.724300461042365
 30
0.0
 40
0.1250000000000107
100
AcDbArc
 50
89.99999999999673
 51
180.0000000000016
  0
LINE
  5
22B
330
2
100
AcDbEntity
  8
0
  6
Continuous
100
AcDbLine
 10
14.08808795797098
 20
9.156249999999989
 30
0.0
 11
14.08808795797098
 21
8.974300461042507
 31
0.0
  0
ARC
  5
22C
330
2
100
AcDbEntity
  8
0
  6
Continuous
100
AcDbCircle
 10
12.59058795797098
 20
8.421874999999989
 30
0.0
 40
0.06
100
AcDbArc
 50
301.631166275524
 51
58.36883372447599
  0
CIRCLE
  5
22D
330
2
100
AcDbEntity
  8
0
  6
Continuous
100
AcDbCircle
 10
13.36933795797095
 20
8.360374999999966
 30
0.0
 40
0.0855
  0
LINE
  5
22E
330
2
100
AcDbEntity
  8
0
  6
Continuous
100
AcDbLine
 10
12.46308795797098
 20
8.272872136471126
 30
0.0
 11
12.62205490569928
 21
8.370788492968647
 31
0.0
  0
CIRCLE
  5
22F
330
2
100
AcDbEntity
  8
0
  6
Continuous
100
AcDbCircle
 10
12.90058795797095
 20
8.859374999999989
 30
0.0
 40
0.0855
  0
LINE
  5
230
330
2
100
AcDbEntity
  8
0
  6
Continuous
100
AcDbLine
 10
12.46308795797098
 20
8.570877863528864
 30
0.0
 11
12.62205490569928
 21
8.472961507031346
 31
0.0
  0
LINE
  5
231
330
2
100
AcDbEntity
  8
0
  6
Continuous
100
AcDbLine
 10
13.77558795797095
 20
8.724300461042478
 30
0.0
 11
13.77558795797097
 21
8.099300461042379
 31
0.0
  0
ARC
  5
232
330
2
100
AcDbEntity
  8
0
  6
Continuous
100
AcDbCircle
 10
13.96308795797096
 20
7.849300461042393
 30
0.0
 40
0.1249999999999858
100
AcDbArc
 50
359.9999999999934
 51
89.99999999999348
  0
LINE
  5
233
330
2
100
AcDbEntity
  8
0
  6
Continuous
100
AcDbLine
 10
13.90058795797095
 20
7.974300461042379
 30
0.0
 11
13.96308795797097
 21
7.974300461042379
 31
0.0
  0
ARC
  5
234
330
2
100
AcDbEntity
  8
0
  6
Continuous
100
AcDbCircle
 10
13.90058795797096
 20
8.099300461042365
 30
0.0
 40
0.1249999999999858
100
AcDbArc
 50
179.9999999999935
 51
269.9999999999935
  0
ARC
  5
235
330
2
100
AcDbEntity
  8
0
  6
Continuous
100
AcDbCircle
 10
13.96308795797096
 20
8.974300461042507
 30
0.0
 40
0.1250000000000142
100
AcDbArc
 50
269.9999999999935
 51
0.000000000000007
  0
LINE
  5
236
330
2
100
AcDbEntity
  8
0
  6
Continuous
100
AcDbLine
 10
13.96308795797095
 20
8.849300461042493
 30
0.0
 11
13.90058795797098
 21
8.849300461042493
 31
0.0
  0
ARC
  5
237
330
2
100
AcDbEntity
  8
0
  6
Continuous
100
AcDbCircle
 10
13.90058795797096
 20
8.724300461042471
 30
0.0
 40
0.1250000000000178
100
AcDbArc
 50
89.99999999999348
 51
179.9999999999984
  0
LINE
  5
238
330
2
100
AcDbEntity
  8
0
  6
Continuous
100
AcDbLine
 10
14.08808795797098
 20
9.156249999999989
 30
0.0
 11
12.40058795797099
 21
9.156249999999996
 31
0.0
  0
LINE
  5
239
330
2
100
AcDbEntity
  8
0
  6
Continuous
100
AcDbLine
 10
1.895277958632118
 20
5.224300461042329
 30
0.0
 11
1.895277958632118
 21
5.849300461042443
 31
0.0
  0
LINE
  5
23A
330
2
100
AcDbEntity
  8
0
  6
Continuous
100
AcDbLine
 10
0.0827779586320894
 20
0.2144555937132644
 30
0.0
 11
0.0827779586320894
 21
9.156250000000018
 31
0.0
  0
LINE
  5
23B
330
2
100
AcDbEntity
  8
0
100
AcDbLine
 10
0.1320879895316161
 20
9.156250000000021
 30
0.0
 11
0.1320879895316303
 21
0.1692424821282685
 31
0.0
  0
LINE
  5
23C
330
2
100
AcDbEntity
  8
0
  6
Continuous
100
AcDbLine
 10
3.530081349225409
 20
0.1776966094066044
 30
0.0
 11
2.500671177445547
 21
1.267554790360871
 31
0.0
  0
LINE
  5
23D
330
2
100
AcDbEntity
  8
0
  6
HIDDEN
100
AcDbLine
 10
3.678557303343435
 20
0.0624999999999893
 30
0.0
 11
0.2098073033434353
 21
0.0625000000000089
 31
0.0
  0
LINE
  5
23E
330
2
100
AcDbEntity
  8
0
100
AcDbLine
 10
3.707081793688193
 20
-0.0000000000000107
 30
0.0
 11
0.2098073033434353
 21
0.0000000000000089
 31
0.0
  0
ARC
  5
23F
330
2
100
AcDbEntity
  8
0
  6
Continuous
100
AcDbCircle
 10
-0.229722041367797
 20
-0.1758567811866545
 30
0.0
 40
0.4999999999999437
100
AcDbArc
 50
28.47097865576724
 51
51.31781254652735
  0
LINE
  5
240
330
2
100
AcDbEntity
  8
0
100
AcDbLine
 10
0.2098073033434353
 20
0.0625000000000089
 30
0.0
 11
0.2098073033434353
 21
0.0000000000000089
 31
0.0
  0
LINE
  5
241
330
2
100
AcDbEntity
  8
0
100
AcDbLine
 10
3.616057303343435
 20
0.0624999999999893
 30
0.0
 11
3.707081793688193
 21
0.0624999999999893
 31
0.0
  0
LINE
  5
242
330
2
100
AcDbEntity
  8
0
100
AcDbLine
 10
3.707081793688193
 20
-0.0000000000000107
 30
0.0
 11
3.707081793688193
 21
0.0624999999999893
 31
0.0
  0
ARC
  5
243
330
2
100
AcDbEntity
  8
0
  6
Continuous
100
AcDbCircle
 10
3.176527958632203
 20
-0.1758567811866545
 30
0.0
 40
0.4999999999999432
100
AcDbArc
 50
20.59216011371907
 51
45.00000000000464
  0
CIRCLE
  5
244
330
2
100
AcDbEntity
  8
0
  6
Continuous
100
AcDbCircle
 10
1.926527958632089
 20
2.734374999999988
 30
0.0
 40
0.0855
  0
ARC
  5
245
330
2
100
AcDbEntity
  8
0
  6
Continuous
100
AcDbCircle
 10
0.0827779586321036
 20
2.641624999999864
 30
0.0
 40
0.1875
100
AcDbArc
 50
285.2473642457561
 51
74.75263575424388
  0
LINE
  5
246
330
2
100
AcDbEntity
  8
0
  6
Continuous
100
AcDbLine
 10
2.207777958632104
 20
1.974661571547452
 30
0.0
 11
2.207777958632146
 21
3.224300461042313
 31
0.0
  0
ARC
  5
247
330
2
100
AcDbEntity
  8
0
  6
Continuous
100
AcDbCircle
 10
3.207777958632107
 20
1.97466157154741
 30
0.0
 40
1.000000000000003
100
AcDbArc
 50
179.9999999999976
 51
224.9999999999991
  0
CIRCLE
  5
248
330
2
100
AcDbEntity
  8
0
  6
Continuous
100
AcDbCircle
 10
1.332777958632111
 20
1.359374999999988
 30
0.0
 40
0.0855
  0
CIRCLE
  5
249
330
2
100
AcDbEntity
  8
0
  6
Continuous
100
AcDbCircle
 10
1.806865901609488
 20
1.265624999999988
 30
0.0
 40
0.0855
  0
CIRCLE
  5
24A
330
2
100
AcDbEntity
  8
0
  6
Continuous
100
AcDbCircle
 10
1.020777958632163
 20
1.859374999999988
 30
0.0
 40
0.0855
  0
CIRCLE
  5
24B
330
2
100
AcDbEntity
  8
0
  6
Continuous
100
AcDbCircle
 10
1.614027958632104
 20
2.359374999999988
 30
0.0
 40
0.0855
  0
ARC
  5
24C
330
2
100
AcDbEntity
  8
0
  6
Continuous
100
AcDbCircle
 10
0.2727779586321155
 20
3.406249999999888
 30
0.0
 40
0.06
100
AcDbArc
 50
301.631166275524
 51
58.36883372447566
  0
LINE
  5
24D
330
2
100
AcDbEntity
  8
0
  6
Continuous
100
AcDbLine
 10
0.1320879895316374
 20
3.249122719822841
 30
0.0
 11
0.304244906360406
 21
3.355163492968538
 31
0.0
  0
LINE
  5
24E
330
2
100
AcDbEntity
  8
0
  6
Continuous
100
AcDbLine
 10
0.1320879895316374
 20
3.563377280176923
 30
0.0
 11
0.304244906360406
 21
3.457336507031238
 31
0.0
  0
ARC
  5
24F
330
2
100
AcDbEntity
  8
0
  6
Continuous
100
AcDbCircle
 10
0.2727779586321155
 20
4.90624999999989
 30
0.0
 40
0.06
100
AcDbArc
 50
301.631166275524
 51
58.36883372447566
  0
LINE
  5
250
330
2
100
AcDbEntity
  8
0
  6
Continuous
100
AcDbLine
 10
0.1320879895316374
 20
5.063377280176923
 30
0.0
 11
0.304244906360406
 21
4.95733650703124
 31
0.0
  0
LINE
  5
251
330
2
100
AcDbEntity
  8
0
  6
Continuous
100
AcDbLine
 10
0.1320879895316232
 20
4.749122719822839
 30
0.0
 11
0.304244906360406
 21
4.85516349296854
 31
0.0
  0
LINE
  5
252
330
2
100
AcDbEntity
  8
0
  6
Continuous
100
AcDbLine
 10
1.895277958632118
 20
3.474300461042342
 30
0.0
 11
1.895277958632146
 21
4.099300461042327
 31
0.0
  0
CIRCLE
  5
253
330
2
100
AcDbEntity
  8
0
  6
Continuous
100
AcDbCircle
 10
1.020777958632163
 20
3.359374999999988
 30
0.0
 40
0.0855
  0
ARC
  5
254
330
2
100
AcDbEntity
  8
0
  6
Continuous
100
AcDbCircle
 10
2.020277958632132
 20
3.474300461042349
 30
0.0
 40
0.1250000000000142
100
AcDbArc
 50
180.0
 51
270.0000000000065
  0
ARC
  5
255
330
2
100
AcDbEntity
  8
0
  6
Continuous
100
AcDbCircle
 10
2.082777958632132
 20
3.22430046104232
 30
0.0
 40
0.1250000000000142
100
AcDbArc
 50
0.000000000000007
 51
90.00000000000649
  0
LINE
  5
256
330
2
100
AcDbEntity
  8
0
  6
Continuous
100
AcDbLine
 10
2.082777958632118
 20
3.349300461042327
 30
0.0
 11
2.020277958632146
 21
3.349300461042327
 31
0.0
  0
CIRCLE
  5
257
330
2
100
AcDbEntity
  8
0
  6
Continuous
100
AcDbCircle
 10
1.614027958632104
 20
3.859374999999988
 30
0.0
 40
0.0855
  0
LINE
  5
25B
330
2
100
AcDbEntity
  8
0
  6
Continuous
100
AcDbLine
 10
2.207777958632118
 20
4.349300461042327
 30
0.0
 11
2.207777958632146
 21
4.974300461042329
 31
0.0
  0
ARC
  5
25C
330
2
100
AcDbEntity
  8
0
  6
Continuous
100
AcDbCircle
 10
2.082777958632132
 20
4.34930046104232
 30
0.0
 40
0.1249999999999858
100
AcDbArc
 50
270.0000000000065
 51
0.0000000000064699
  0
LINE
  5
25D
330
2
100
AcDbEntity
  8
0
  6
Continuous
100
AcDbLine
 10
2.020277958632118
 20
4.224300461042327
 30
0.0
 11
2.082777958632146
 21
4.224300461042327
 31
0.0
  0
ARC
  5
25E
330
2
100
AcDbEntity
  8
0
  6
Continuous
100
AcDbCircle
 10
2.020277958632132
 20
4.099300461042349
 30
0.0
 40
0.1249999999999858
100
AcDbArc
 50
90.00000000000649
 51
180.0000000000066
  0
ARC
  5
25F
330
2
100
AcDbEntity
  8
0
  6
Continuous
100
AcDbCircle
 10
2.082777958632132
 20
4.974300461042322
 30
0.0
 40
0.1250000000000142
100
AcDbArc
 50
0.0000000000064699
 51
90.00000000000649
  0
LINE
  5
260
330
2
100
AcDbEntity
  8
0
  6
Continuous
100
AcDbLine
 10
2.082777958632118
 20
5.099300461042329
 30
0.0
 11
2.020277958632146
 21
5.099300461042329
 31
0.0
  0
ARC
  5
261
330
2
100
AcDbEntity
  8
0
  6
Continuous
100
AcDbCircle
 10
2.020277958632132
 20
5.224300461042351
 30
0.0
 40
0.1250000000000142
100
AcDbArc
 50
180.0000000000066
 51
270.0000000000065
  0
LINE
  5
262
330
2
100
AcDbEntity
  8
0
  6
Continuous
100
AcDbLine
 10
1.895277958632082
 20
6.9743004610424
 30
0.0
 11
1.895277958632121
 21
7.849300461042386
 31
0.0
  0
LINE
  5
264
330
2
100
AcDbEntity
  8
0
  6
Continuous
100
AcDbLine
 10
0.1320879895316303
 20
6.579002280176916
 30
0.0
 11
0.3042449063603989
 21
6.472961507031233
 31
0.0
  0
LINE
  5
265
330
2
100
AcDbEntity
  8
0
  6
Continuous
100
AcDbLine
 10
0.1320879895316161
 20
6.264747719822832
 30
0.0
 11
0.3042449063603989
 21
6.370788492968533
 31
0.0
  0
ARC
  5
266
330
2
100
AcDbEntity
  8
0
  6
Continuous
100
AcDbCircle
 10
0.2727779586321084
 20
6.421874999999883
 30
0.0
 40
0.06
100
AcDbArc
 50
301.631166275524
 51
58.36883372447566
  0
LINE
  5
267
330
2
100
AcDbEntity
  8
0
  6
Continuous
100
AcDbLine
 10
2.207777958632089
 20
6.099300461042386
 30
0.0
 11
2.207777958632118
 21
6.724300461042386
 31
0.0
  0
ARC
  5
26A
330
2
100
AcDbEntity
  8
0
  6
Continuous
100
AcDbCircle
 10
2.020277958632075
 20
5.849300461042429
 30
0.0
 40
0.1249999999999574
100
AcDbArc
 50
89.99999999999351
 51
179.9999999999935
  0
LINE
  5
26B
330
2
100
AcDbEntity
  8
0
  6
Continuous
100
AcDbLine
 10
1.895277958632118
 20
5.849300461042443
 30
0.0
 11
1.895277958632118
 21
5.849300461042443
 31
0.0
  0
ARC
  5
26C
330
2
100
AcDbEntity
  8
0
  6
Continuous
100
AcDbCircle
 10
2.082777958632132
 20
6.0993004610424
 30
0.0
 40
0.1249999999999574
100
AcDbArc
 50
269.9999999999935
 51
359.9999999999935
  0
LINE
  5
26D
330
2
100
AcDbEntity
  8
0
  6
Continuous
100
AcDbLine
 10
2.020277958632089
 20
5.974300461042386
 30
0.0
 11
2.082777958632118
 21
5.974300461042443
 31
0.0
  0
ARC
  5
26F
330
2
100
AcDbEntity
  8
0
  6
Continuous
100
AcDbCircle
 10
2.082777958632097
 20
6.724300461042365
 30
0.0
 40
0.1250000000000213
100
AcDbArc
 50
0.0000000000097777
 51
90.00000000000328
  0
LINE
  5
270
330
2
100
AcDbEntity
  8
0
  6
Continuous
100
AcDbLine
 10
2.082777958632089
 20
6.849300461042386
 30
0.0
 11
2.020277958632118
 21
6.849300461042386
 31
0.0
  0
ARC
  5
271
330
2
100
AcDbEntity
  8
0
  6
Continuous
100
AcDbCircle
 10
2.020277958632097
 20
6.9743004610424
 30
0.0
 40
0.1250000000000178
100
AcDbArc
 50
180.0000000000016
 51
270.0000000000098
  0
CIRCLE
  5
272
330
2
100
AcDbEntity
  8
0
  6
Continuous
100
AcDbCircle
 10
1.6140279586321
 20
7.624999999999996
 30
0.0
 40
0.0855
  0
LINE
  5
273
330
2
100
AcDbEntity
  8
0
  6
Continuous
100
AcDbLine
 10
0.0827779586320823
 20
9.156250000000018
 30
0.0
 11
1.895277958632082
 21
9.156250000000011
 31
0.0
  0
ARC
  5
274
330
2
100
AcDbEntity
  8
0
  6
Continuous
100
AcDbCircle
 10
0.272777958632112
 20
8.421874999999996
 30
0.0
 40
0.06
100
AcDbArc
 50
301.6311662755242
 51
58.36883372447584
  0
LINE
  5
275
330
2
100
AcDbEntity
  8
0
  6
Continuous
100
AcDbLine
 10
0.0827779586320965
 20
8.234374999999996
 30
0.0
 11
0.304244906360406
 21
8.370788492968654
 31
0.0
  0
LINE
  5
276
330
2
100
AcDbEntity
  8
0
  6
Continuous
100
AcDbLine
 10
0.0827779586320965
 20
8.609374999999996
 30
0.0
 11
0.304244906360406
 21
8.472961507031354
 31
0.0
  0
LINE
  5
277
330
2
100
AcDbEntity
  8
0
  6
Continuous
100
AcDbLine
 10
1.895277958632068
 20
8.974300461042528
 30
0.0
 11
1.895277958632082
 21
9.156250000000011
 31
0.0
  0
CIRCLE
  5
279
330
2
100
AcDbEntity
  8
0
  6
Continuous
100
AcDbCircle
 10
1.020777958632159
 20
8.093749999999996
 30
0.0
 40
0.0855
  0
CIRCLE
  5
27B
330
2
100
AcDbEntity
  8
0
  6
Continuous
100
AcDbCircle
 10
1.207777958632136
 20
8.828124999999996
 30
0.0
 40
0.0855
  0
LINE
  5
27C
330
2
100
AcDbEntity
  8
0
  6
Continuous
100
AcDbLine
 10
2.207777958632089
 20
8.099300461042386
 30
0.0
 11
2.207777958632111
 21
8.7243004610425
 31
0.0
  0
ARC
  5
27D
330
2
100
AcDbEntity
  8
0
  6
Continuous
100
AcDbCircle
 10
2.082777958632107
 20
8.099300461042372
 30
0.0
 40
0.1249999999999858
100
AcDbArc
 50
270.0000000000065
 51
0.0000000000065208
  0
LINE
  5
27E
330
2
100
AcDbEntity
  8
0
  6
Continuous
100
AcDbLine
 10
2.020277958632089
 20
7.974300461042386
 30
0.0
 11
2.082777958632118
 21
7.974300461042386
 31
0.0
  0
ARC
  5
27F
330
2
100
AcDbEntity
  8
0
  6
Continuous
100
AcDbCircle
 10
2.020277958632107
 20
7.8493004610424
 30
0.0
 40
0.1249999999999858
100
AcDbArc
 50
90.00000000000654
 51
180.0000000000066
  0
ARC
  5
280
330
2
100
AcDbEntity
  8
0
  6
Continuous
100
AcDbCircle
 10
2.082777958632093
 20
8.724300461042478
 30
0.0
 40
0.1250000000000213
100
AcDbArc
 50
0.0000000000097777
 51
90.00000000000328
  0
ARC
  5
281
330
2
100
AcDbEntity
  8
0
  6
Continuous
100
AcDbCircle
 10
2.0202779586321
 20
8.974300461042528
 30
0.0
 40
0.1250000000000284
100
AcDbArc
 50
180.0
 51
270.0000000000065
  0
LINE
  5
282
330
2
100
AcDbEntity
  8
0
  6
Continuous
100
AcDbLine
 10
2.082777958632082
 20
8.8493004610425
 30
0.0
 11
2.020277958632111
 21
8.8493004610425
 31
0.0
  0
LINE
  5
283
330
2
100
AcDbEntity
  8
0
  6
Continuous
100
AcDbLine
 10
19.77593069980922
 20
5.224300461042329
 30
0.0
 11
19.77593069980922
 21
5.849300461042443
 31
0.0
  0
LINE
  5
284
330
2
100
AcDbEntity
  8
0
  6
Continuous
100
AcDbLine
 10
21.58843069980925
 20
0.2144555937132644
 30
0.0
 11
21.58843069980925
 21
9.156250000000011
 31
0.0
  0
LINE
  5
285
330
2
100
AcDbEntity
  8
0
100
AcDbLine
 10
21.53912066890973
 20
9.156250000000014
 30
0.0
 11
21.53912066890971
 21
0.1692424821282685
 31
0.0
  0
LINE
  5
286
330
2
100
AcDbEntity
  8
0
  6
Continuous
100
AcDbLine
 10
18.13840179956068
 20
0.1776966094066044
 30
0.0
 11
19.17053748099579
 21
1.268547658092126
 31
0.0
  0
LINE
  5
287
330
2
100
AcDbEntity
  8
0
100
AcDbLine
 10
17.9614013550979
 20
0.0000000000000089
 30
0.0
 11
21.4614013550979
 21
0.0000000000000089
 31
0.0
  0
LINE
  5
288
330
2
100
AcDbEntity
  8
0
  6
HIDDEN
100
AcDbLine
 10
17.98992584544266
 20
0.0625000000000089
 30
0.0
 11
21.4614013550979
 21
0.0625000000000089
 31
0.0
  0
LINE
  5
289
330
2
100
AcDbEntity
  8
0
100
AcDbLine
 10
18.05242584544266
 20
0.0625000000000089
 30
0.0
 11
17.9614013550979
 21
0.0625000000000089
 31
0.0
  0
LINE
  5
28A
330
2
100
AcDbEntity
  8
0
100
AcDbLine
 10
17.9614013550979
 20
0.0000000000000089
 30
0.0
 11
17.9614013550979
 21
0.0625000000000089
 31
0.0
  0
ARC
  5
28B
330
2
100
AcDbEntity
  8
0
  6
Continuous
100
AcDbCircle
 10
18.49195519015389
 20
-0.1758567811866545
 30
0.0
 40
0.4999999999999432
100
AcDbArc
 50
134.9999999999954
 51
159.4078398862809
  0
ARC
  5
28C
330
2
100
AcDbEntity
  8
0
  6
Continuous
100
AcDbCircle
 10
21.90093069980913
 20
-0.1758567811866545
 30
0.0
 40
0.4999999999999437
100
AcDbArc
 50
128.6821874534727
 51
151.5290213442328
  0
LINE
  5
28D
330
2
100
AcDbEntity
  8
0
100
AcDbLine
 10
21.4614013550979
 20
0.0625000000000089
 30
0.0
 11
21.4614013550979
 21
0.0000000000000089
 31
0.0
  0
LINE
  5
28E
330
2
100
AcDbEntity
  8
0
  6
Continuous
100
AcDbLine
 10
19.58843069980922
 20
5.099300461042329
 30
0.0
 11
19.65093069980919
 21
5.099300461042329
 31
0.0
  0
LINE
  5
28F
330
2
100
AcDbEntity
  8
0
  6
Continuous
100
AcDbLine
 10
19.65093069980922
 20
4.224300461042327
 30
0.0
 11
19.58843069980919
 21
4.224300461042327
 31
0.0
  0
LINE
  5
290
330
2
100
AcDbEntity
  8
0
  6
Continuous
100
AcDbLine
 10
19.58843069980922
 20
3.349300461042327
 30
0.0
 11
19.65093069980919
 21
3.349300461042327
 31
0.0
  0
CIRCLE
  5
291
330
2
100
AcDbEntity
  8
0
  6
Continuous
100
AcDbCircle
 10
19.58843069980921
 20
0.8750000000000693
 30
0.0
 40
0.0855
  0
LINE
  5
292
330
2
100
AcDbEntity
  8
0
  6
Continuous
100
AcDbLine
 10
19.46343069980923
 20
1.975654439278708
 30
0.0
 11
19.46343069980919
 21
3.224300461042313
 31
0.0
  0
ARC
  5
293
330
2
100
AcDbEntity
  8
0
  6
Continuous
100
AcDbCircle
 10
18.46343069980923
 20
1.975654439278666
 30
0.0
 40
1.000000000000003
100
AcDbArc
 50
315.0000000000009
 51
0.0000000000024497
  0
ARC
  5
294
330
2
100
AcDbEntity
  8
0
  6
Continuous
100
AcDbCircle
 10
19.58843069980921
 20
3.22430046104232
 30
0.0
 40
0.1250000000000142
100
AcDbArc
 50
89.99999999999351
 51
180.0
  0
LINE
  5
295
330
2
100
AcDbEntity
  8
0
  6
Continuous
100
AcDbLine
 10
19.46343069980922
 20
4.349300461042327
 30
0.0
 11
19.46343069980919
 21
4.974300461042329
 31
0.0
  0
ARC
  5
296
330
2
100
AcDbEntity
  8
0
  6
Continuous
100
AcDbCircle
 10
19.58843069980921
 20
4.34930046104232
 30
0.0
 40
0.1249999999999858
100
AcDbArc
 50
179.9999999999936
 51
269.9999999999935
  0
ARC
  5
297
330
2
100
AcDbEntity
  8
0
  6
Continuous
100
AcDbCircle
 10
19.58843069980921
 20
4.974300461042322
 30
0.0
 40
0.1250000000000142
100
AcDbArc
 50
89.99999999999351
 51
179.9999999999936
  0
ARC
  5
298
330
2
100
AcDbEntity
  8
0
  6
Continuous
100
AcDbCircle
 10
21.58843069980923
 20
2.641624999999864
 30
0.0
 40
0.1875
100
AcDbArc
 50
105.2473642457561
 51
254.7526357542439
  0
CIRCLE
  5
299
330
2
100
AcDbEntity
  8
0
  6
Continuous
100
AcDbCircle
 10
20.65093069980919
 20
1.109375000000069
 30
0.0
 40
0.0855
  0
CIRCLE
  5
29A
330
2
100
AcDbEntity
  8
0
  6
Continuous
100
AcDbCircle
 10
20.33843069980921
 20
2.109375000000055
 30
0.0
 40
0.0855
  0
CIRCLE
  5
29B
330
2
100
AcDbEntity
  8
0
  6
Continuous
100
AcDbCircle
 10
20.02593069980921
 20
1.609375000000069
 30
0.0
 40
0.0855
  0
CIRCLE
  5
29C
330
2
100
AcDbEntity
  8
0
  6
Continuous
100
AcDbCircle
 10
20.65093069980919
 20
2.609375000000016
 30
0.0
 40
0.0855
  0
LINE
  5
29D
330
2
100
AcDbEntity
  8
0
  6
Continuous
100
AcDbLine
 10
19.77593069980922
 20
3.474300461042342
 30
0.0
 11
19.77593069980919
 21
4.099300461042327
 31
0.0
  0
ARC
  5
29F
330
2
100
AcDbEntity
  8
0
  6
Continuous
100
AcDbCircle
 10
19.65093069980921
 20
3.474300461042349
 30
0.0
 40
0.1250000000000142
100
AcDbArc
 50
269.9999999999935
 51
0.000000000000007
  0
CIRCLE
  5
2A0
330
2
100
AcDbEntity
  8
0
  6
Continuous
100
AcDbCircle
 10
20.02593069980921
 20
3.109375000000016
 30
0.0
 40
0.0855
  0
CIRCLE
  5
2A1
330
2
100
AcDbEntity
  8
0
  6
Continuous
100
AcDbCircle
 10
20.33843069980921
 20
3.609375000000002
 30
0.0
 40
0.0855
  0
ARC
  5
2A2
330
2
100
AcDbEntity
  8
0
  6
Continuous
100
AcDbCircle
 10
21.39843069980922
 20
3.406249999999888
 30
0.0
 40
0.06
100
AcDbArc
 50
121.6311662755244
 51
238.368833724476
  0
LINE
  5
2A3
330
2
100
AcDbEntity
  8
0
  6
Continuous
100
AcDbLine
 10
21.5391206689097
 20
3.249122719822841
 30
0.0
 11
21.36696375208093
 21
3.355163492968538
 31
0.0
  0
LINE
  5
2A4
330
2
100
AcDbEntity
  8
0
  6
Continuous
100
AcDbLine
 10
21.5391206689097
 20
3.563377280176923
 30
0.0
 11
21.36696375208093
 21
3.457336507031238
 31
0.0
  0
ARC
  5
2A6
330
2
100
AcDbEntity
  8
0
  6
Continuous
100
AcDbCircle
 10
19.65093069980921
 20
4.099300461042349
 30
0.0
 40
0.1249999999999858
100
AcDbArc
 50
359.9999999999934
 51
89.99999999999351
  0
ARC
  5
2A7
330
2
100
AcDbEntity
  8
0
  6
Continuous
100
AcDbCircle
 10
19.65093069980921
 20
5.224300461042351
 30
0.0
 40
0.1250000000000142
100
AcDbArc
 50
269.9999999999935
 51
359.9999999999934
  0
ARC
  5
2A9
330
2
100
AcDbEntity
  8
0
  6
Continuous
100
AcDbCircle
 10
21.39843069980922
 20
4.90624999999989
 30
0.0
 40
0.06
100
AcDbArc
 50
121.6311662755244
 51
238.368833724476
  0
LINE
  5
2AA
330
2
100
AcDbEntity
  8
0
  6
Continuous
100
AcDbLine
 10
21.53912066890971
 20
4.749122719822839
 30
0.0
 11
21.36696375208093
 21
4.85516349296854
 31
0.0
  0
LINE
  5
2AB
330
2
100
AcDbEntity
  8
0
  6
Continuous
100
AcDbLine
 10
21.5391206689097
 20
5.063377280176923
 30
0.0
 11
21.36696375208093
 21
4.95733650703124
 31
0.0
  0
LINE
  5
2AC
330
2
100
AcDbEntity
  8
0
  6
Continuous
100
AcDbLine
 10
19.58843069980925
 20
6.849300461042386
 30
0.0
 11
19.65093069980922
 21
6.849300461042386
 31
0.0
  0
LINE
  5
2AD
330
2
100
AcDbEntity
  8
0
  6
Continuous
100
AcDbLine
 10
19.65093069980925
 20
5.974300461042386
 30
0.0
 11
19.58843069980922
 21
5.974300461042443
 31
0.0
  0
LINE
  5
2AE
330
2
100
AcDbEntity
  8
0
  6
Continuous
100
AcDbLine
 10
19.58843069980926
 20
8.8493004610425
 30
0.0
 11
19.65093069980923
 21
8.8493004610425
 31
0.0
  0
LINE
  5
2AF
330
2
100
AcDbEntity
  8
0
  6
Continuous
100
AcDbLine
 10
19.65093069980925
 20
7.974300461042386
 30
0.0
 11
19.58843069980922
 21
7.974300461042386
 31
0.0
  0
LINE
  5
2B0
330
2
100
AcDbEntity
  8
0
  6
Continuous
100
AcDbLine
 10
19.46343069980925
 20
6.099300461042386
 30
0.0
 11
19.46343069980922
 21
6.724300461042386
 31
0.0
  0
ARC
  5
2B1
330
2
100
AcDbEntity
  8
0
  6
Continuous
100
AcDbCircle
 10
19.58843069980921
 20
6.099300461042407
 30
0.0
 40
0.1249999999999574
100
AcDbArc
 50
180.0000000000066
 51
270.0000000000065
  0
ARC
  5
2B2
330
2
100
AcDbEntity
  8
0
  6
Continuous
100
AcDbCircle
 10
19.58843069980924
 20
6.724300461042372
 30
0.0
 40
0.1250000000000213
100
AcDbArc
 50
89.99999999999676
 51
179.9999999999903
  0
LINE
  5
2B3
330
2
100
AcDbEntity
  8
0
  6
Continuous
100
AcDbLine
 10
19.46343069980925
 20
8.099300461042386
 30
0.0
 11
19.46343069980923
 21
8.7243004610425
 31
0.0
  0
ARC
  5
2B4
330
2
100
AcDbEntity
  8
0
  6
Continuous
100
AcDbCircle
 10
19.58843069980923
 20
8.099300461042372
 30
0.0
 40
0.1249999999999858
100
AcDbArc
 50
179.9999999999936
 51
269.9999999999935
  0
ARC
  5
2B5
330
2
100
AcDbEntity
  8
0
  6
Continuous
100
AcDbCircle
 10
19.58843069980925
 20
8.724300461042478
 30
0.0
 40
0.1250000000000213
100
AcDbArc
 50
89.99999999999676
 51
179.9999999999903
  0
LINE
  5
2B6
330
2
100
AcDbEntity
  8
0
100
AcDbLine
 10
19.77593069980926
 20
6.974300461042404
 30
0.0
 11
19.77593069980922
 21
7.849300461042386
 31
0.0
  0
LINE
  5
2B8
330
2
100
AcDbEntity
  8
0
  6
Continuous
100
AcDbLine
 10
21.58843069980924
 20
6.60937499999994
 30
0.0
 11
21.36696375208093
 21
6.472961507031297
 31
0.0
  0
ARC
  5
2BA
330
2
100
AcDbEntity
  8
0
  6
Continuous
100
AcDbCircle
 10
19.65093069980926
 20
5.849300461042436
 30
0.0
 40
0.1249999999999574
100
AcDbArc
 50
0.0000000000065208
 51
90.00000000000645
  0
LINE
  5
2BB
330
2
100
AcDbEntity
  8
0
  6
Continuous
100
AcDbLine
 10
19.77593069980922
 20
5.849300461042443
 30
0.0
 11
19.77593069980922
 21
5.849300461042443
 31
0.0
  0
LINE
  5
2BD
330
2
100
AcDbEntity
  8
0
  6
Continuous
100
AcDbLine
 10
21.58843069980924
 20
6.23437499999994
 30
0.0
 11
21.36696375208093
 21
6.370788492968597
 31
0.0
  0
ARC
  5
2BE
330
2
100
AcDbEntity
  8
0
  6
Continuous
100
AcDbCircle
 10
21.39843069980923
 20
6.421874999999947
 30
0.0
 40
0.06
100
AcDbArc
 50
121.6311662755242
 51
238.3688337244758
  0
ARC
  5
2BF
330
2
100
AcDbEntity
  8
0
  6
Continuous
100
AcDbCircle
 10
19.65093069980924
 20
6.974300461042407
 30
0.0
 40
0.1250000000000178
100
AcDbArc
 50
269.9999999999902
 51
359.9999999999984
  0
LINE
  5
2C1
330
2
100
AcDbEntity
  8
0
  6
Continuous
100
AcDbLine
 10
19.77593069980927
 20
8.974300461042528
 30
0.0
 11
19.77593069980926
 21
9.156250000000011
 31
0.0
  0
ARC
  5
2C3
330
2
100
AcDbEntity
  8
0
  6
Continuous
100
AcDbCircle
 10
19.65093069980923
 20
7.8493004610424
 30
0.0
 40
0.1249999999999858
100
AcDbArc
 50
359.9999999999935
 51
89.99999999999351
  0
ARC
  5
2C4
330
2
100
AcDbEntity
  8
0
  6
Continuous
100
AcDbCircle
 10
19.65093069980924
 20
8.974300461042528
 30
0.0
 40
0.1250000000000284
100
AcDbArc
 50
269.9999999999935
 51
0.000000000000007
  0
ARC
  5
2C6
330
2
100
AcDbEntity
  8
0
  6
Continuous
100
AcDbCircle
 10
21.39843069980922
 20
8.421875000000053
 30
0.0
 40
0.06
100
AcDbArc
 50
121.6311662755242
 51
238.3688337244758
  0
LINE
  5
2C7
330
2
100
AcDbEntity
  8
0
  6
Continuous
100
AcDbLine
 10
21.53912066890973
 20
8.264747719822999
 30
0.0
 11
21.36696375208093
 21
8.37078849296871
 31
0.0
  0
LINE
  5
2C8
330
2
100
AcDbEntity
  8
0
  6
Continuous
100
AcDbLine
 10
21.53912066890972
 20
8.579002280177111
 30
0.0
 11
21.36696375208093
 21
8.47296150703141
 31
0.0
  0
LINE
  5
2C9
330
2
100
AcDbEntity
  8
0
  6
Continuous
100
AcDbLine
 10
21.58843069980926
 20
9.156250000000011
 30
0.0
 11
19.77593069980926
 21
9.156250000000011
 31
0.0
  0
LINE
  5
2CA
330
2
100
AcDbEntity
  8
0
  6
Continuous
100
AcDbLine
 10
1.059402958632159
 20
4.753972949821115
 30
0.0
 11
0.8966529586321705
 21
4.847936706131716
 31
0.0
  0
ARC
  5
2CB
330
2
100
AcDbEntity
  8
0
  6
Continuous
100
AcDbCircle
 10
0.9122779586321705
 20
4.874999999999982
 30
0.0
 40
0.031250000000003
100
AcDbArc
 50
119.9999999999987
 51
240.0000000000013
  0
LINE
  5
2CC
330
2
100
AcDbEntity
  8
0
  6
Continuous
100
AcDbLine
 10
0.8966529586321705
 20
4.902063293868249
 30
0.0
 11
1.059402958632159
 21
4.996027050178849
 31
0.0
  0
ARC
  5
2CD
330
2
100
AcDbEntity
  8
0
  6
Continuous
100
AcDbCircle
 10
1.075027958632159
 20
4.968963756310584
 30
0.0
 40
0.0312500000000006
100
AcDbArc
 50
359.9999999999968
 51
119.9999999999975
  0
LINE
  5
2CE
330
2
100
AcDbEntity
  8
0
  6
Continuous
100
AcDbLine
 10
1.106277958632159
 20
4.968963756310583
 30
0.0
 11
1.106277958632159
 21
4.874999999999996
 31
0.0
  0
LINE
  5
2CF
330
2
100
AcDbEntity
  8
0
  6
Continuous
100
AcDbLine
 10
1.106277958632159
 20
4.874999999999996
 30
0.0
 11
1.106277958632159
 21
4.781036243689382
 31
0.0
  0
ARC
  5
2D0
330
2
100
AcDbEntity
  8
0
  6
Continuous
100
AcDbCircle
 10
1.075027958632155
 20
4.781036243689382
 30
0.0
 40
0.0312500000000018
100
AcDbArc
 50
240.0000000000055
 51
0.0
  0
LINE
  5
2D1
330
2
100
AcDbEntity
  8
0
  6
Continuous
100
AcDbLine
 10
1.965152958632071
 20
4.597722949821129
 30
0.0
 11
1.802402958632069
 21
4.691686706131744
 31
0.0
  0
ARC
  5
2D2
330
2
100
AcDbEntity
  8
0
  6
Continuous
100
AcDbCircle
 10
1.818027958632069
 20
4.718750000000011
 30
0.0
 40
0.031250000000003
100
AcDbArc
 50
119.9999999999987
 51
240.0000000000013
  0
LINE
  5
2D3
330
2
100
AcDbEntity
  8
0
  6
Continuous
100
AcDbLine
 10
1.802402958632069
 20
4.745813293868277
 30
0.0
 11
1.965152958632071
 21
4.839777050178878
 31
0.0
  0
ARC
  5
2D4
330
2
100
AcDbEntity
  8
0
  6
Continuous
100
AcDbCircle
 10
1.980777958632068
 20
4.812713756310611
 30
0.0
 40
0.0312500000000017
100
AcDbArc
 50
0.0
 51
119.9999999999945
  0
LINE
  5
2D5
330
2
100
AcDbEntity
  8
0
  6
Continuous
100
AcDbLine
 10
2.012027958632071
 20
4.812713756310611
 30
0.0
 11
2.012027958632071
 21
4.718749999999996
 31
0.0
  0
LINE
  5
2D6
330
2
100
AcDbEntity
  8
0
  6
Continuous
100
AcDbLine
 10
2.012027958632071
 20
4.718749999999996
 30
0.0
 11
2.012027958632071
 21
4.624786243689396
 31
0.0
  0
ARC
  5
2D7
330
2
100
AcDbEntity
  8
0
  6
Continuous
100
AcDbCircle
 10
1.980777958632071
 20
4.624786243689394
 30
0.0
 40
0.0312500000000009
100
AcDbArc
 50
240.0000000000025
 51
0.0000000000032569
  0
LINE
  5
2D8
330
2
100
AcDbEntity
  8
0
  6
Continuous
100
AcDbLine
 10
1.371402958632114
 20
4.238347949821128
 30
0.0
 11
1.208652958632111
 21
4.332311706131728
 31
0.0
  0
ARC
  5
2D9
330
2
100
AcDbEntity
  8
0
  6
Continuous
100
AcDbCircle
 10
1.224277958632111
 20
4.359374999999995
 30
0.0
 40
0.031250000000003
100
AcDbArc
 50
119.9999999999987
 51
240.0000000000013
  0
LINE
  5
2DA
330
2
100
AcDbEntity
  8
0
  6
Continuous
100
AcDbLine
 10
1.208652958632111
 20
4.386438293868261
 30
0.0
 11
1.371402958632114
 21
4.480402050178876
 31
0.0
  0
ARC
  5
2DB
330
2
100
AcDbEntity
  8
0
  6
Continuous
100
AcDbCircle
 10
1.387027958632114
 20
4.453338756310611
 30
0.0
 40
0.0312500000000006
100
AcDbArc
 50
359.9999999999968
 51
119.9999999999975
  0
LINE
  5
2DC
330
2
100
AcDbEntity
  8
0
  6
Continuous
100
AcDbLine
 10
1.418277958632114
 20
4.453338756310609
 30
0.0
 11
1.418277958632114
 21
4.359374999999995
 31
0.0
  0
LINE
  5
2DD
330
2
100
AcDbEntity
  8
0
  6
Continuous
100
AcDbLine
 10
1.418277958632114
 20
4.359374999999995
 30
0.0
 11
1.418277958632114
 21
4.265411243689394
 31
0.0
  0
ARC
  5
2DE
330
2
100
AcDbEntity
  8
0
  6
Continuous
100
AcDbCircle
 10
1.387027958632114
 20
4.265411243689393
 30
0.0
 40
0.0312500000000009
100
AcDbArc
 50
240.0000000000025
 51
0.0000000000032569
  0
LINE
  5
2DF
330
2
100
AcDbEntity
  8
0
  6
Continuous
100
AcDbLine
 10
1.059402958632152
 20
7.972722949821129
 30
0.0
 11
0.8966529586321634
 21
8.06668670613173
 31
0.0
  0
ARC
  5
2E0
330
2
100
AcDbEntity
  8
0
  6
Continuous
100
AcDbCircle
 10
0.9122779586321634
 20
8.093749999999996
 30
0.0
 40
0.031250000000003
100
AcDbArc
 50
119.9999999999987
 51
240.0000000000013
  0
LINE
  5
2E1
330
2
100
AcDbEntity
  8
0
  6
Continuous
100
AcDbLine
 10
0.8966529586321634
 20
8.120813293868263
 30
0.0
 11
1.059402958632152
 21
8.214777050178878
 31
0.0
  0
ARC
  5
2E2
330
2
100
AcDbEntity
  8
0
  6
Continuous
100
AcDbCircle
 10
1.075027958632152
 20
8.187713756310611
 30
0.0
 40
0.0312500000000021
100
AcDbArc
 50
0.0
 51
119.9999999999959
  0
LINE
  5
2E3
330
2
100
AcDbEntity
  8
0
  6
Continuous
100
AcDbLine
 10
1.106277958632152
 20
8.187713756310611
 30
0.0
 11
1.106277958632152
 21
8.093749999999996
 31
0.0
  0
LINE
  5
2E4
330
2
100
AcDbEntity
  8
0
  6
Continuous
100
AcDbLine
 10
1.106277958632152
 20
8.093749999999996
 30
0.0
 11
1.106277958632152
 21
7.999786243689396
 31
0.0
  0
ARC
  5
2E5
330
2
100
AcDbEntity
  8
0
  6
Continuous
100
AcDbCircle
 10
1.075027958632152
 20
7.999786243689396
 30
0.0
 40
0.0312500000000009
100
AcDbArc
 50
240.0000000000041
 51
0.0
  0
LINE
  5
2E6
330
2
100
AcDbEntity
  8
0
100
AcDbLine
 10
1.059402958632152
 20
5.972722949821002
 30
0.0
 11
0.8966529586321634
 21
6.066686706131602
 31
0.0
  0
ARC
  5
2E7
330
2
100
AcDbEntity
  8
0
100
AcDbCircle
 10
0.9122779586321634
 20
6.093749999999869
 30
0.0
 40
0.031250000000003
100
AcDbArc
 50
119.9999999999987
 51
240.0000000000013
  0
LINE
  5
2E8
330
2
100
AcDbEntity
  8
0
100
AcDbLine
 10
0.8966529586321634
 20
6.120813293868135
 30
0.0
 11
1.059402958632152
 21
6.21477705017875
 31
0.0
  0
ARC
  5
2E9
330
2
100
AcDbEntity
  8
0
100
AcDbCircle
 10
1.075027958632152
 20
6.187713756310483
 30
0.0
 40
0.0312500000000021
100
AcDbArc
 50
0.0
 51
119.9999999999959
  0
LINE
  5
2EA
330
2
100
AcDbEntity
  8
0
100
AcDbLine
 10
1.106277958632152
 20
6.187713756310483
 30
0.0
 11
1.106277958632152
 21
6.093749999999869
 31
0.0
  0
LINE
  5
2EB
330
2
100
AcDbEntity
  8
0
100
AcDbLine
 10
1.106277958632152
 20
6.093749999999869
 30
0.0
 11
1.106277958632152
 21
5.999786243689268
 31
0.0
  0
ARC
  5
2EC
330
2
100
AcDbEntity
  8
0
100
AcDbCircle
 10
1.075027958632152
 20
5.999786243689268
 30
0.0
 40
0.0312500000000009
100
AcDbArc
 50
240.0000000000041
 51
0.0
  0
LINE
  5
2ED
330
2
100
AcDbEntity
  8
0
  6
Continuous
100
AcDbLine
 10
1.652652958632107
 20
7.503972949821129
 30
0.0
 11
1.489902958632104
 21
7.59793670613173
 31
0.0
  0
ARC
  5
2EE
330
2
100
AcDbEntity
  8
0
  6
Continuous
100
AcDbCircle
 10
1.505527958632104
 20
7.624999999999996
 30
0.0
 40
0.031250000000003
100
AcDbArc
 50
119.9999999999987
 51
240.0000000000013
  0
LINE
  5
2EF
330
2
100
AcDbEntity
  8
0
  6
Continuous
100
AcDbLine
 10
1.489902958632104
 20
7.652063293868263
 30
0.0
 11
1.652652958632107
 21
7.746027050178878
 31
0.0
  0
ARC
  5
2F0
330
2
100
AcDbEntity
  8
0
  6
Continuous
100
AcDbCircle
 10
1.668277958632107
 20
7.718963756310611
 30
0.0
 40
0.0312500000000021
100
AcDbArc
 50
0.0
 51
119.9999999999959
  0
LINE
  5
2F1
330
2
100
AcDbEntity
  8
0
  6
Continuous
100
AcDbLine
 10
1.699527958632107
 20
7.718963756310611
 30
0.0
 11
1.699527958632107
 21
7.624999999999996
 31
0.0
  0
LINE
  5
2F2
330
2
100
AcDbEntity
  8
0
  6
Continuous
100
AcDbLine
 10
1.699527958632107
 20
7.624999999999996
 30
0.0
 11
1.699527958632107
 21
7.531036243689396
 31
0.0
  0
ARC
  5
2F3
330
2
100
AcDbEntity
  8
0
  6
Continuous
100
AcDbCircle
 10
1.668277958632107
 20
7.531036243689396
 30
0.0
 40
0.0312500000000009
100
AcDbArc
 50
240.0000000000041
 51
0.0
  0
LINE
  5
2F4
330
2
100
AcDbEntity
  8
0
100
AcDbLine
 10
1.652652958632107
 20
5.503972949821002
 30
0.0
 11
1.489902958632104
 21
5.597936706131602
 31
0.0
  0
ARC
  5
2F5
330
2
100
AcDbEntity
  8
0
100
AcDbCircle
 10
1.505527958632104
 20
5.624999999999869
 30
0.0
 40
0.031250000000003
100
AcDbArc
 50
119.9999999999987
 51
240.0000000000013
  0
LINE
  5
2F6
330
2
100
AcDbEntity
  8
0
100
AcDbLine
 10
1.489902958632104
 20
5.652063293868135
 30
0.0
 11
1.652652958632107
 21
5.74602705017875
 31
0.0
  0
ARC
  5
2F7
330
2
100
AcDbEntity
  8
0
100
AcDbCircle
 10
1.668277958632107
 20
5.718963756310483
 30
0.0
 40
0.0312500000000021
100
AcDbArc
 50
0.0
 51
119.9999999999959
  0
LINE
  5
2F8
330
2
100
AcDbEntity
  8
0
100
AcDbLine
 10
1.699527958632107
 20
5.718963756310483
 30
0.0
 11
1.699527958632107
 21
5.624999999999869
 31
0.0
  0
LINE
  5
2F9
330
2
100
AcDbEntity
  8
0
100
AcDbLine
 10
1.699527958632107
 20
5.624999999999869
 30
0.0
 11
1.699527958632107
 21
5.531036243689268
 31
0.0
  0
ARC
  5
2FA
330
2
100
AcDbEntity
  8
0
100
AcDbCircle
 10
1.668277958632107
 20
5.531036243689268
 30
0.0
 40
0.0312500000000009
100
AcDbArc
 50
240.0000000000041
 51
0.0
  0
LINE
  5
2FB
330
2
100
AcDbEntity
  8
0
100
AcDbLine
 10
1.246402958632128
 20
6.949152050178721
 30
0.0
 11
1.083652958632147
 21
6.855188293868135
 31
0.0
  0
ARC
  5
2FC
330
2
100
AcDbEntity
  8
0
100
AcDbCircle
 10
1.099277958632147
 20
6.828124999999869
 30
0.0
 40
0.031250000000003
100
AcDbArc
 50
119.9999999999987
 51
240.0000000000013
  0
LINE
  5
2FD
330
2
100
AcDbEntity
  8
0
100
AcDbLine
 10
1.083652958632147
 20
6.801061706131602
 30
0.0
 11
1.246402958632128
 21
6.707097949821002
 31
0.0
  0
ARC
  5
2FE
330
2
100
AcDbEntity
  8
0
100
AcDbCircle
 10
1.262027958632128
 20
6.734161243689268
 30
0.0
 40
0.0312500000000021
100
AcDbArc
 50
240.0000000000041
 51
0.0
  0
LINE
  5
2FF
330
2
100
AcDbEntity
  8
0
100
AcDbLine
 10
1.293277958632128
 20
6.734161243689268
 30
0.0
 11
1.293277958632135
 21
6.828124999999869
 31
0.0
  0
LINE
  5
300
330
2
100
AcDbEntity
  8
0
100
AcDbLine
 10
1.293277958632135
 20
6.828124999999869
 30
0.0
 11
1.293277958632128
 21
6.922088756310455
 31
0.0
  0
ARC
  5
301
330
2
100
AcDbEntity
  8
0
100
AcDbCircle
 10
1.262027958632128
 20
6.922088756310455
 30
0.0
 40
0.0312500000000009
100
AcDbArc
 50
0.0
 51
119.9999999999959
  0
LINE
  5
302
330
2
100
AcDbEntity
  8
0
  6
Continuous
100
AcDbLine
 10
1.246402958632128
 20
8.949152050178849
 30
0.0
 11
1.083652958632147
 21
8.855188293868263
 31
0.0
  0
ARC
  5
303
330
2
100
AcDbEntity
  8
0
  6
Continuous
100
AcDbCircle
 10
1.099277958632147
 20
8.828124999999996
 30
0.0
 40
0.031250000000003
100
AcDbArc
 50
119.9999999999987
 51
240.0000000000013
  0
LINE
  5
304
330
2
100
AcDbEntity
  8
0
  6
Continuous
100
AcDbLine
 10
1.083652958632147
 20
8.80106170613173
 30
0.0
 11
1.246402958632128
 21
8.707097949821129
 31
0.0
  0
ARC
  5
305
330
2
100
AcDbEntity
  8
0
  6
Continuous
100
AcDbCircle
 10
1.262027958632128
 20
8.734161243689396
 30
0.0
 40
0.0312500000000021
100
AcDbArc
 50
240.0000000000041
 51
0.0
  0
LINE
  5
306
330
2
100
AcDbEntity
  8
0
  6
Continuous
100
AcDbLine
 10
1.293277958632128
 20
8.734161243689396
 30
0.0
 11
1.293277958632135
 21
8.828124999999996
 31
0.0
  0
LINE
  5
307
330
2
100
AcDbEntity
  8
0
  6
Continuous
100
AcDbLine
 10
1.293277958632135
 20
8.828124999999996
 30
0.0
 11
1.293277958632128
 21
8.922088756310583
 31
0.0
  0
ARC
  5
308
330
2
100
AcDbEntity
  8
0
  6
Continuous
100
AcDbCircle
 10
1.262027958632128
 20
8.922088756310583
 30
0.0
 40
0.0312500000000009
100
AcDbArc
 50
0.0
 51
119.9999999999959
  0
LINE
  5
309
330
2
100
AcDbEntity
  8
0
100
AcDbLine
 10
10.72550746697457
 20
17.56021647376138
 30
0.0
 11
10.64878638089489
 21
17.48349538804068
 31
0.0
  0
ARC
  5
30A
330
2
100
AcDbEntity
  8
0
100
AcDbCircle
 10
10.67088346776891
 20
17.46139830109055
 30
0.0
 40
0.0312499999999977
100
AcDbArc
 50
134.9999999013363
 51
224.9999998530384
  0
LINE
  5
30B
330
2
100
AcDbEntity
  8
0
100
AcDbLine
 10
10.64878638080016
 20
17.43930121423515
 30
0.0
 11
10.72550746610169
 21
17.36258012844526
 31
0.0
  0
ARC
  5
30C
330
2
100
AcDbEntity
  8
0
100
AcDbCircle
 10
10.74760455301377
 20
17.38467721535734
 30
0.0
 40
0.0312500000000028
100
AcDbArc
 50
225.0000000000046
 51
315.0000000661551
  0
LINE
  5
30D
330
2
100
AcDbEntity
  8
0
100
AcDbLine
 10
10.76970163995136
 20
17.36258012847077
 30
0.0
 11
10.84642272625515
 21
17.43930121444473
 31
0.0
  0
ARC
  5
30E
330
2
100
AcDbEntity
  8
0
100
AcDbCircle
 10
10.82432563934307
 20
17.46139830135681
 30
0.0
 40
0.0312500000000028
100
AcDbArc
 50
315.0000000000046
 51
44.99999990131784
  0
LINE
  5
30F
330
2
100
AcDbEntity
  8
0
100
AcDbLine
 10
10.84642272629321
 20
17.48349538823083
 30
0.0
 11
10.76970164079874
 21
17.56021647376138
 31
0.0
  0
ARC
  5
310
330
2
100
AcDbEntity
  8
0
100
AcDbCircle
 10
10.74760455388666
 20
17.5381193868493
 30
0.0
 40
0.0312500000000053
100
AcDbArc
 50
45.0
 51
135.0
  0
LINE
  5
311
330
2
100
AcDbEntity
  8
0
  6
Continuous
100
AcDbLine
 10
20.6123056998092
 20
4.230402050178862
 30
0.0
 11
20.7750556998092
 21
4.136438293868247
 31
0.0
  0
ARC
  5
312
330
2
100
AcDbEntity
  8
0
  6
Continuous
100
AcDbCircle
 10
20.7594306998092
 20
4.109374999999981
 30
0.0
 40
0.0312500000000026
100
AcDbArc
 50
299.9999999999973
 51
60.00000000000272
  0
LINE
  5
313
330
2
100
AcDbEntity
  8
0
  6
Continuous
100
AcDbLine
 10
20.7750556998092
 20
4.082311706131714
 30
0.0
 11
20.6123056998092
 21
3.988347949821128
 31
0.0
  0
ARC
  5
314
330
2
100
AcDbEntity
  8
0
  6
Continuous
100
AcDbCircle
 10
20.5966806998092
 20
4.015411243689394
 30
0.0
 40
0.0312500000000026
100
AcDbArc
 50
180.0
 51
299.9999999999973
  0
LINE
  5
315
330
2
100
AcDbEntity
  8
0
  6
Continuous
100
AcDbLine
 10
20.5654306998092
 20
4.015411243689394
 30
0.0
 11
20.5654306998092
 21
4.109374999999995
 31
0.0
  0
LINE
  5
316
330
2
100
AcDbEntity
  8
0
  6
Continuous
100
AcDbLine
 10
20.5654306998092
 20
4.109374999999995
 30
0.0
 11
20.5654306998092
 21
4.203338756310595
 31
0.0
  0
ARC
  5
317
330
2
100
AcDbEntity
  8
0
  6
Continuous
100
AcDbCircle
 10
20.5966806998092
 20
4.203338756310597
 30
0.0
 40
0.03125
100
AcDbArc
 50
60.00000000000109
 51
180.0000000000032
  0
LINE
  5
318
330
2
100
AcDbEntity
  8
0
  6
Continuous
100
AcDbLine
 10
19.9873056998092
 20
4.730402050178878
 30
0.0
 11
20.15005569980918
 21
4.636438293868249
 31
0.0
  0
ARC
  5
319
330
2
100
AcDbEntity
  8
0
  6
Continuous
100
AcDbCircle
 10
20.13443069980918
 20
4.609374999999982
 30
0.0
 40
0.0312500000000026
100
AcDbArc
 50
299.9999999999973
 51
60.00000000000272
  0
LINE
  5
31A
330
2
100
AcDbEntity
  8
0
  6
Continuous
100
AcDbLine
 10
20.15005569980918
 20
4.582311706131716
 30
0.0
 11
19.9873056998092
 21
4.488347949821099
 31
0.0
  0
ARC
  5
31B
330
2
100
AcDbEntity
  8
0
  6
Continuous
100
AcDbCircle
 10
19.9716806998092
 20
4.515411243689364
 30
0.0
 40
0.031250000000001
100
AcDbArc
 50
179.9999999999967
 51
299.9999999999989
  0
LINE
  5
31C
330
2
100
AcDbEntity
  8
0
  6
Continuous
100
AcDbLine
 10
19.9404306998092
 20
4.515411243689366
 30
0.0
 11
19.9404306998092
 21
4.609374999999996
 31
0.0
  0
LINE
  5
31D
330
2
100
AcDbEntity
  8
0
  6
Continuous
100
AcDbLine
 10
19.9404306998092
 20
4.609374999999996
 30
0.0
 11
19.9404306998092
 21
4.703338756310611
 31
0.0
  0
ARC
  5
31E
330
2
100
AcDbEntity
  8
0
  6
Continuous
100
AcDbCircle
 10
19.9716806998092
 20
4.703338756310613
 30
0.0
 40
0.03125
100
AcDbArc
 50
60.00000000000109
 51
180.0000000000032
  0
LINE
  5
31F
330
2
100
AcDbEntity
  8
0
  6
Continuous
100
AcDbLine
 10
20.29980569980921
 20
5.230402050178849
 30
0.0
 11
20.46255569980918
 21
5.136438293868263
 31
0.0
  0
ARC
  5
320
330
2
100
AcDbEntity
  8
0
  6
Continuous
100
AcDbCircle
 10
20.44693069980918
 20
5.109374999999996
 30
0.0
 40
0.0312500000000026
100
AcDbArc
 50
299.9999999999973
 51
60.00000000000272
  0
LINE
  5
321
330
2
100
AcDbEntity
  8
0
  6
Continuous
100
AcDbLine
 10
20.46255569980918
 20
5.08231170613173
 30
0.0
 11
20.29980569980921
 21
4.988347949821129
 31
0.0
  0
ARC
  5
322
330
2
100
AcDbEntity
  8
0
  6
Continuous
100
AcDbCircle
 10
20.28418069980921
 20
5.015411243689394
 30
0.0
 40
0.031250000000001
100
AcDbArc
 50
179.9999999999967
 51
299.9999999999989
  0
LINE
  5
323
330
2
100
AcDbEntity
  8
0
  6
Continuous
100
AcDbLine
 10
20.25293069980921
 20
5.015411243689396
 30
0.0
 11
20.2529306998092
 21
5.109374999999996
 31
0.0
  0
LINE
  5
324
330
2
100
AcDbEntity
  8
0
  6
Continuous
100
AcDbLine
 10
20.2529306998092
 20
5.109374999999996
 30
0.0
 11
20.25293069980921
 21
5.203338756310583
 31
0.0
  0
ARC
  5
325
330
2
100
AcDbEntity
  8
0
  6
Continuous
100
AcDbCircle
 10
20.28418069980921
 20
5.203338756310584
 30
0.0
 40
0.03125
100
AcDbArc
 50
60.00000000000109
 51
180.0000000000032
  0
LINE
  5
326
330
2
100
AcDbEntity
  8
0
  6
Continuous
100
AcDbLine
 10
20.4873056998092
 20
7.949152050178864
 30
0.0
 11
20.6500556998092
 21
7.855188293868249
 31
0.0
  0
ARC
  5
327
330
2
100
AcDbEntity
  8
0
  6
Continuous
100
AcDbCircle
 10
20.6344306998092
 20
7.828124999999982
 30
0.0
 40
0.0312500000000026
100
AcDbArc
 50
299.9999999999973
 51
60.00000000000272
  0
LINE
  5
328
330
2
100
AcDbEntity
  8
0
  6
Continuous
100
AcDbLine
 10
20.6500556998092
 20
7.801061706131716
 30
0.0
 11
20.4873056998092
 21
7.707097949821129
 31
0.0
  0
ARC
  5
329
330
2
100
AcDbEntity
  8
0
  6
Continuous
100
AcDbCircle
 10
20.4716806998092
 20
7.734161243689396
 30
0.0
 40
0.0312500000000026
100
AcDbArc
 50
180.0
 51
299.9999999999973
  0
LINE
  5
32A
330
2
100
AcDbEntity
  8
0
  6
Continuous
100
AcDbLine
 10
20.4404306998092
 20
7.734161243689396
 30
0.0
 11
20.4404306998092
 21
7.828124999999996
 31
0.0
  0
LINE
  5
32B
330
2
100
AcDbEntity
  8
0
  6
Continuous
100
AcDbLine
 10
20.4404306998092
 20
7.828124999999996
 30
0.0
 11
20.4404306998092
 21
7.922088756310597
 31
0.0
  0
ARC
  5
32C
330
2
100
AcDbEntity
  8
0
  6
Continuous
100
AcDbCircle
 10
20.4716806998092
 20
7.922088756310597
 30
0.0
 40
0.03125
100
AcDbArc
 50
60.00000000000272
 51
180.0
  0
LINE
  5
32D
330
2
100
AcDbEntity
  8
0
100
AcDbLine
 10
19.70605569980927
 20
6.449152050178764
 30
0.0
 11
19.86880569980926
 21
6.355188293868135
 31
0.0
  0
ARC
  5
32E
330
2
100
AcDbEntity
  8
0
100
AcDbCircle
 10
19.85318069980926
 20
6.328124999999869
 30
0.0
 40
0.0312500000000026
100
AcDbArc
 50
299.9999999999973
 51
60.00000000000272
  0
LINE
  5
32F
330
2
100
AcDbEntity
  8
0
100
AcDbLine
 10
19.86880569980926
 20
6.301061706131602
 30
0.0
 11
19.70605569980927
 21
6.207097949820987
 31
0.0
  0
ARC
  5
330
330
2
100
AcDbEntity
  8
0
100
AcDbCircle
 10
19.69043069980927
 20
6.234161243689254
 30
0.0
 40
0.0312500000000026
100
AcDbArc
 50
180.0
 51
299.9999999999973
  0
LINE
  5
331
330
2
100
AcDbEntity
  8
0
100
AcDbLine
 10
19.65918069980927
 20
6.234161243689254
 30
0.0
 11
19.65918069980927
 21
6.328124999999883
 31
0.0
  0
LINE
  5
332
330
2
100
AcDbEntity
  8
0
100
AcDbLine
 10
19.65918069980927
 20
6.328124999999883
 30
0.0
 11
19.65918069980927
 21
6.422088756310497
 31
0.0
  0
ARC
  5
333
330
2
100
AcDbEntity
  8
0
100
AcDbCircle
 10
19.69043069980927
 20
6.422088756310497
 30
0.0
 40
0.03125
100
AcDbArc
 50
60.00000000000272
 51
180.0
  0
LINE
  5
334
330
2
100
AcDbEntity
  8
0
100
AcDbLine
 10
20.4873056998092
 20
5.94915205017875
 30
0.0
 11
20.6500556998092
 21
5.855188293868135
 31
0.0
  0
ARC
  5
335
330
2
100
AcDbEntity
  8
0
100
AcDbCircle
 10
20.6344306998092
 20
5.828124999999869
 30
0.0
 40
0.0312500000000026
100
AcDbArc
 50
299.9999999999973
 51
60.00000000000272
  0
LINE
  5
336
330
2
100
AcDbEntity
  8
0
100
AcDbLine
 10
20.6500556998092
 20
5.801061706131602
 30
0.0
 11
20.4873056998092
 21
5.707097949821016
 31
0.0
  0
ARC
  5
337
330
2
100
AcDbEntity
  8
0
100
AcDbCircle
 10
20.4716806998092
 20
5.734161243689282
 30
0.0
 40
0.0312500000000026
100
AcDbArc
 50
180.0
 51
299.9999999999973
  0
LINE
  5
338
330
2
100
AcDbEntity
  8
0
100
AcDbLine
 10
20.4404306998092
 20
5.734161243689282
 30
0.0
 11
20.4404306998092
 21
5.828124999999883
 31
0.0
  0
LINE
  5
339
330
2
100
AcDbEntity
  8
0
100
AcDbLine
 10
20.4404306998092
 20
5.828124999999883
 30
0.0
 11
20.4404306998092
 21
5.922088756310483
 31
0.0
  0
ARC
  5
33A
330
2
100
AcDbEntity
  8
0
100
AcDbCircle
 10
20.4716806998092
 20
5.922088756310483
 30
0.0
 40
0.03125
100
AcDbArc
 50
60.00000000000272
 51
180.0
  0
LINE
  5
33B
330
2
100
AcDbEntity
  8
0
100
AcDbLine
 10
19.99327949848078
 20
6.902277050178764
 30
0.0
 11
20.15602949848077
 21
6.808313293868135
 31
0.0
  0
ARC
  5
33C
330
2
100
AcDbEntity
  8
0
100
AcDbCircle
 10
20.14040449848077
 20
6.781249999999869
 30
0.0
 40
0.0312500000000026
100
AcDbArc
 50
299.9999999999973
 51
60.00000000000272
  0
LINE
  5
33D
330
2
100
AcDbEntity
  8
0
100
AcDbLine
 10
20.15602949848077
 20
6.754186706131602
 30
0.0
 11
19.99327949848078
 21
6.660222949820987
 31
0.0
  0
ARC
  5
33E
330
2
100
AcDbEntity
  8
0
100
AcDbCircle
 10
19.97765449848078
 20
6.687286243689254
 30
0.0
 40
0.0312500000000026
100
AcDbArc
 50
180.0
 51
299.9999999999973
  0
LINE
  5
33F
330
2
100
AcDbEntity
  8
0
100
AcDbLine
 10
19.94640449848078
 20
6.687286243689254
 30
0.0
 11
19.94640449848078
 21
6.781249999999883
 31
0.0
  0
LINE
  5
340
330
2
100
AcDbEntity
  8
0
100
AcDbLine
 10
19.94640449848078
 20
6.781249999999883
 30
0.0
 11
19.94640449848078
 21
6.875213756310497
 31
0.0
  0
ARC
  5
341
330
2
100
AcDbEntity
  8
0
100
AcDbCircle
 10
19.97765449848078
 20
6.875213756310497
 30
0.0
 40
0.03125
100
AcDbArc
 50
60.00000000000272
 51
180.0
  0
LINE
  5
342
330
2
100
AcDbEntity
  8
0
  6
Continuous
100
AcDbLine
 10
19.70605569980927
 20
8.449152050178878
 30
0.0
 11
19.86880569980926
 21
8.355188293868249
 31
0.0
  0
ARC
  5
343
330
2
100
AcDbEntity
  8
0
  6
Continuous
100
AcDbCircle
 10
19.85318069980926
 20
8.328124999999982
 30
0.0
 40
0.0312500000000026
100
AcDbArc
 50
299.9999999999973
 51
60.00000000000272
  0
LINE
  5
344
330
2
100
AcDbEntity
  8
0
  6
Continuous
100
AcDbLine
 10
19.86880569980926
 20
8.301061706131716
 30
0.0
 11
19.70605569980927
 21
8.207097949821101
 31
0.0
  0
ARC
  5
345
330
2
100
AcDbEntity
  8
0
  6
Continuous
100
AcDbCircle
 10
19.69043069980927
 20
8.234161243689368
 30
0.0
 40
0.0312500000000026
100
AcDbArc
 50
180.0
 51
299.9999999999973
  0
LINE
  5
346
330
2
100
AcDbEntity
  8
0
  6
Continuous
100
AcDbLine
 10
19.65918069980927
 20
8.234161243689368
 30
0.0
 11
19.65918069980927
 21
8.328124999999996
 31
0.0
  0
LINE
  5
347
330
2
100
AcDbEntity
  8
0
  6
Continuous
100
AcDbLine
 10
19.65918069980927
 20
8.328124999999996
 30
0.0
 11
19.65918069980927
 21
8.422088756310611
 31
0.0
  0
ARC
  5
348
330
2
100
AcDbEntity
  8
0
  6
Continuous
100
AcDbCircle
 10
19.69043069980927
 20
8.422088756310611
 30
0.0
 40
0.03125
100
AcDbArc
 50
60.00000000000272
 51
180.0
  0
LINE
  5
349
330
2
100
AcDbEntity
  8
0
  6
Continuous
100
AcDbLine
 10
19.99327949848078
 20
8.902277050178878
 30
0.0
 11
20.15602949848077
 21
8.808313293868249
 31
0.0
  0
ARC
  5
34A
330
2
100
AcDbEntity
  8
0
  6
Continuous
100
AcDbCircle
 10
20.14040449848077
 20
8.781249999999982
 30
0.0
 40
0.0312500000000026
100
AcDbArc
 50
299.9999999999973
 51
60.00000000000272
  0
LINE
  5
34B
330
2
100
AcDbEntity
  8
0
  6
Continuous
100
AcDbLine
 10
20.15602949848077
 20
8.754186706131716
 30
0.0
 11
19.99327949848078
 21
8.660222949821101
 31
0.0
  0
ARC
  5
34C
330
2
100
AcDbEntity
  8
0
  6
Continuous
100
AcDbCircle
 10
19.97765449848078
 20
8.687286243689368
 30
0.0
 40
0.0312500000000026
100
AcDbArc
 50
180.0
 51
299.9999999999973
  0
LINE
  5
34D
330
2
100
AcDbEntity
  8
0
  6
Continuous
100
AcDbLine
 10
19.94640449848078
 20
8.687286243689368
 30
0.0
 11
19.94640449848078
 21
8.781249999999996
 31
0.0
  0
LINE
  5
34E
330
2
100
AcDbEntity
  8
0
  6
Continuous
100
AcDbLine
 10
19.94640449848078
 20
8.781249999999996
 30
0.0
 11
19.94640449848078
 21
8.875213756310611
 31
0.0
  0
ARC
  5
34F
330
2
100
AcDbEntity
  8
0
  6
Continuous
100
AcDbCircle
 10
19.97765449848078
 20
8.875213756310611
 30
0.0
 40
0.03125
100
AcDbArc
 50
60.00000000000272
 51
180.0
  0
ENDSEC
  0
SECTION
  2
OBJECTS
  0
DICTIONARY
  5
9
330
0
100
AcDbDictionary
281
     1
  3
ACAD_COLOR
350
357
  3
ACAD_GROUP
350
23
  3
ACAD_LAYOUT
350
D
  3
ACAD_MATERIAL
350
356
  3
ACAD_MLINESTYLE
350
24
  3
ACAD_PLOTSETTINGS
350
25
  3
ACAD_PLOTSTYLENAME
350
8
  3
ACAD_TABLESTYLE
350
358
  3
ACDBHEADERROUNDTRIPXREC
350
369
  3
AcDbVariableDictionary
350
178
  0
DICTIONARY
  5
357
102
{ACAD_REACTORS
330
9
102
}
330
9
100
AcDbDictionary
281
     1
  0
DICTIONARY
  5
23
102
{ACAD_REACTORS
330
9
102
}
330
9
100
AcDbDictionary
281
     1
  0
DICTIONARY
  5
D
102
{ACAD_REACTORS
330
9
102
}
330
9
100
AcDbDictionary
281
     1
  3
Layout1
350
13
  3
Model
350
C
  0
DICTIONARY
  5
356
102
{ACAD_REACTORS
330
9
102
}
330
9
100
AcDbDictionary
281
     1
  0
DICTIONARY
  5
24
102
{ACAD_REACTORS
330
9
102
}
330
9
100
AcDbDictionary
281
     1
  3
STANDARD
350
27
  0
DICTIONARY
  5
25
102
{ACAD_REACTORS
330
9
102
}
330
9
100
AcDbDictionary
281
     1
  0
ACDBDICTIONARYWDFLT
  5
8
102
{ACAD_REACTORS
330
9
102
}
330
9
100
AcDbDictionary
281
     1
  3
Normal
350
7
100
AcDbDictionaryWithDefault
340
7
  0
DICTIONARY
  5
358
102
{ACAD_REACTORS
330
9
102
}
330
9
100
AcDbDictionary
281
     1
  3
Standard
350
359
  0
DICTIONARY
  5
369
102
{ACAD_REACTORS
330
9
102
}
330
9
100
AcDbDictionary
281
     1
  3
COLORDICT
350
36A
  3
MATERIALDICT
350
36B
  0
DICTIONARY
  5
178
102
{ACAD_REACTORS
330
9
102
}
330
9
100
AcDbDictionary
281
     1
  3
CTABLESTYLE
350
366
  3
HIDETEXT
350
368
  0
LAYOUT
  5
13
102
{ACAD_REACTORS
330
D
102
}
102
{ACAD_XDICTIONARY
360
36C
102
}
330
D
100
AcDbPlotSettings
  1

  2
C:\ACAD2000\plotters\HP LaserJet 2100 Series PS.pc3
  4

  6

 40
0.0
 41
0.0
 42
0.0
 43
0.0
 44
0.0
 45
0.0
 46
0.0
 47
0.0
 48
0.0
 49
0.0
140
0.0
141
0.0
142
1.0
143
1.0
 70
   688
 72
     0
 73
     0
 74
     5
  7

 75
    16
147
1.0
148
0.0
149
0.0
100
AcDbLayout
  1
Layout1
 70
     0
 71
     1
 10
0.0
 20
0.0
 11
12.0
 21
9.0
 12
0.0
 22
0.0
 32
0.0
 14
1.000000000000000E+20
 24
1.000000000000000E+20
 34
1.000000000000000E+20
 15
-1.000000000000000E+20
 25
-1.000000000000000E+20
 35
-1.000000000000000E+20
146
0.0
 13
0.0
 23
0.0
 33
0.0
 16
1.0
 26
0.0
 36
0.0
 17
0.0
 27
1.0
 37
0.0
 76
     0
330
E
  0
LAYOUT
  5
C
102
{ACAD_REACTORS
330
D
102
}
102
{ACAD_XDICTIONARY
360
36E
102
}
330
D
100
AcDbPlotSettings
  1

  2
HP LaserJet 2100 Series PS
  4
Letter
  6

 40
3.174999952316284
 41
3.174999952316284
 42
3.175003051757813
 43
3.17498779296875
 44
215.9000091552734
 45
279.3999938964844
 46
0.0
 47
0.0
 48
0.0
 49
0.0
140
0.0
141
0.0
142
1.0
143
5.090908941468881
 70
 28336
 72
     0
 73
     1
 74
     2
  7

 75
     0
147
0.1964285771946001
148
0.0
149
0.0
100
AcDbLayout
  1
Model
 70
     1
 71
     0
 10
0.0
 20
0.0
 11
12.0
 21
9.0
 12
0.0
 22
0.0
 32
0.0
 14
0.0
 24
0.0
 34
0.0
 15
0.0
 25
0.0
 35
0.0
146
0.0
 13
0.0
 23
0.0
 33
0.0
 16
1.0
 26
0.0
 36
0.0
 17
0.0
 27
1.0
 37
0.0
 76
     0
330
2
  0
MLINESTYLE
  5
27
102
{ACAD_REACTORS
330
24
102
}
330
24
100
AcDbMlineStyle
  2
STANDARD
 70
     0
  3

 62
   256
 51
90.0
 52
90.0
 71
     2
 49
0.5
 62
   256
  6
BYLAYER
 49
-0.5
 62
   256
  6
BYLAYER
  0
ACDBPLACEHOLDER
  5
7
102
{ACAD_REACTORS
330
8
102
}
330
8
  0
ACAD_PROXY_OBJECT
  5
359
102
{ACAD_REACTORS
330
358
102
}
330
358
100
AcDbProxyObject
 90
      499
 91
      585
 95
   983063
 70
     0
 93
     1841
310
4214DD185B99185C9928B81E85EB51B8AE3F2E07A17AD46E2B8FC02B5E8DC0F42B1CFD028000000C1008070000C3001FDFF8000000C1003FBFF000000182007F7FE00000030400FEFFC00000060801FDFF8000000C1003FBFF00000018200000000000000681FA0B0000001820100E000186003FBFF000000182007F7FE000
310
00030400FEFFC00000060801FDFF8000000C1003FBFF000000182007F7FE000000304000AD7A3703D0AC73F4160000003040201C00030C007F7FE00000030400FEFFC00000060801FDFF8000000C1003FBFF000000182007F7FE00000030400FEFFC000000608000
340
16
340
16
340
16
 94
        0
  0
XRECORD
  5
36A
102
{ACAD_REACTORS
330
369
102
}
330
369
100
AcDbXrecord
340
357
  0
XRECORD
  5
36B
102
{ACAD_REACTORS
330
369
102
}
330
369
100
AcDbXrecord
340
356
  0
DICTIONARYVAR
  5
366
102
{ACAD_REACTORS
330
178
102
}
330
178
100
DictionaryVariables
280
     0
  1
STANDARD
  0
DICTIONARYVAR
  5
368
102
{ACAD_REACTORS
330
178
102
}
330
178
100
DictionaryVariables
280
     0
  1
0
  0
DICTIONARY
  5
36C
330
13
100
AcDbDictionary
280
     1
281
     1
  3
ACAD_XREC_ROUNDTRIP
360
36D
  0
DICTIONARY
  5
36E
330
C
100
AcDbDictionary
280
     1
281
     1
  3
ACAD_XREC_ROUNDTRIP
360
36F
  0
XRECORD
  5
36D
102
{ACAD_REACTORS
330
36C
102
}
330
36C
100
AcDbXrecord
102
SHADEPLOT
 70
     0
102
SHADEPLOTRESLEVEL
 70
     2
102
SHADEPLOTCUSTOMDPI
 70
   300
  0
XRECORD
  5
36F
102
{ACAD_REACTORS
330
36E
102
}
330
36E
100
AcDbXrecord
102
SHADEPLOT
 70
     0
102
SHADEPLOTRESLEVEL
 70
     2
102
SHADEPLOTCUSTOMDPI
 70
   300
  0
ENDSEC
  0
EOF
