  0
SECTION
  2
HEADER
  9
$ACADVER
  1
AC1015
  9
$ACADMAINTVER
 70
     6
  9
$DWGCODEPAGE
  3
ANSI_1252
  9
$INSBASE
 10
0.0
 20
0.0
 30
0.0
  9
$EXTMIN
 10
-1.056346037136628
 20
-0.0894710430818364
 30
-0.0000000000000091
  9
$EXTMAX
 10
19.18613156209749
 20
15.83736052305216
 30
0.000000000000007
  9
$LIMMIN
 10
0.0
 20
0.0
  9
$LIMMAX
 10
12.0
 20
9.0
  9
$ORTHOMODE
 70
     1
  9
$REGENMODE
 70
     1
  9
$FILLMODE
 70
     1
  9
$QTEXTMODE
 70
     0
  9
$MIRRTEXT
 70
     1
  9
$LTSCALE
 40
1.0
  9
$ATTMODE
 70
     1
  9
$TEXTSIZE
 40
0.2
  9
$TRACEWID
 40
0.05
  9
$TEXTSTYLE
  7
Standard
  9
$CLAYER
  8
0
  9
$CELTYPE
  6
ByLayer
  9
$CECOLOR
 62
   256
  9
$CELTSCALE
 40
1.0
  9
$DISPSILH
 70
     0
  9
$DIMSCALE
 40
1.0
  9
$DIMASZ
 40
0.18
  9
$DIMEXO
 40
0.0625
  9
$DIMDLI
 40
0.38
  9
$DIMRND
 40
0.0
  9
$DIMDLE
 40
0.0
  9
$DIMEXE
 40
0.18
  9
$DIMTP
 40
0.0
  9
$DIMTM
 40
0.0
  9
$DIMTXT
 40
0.18
  9
$DIMCEN
 40
0.09
  9
$DIMTSZ
 40
0.0
  9
$DIMTOL
 70
     0
  9
$DIMLIM
 70
     0
  9
$DIMTIH
 70
     1
  9
$DIMTOH
 70
     1
  9
$DIMSE1
 70
     0
  9
$DIMSE2
 70
     0
  9
$DIMTAD
 70
     0
  9
$DIMZIN
 70
     0
  9
$DIMBLK
  1

  9
$DIMASO
 70
     1
  9
$DIMSHO
 70
     1
  9
$DIMPOST
  1

  9
$DIMAPOST
  1

  9
$DIMALT
 70
     0
  9
$DIMALTD
 70
     2
  9
$DIMALTF
 40
25.4
  9
$DIMLFAC
 40
1.0
  9
$DIMTOFL
 70
     0
  9
$DIMTVP
 40
0.0
  9
$DIMTIX
 70
     0
  9
$DIMSOXD
 70
     0
  9
$DIMSAH
 70
     0
  9
$DIMBLK1
  1

  9
$DIMBLK2
  1

  9
$DIMSTYLE
  2
Standard
  9
$DIMCLRD
 70
     0
  9
$DIMCLRE
 70
     0
  9
$DIMCLRT
 70
     0
  9
$DIMTFAC
 40
1.0
  9
$DIMGAP
 40
0.09
  9
$DIMJUST
 70
     0
  9
$DIMSD1
 70
     0
  9
$DIMSD2
 70
     0
  9
$DIMTOLJ
 70
     1
  9
$DIMTZIN
 70
     0
  9
$DIMALTZ
 70
     0
  9
$DIMALTTZ
 70
     0
  9
$DIMUPT
 70
     0
  9
$DIMDEC
 70
     4
  9
$DIMTDEC
 70
     4
  9
$DIMALTU
 70
     2
  9
$DIMALTTD
 70
     2
  9
$DIMTXSTY
  7
Standard
  9
$DIMAUNIT
 70
     0
  9
$DIMADEC
 70
     0
  9
$DIMALTRND
 40
0.0
  9
$DIMAZIN
 70
     0
  9
$DIMDSEP
 70
    46
  9
$DIMATFIT
 70
     3
  9
$DIMFRAC
 70
     0
  9
$DIMLDRBLK
  1

  9
$DIMLUNIT
 70
     2
  9
$DIMLWD
 70
    -2
  9
$DIMLWE
 70
    -2
  9
$DIMTMOVE
 70
     0
  9
$LUNITS
 70
     2
  9
$LUPREC
 70
     4
  9
$SKETCHINC
 40
0.1
  9
$FILLETRAD
 40
0.5
  9
$AUNITS
 70
     0
  9
$AUPREC
 70
     0
  9
$MENU
  1
.
  9
$ELEVATION
 40
0.0
  9
$PELEVATION
 40
0.0
  9
$THICKNESS
 40
0.0
  9
$LIMCHECK
 70
     0
  9
$CHAMFERA
 40
0.5
  9
$CHAMFERB
 40
0.5
  9
$CHAMFERC
 40
1.0
  9
$CHAMFERD
 40
0.0
  9
$SKPOLY
 70
     0
  9
$TDCREATE
 40
2453420.559099167
  9
$TDUCREATE
 40
2453420.8924325
  9
$TDUPDATE
 40
2454165.795910579
  9
$TDUUPDATE
 40
2454166.129243912
  9
$TDINDWG
 40
0.1528562153
  9
$TDUSRTIMER
 40
0.1528562153
  9
$USRTIMER
 70
     1
  9
$ANGBASE
 50
0.0
  9
$ANGDIR
 70
     0
  9
$PDMODE
 70
     0
  9
$PDSIZE
 40
0.0
  9
$PLINEWID
 40
0.0
  9
$SPLFRAME
 70
     0
  9
$SPLINETYPE
 70
     6
  9
$SPLINESEGS
 70
     8
  9
$HANDSEED
  5
AA5
  9
$SURFTAB1
 70
     6
  9
$SURFTAB2
 70
     6
  9
$SURFTYPE
 70
     6
  9
$SURFU
 70
     6
  9
$SURFV
 70
     6
  9
$UCSBASE
  2

  9
$UCSNAME
  2

  9
$UCSORG
 10
0.0
 20
0.0
 30
0.0
  9
$UCSXDIR
 10
1.0
 20
0.0
 30
0.0
  9
$UCSYDIR
 10
0.0
 20
1.0
 30
0.0
  9
$UCSORTHOREF
  2

  9
$UCSORTHOVIEW
 70
     0
  9
$UCSORGTOP
 10
0.0
 20
0.0
 30
0.0
  9
$UCSORGBOTTOM
 10
0.0
 20
0.0
 30
0.0
  9
$UCSORGLEFT
 10
0.0
 20
0.0
 30
0.0
  9
$UCSORGRIGHT
 10
0.0
 20
0.0
 30
0.0
  9
$UCSORGFRONT
 10
0.0
 20
0.0
 30
0.0
  9
$UCSORGBACK
 10
0.0
 20
0.0
 30
0.0
  9
$PUCSBASE
  2

  9
$PUCSNAME
  2

  9
$PUCSORG
 10
0.0
 20
0.0
 30
0.0
  9
$PUCSXDIR
 10
1.0
 20
0.0
 30
0.0
  9
$PUCSYDIR
 10
0.0
 20
1.0
 30
0.0
  9
$PUCSORTHOREF
  2

  9
$PUCSORTHOVIEW
 70
     0
  9
$PUCSORGTOP
 10
0.0
 20
0.0
 30
0.0
  9
$PUCSORGBOTTOM
 10
0.0
 20
0.0
 30
0.0
  9
$PUCSORGLEFT
 10
0.0
 20
0.0
 30
0.0
  9
$PUCSORGRIGHT
 10
0.0
 20
0.0
 30
0.0
  9
$PUCSORGFRONT
 10
0.0
 20
0.0
 30
0.0
  9
$PUCSORGBACK
 10
0.0
 20
0.0
 30
0.0
  9
$USERI1
 70
     0
  9
$USERI2
 70
     0
  9
$USERI3
 70
     0
  9
$USERI4
 70
     0
  9
$USERI5
 70
     0
  9
$USERR1
 40
0.0
  9
$USERR2
 40
0.0
  9
$USERR3
 40
0.0
  9
$USERR4
 40
0.0
  9
$USERR5
 40
0.0
  9
$WORLDVIEW
 70
     1
  9
$SHADEDGE
 70
     3
  9
$SHADEDIF
 70
    70
  9
$TILEMODE
 70
     1
  9
$MAXACTVP
 70
    64
  9
$PINSBASE
 10
0.0
 20
0.0
 30
0.0
  9
$PLIMCHECK
 70
     0
  9
$PEXTMIN
 10
1.000000000000000E+20
 20
1.000000000000000E+20
 30
1.000000000000000E+20
  9
$PEXTMAX
 10
-1.000000000000000E+20
 20
-1.000000000000000E+20
 30
-1.000000000000000E+20
  9
$PLIMMIN
 10
0.0
 20
0.0
  9
$PLIMMAX
 10
12.0
 20
9.0
  9
$UNITMODE
 70
     0
  9
$VISRETAIN
 70
     1
  9
$PLINEGEN
 70
     0
  9
$PSLTSCALE
 70
     1
  9
$TREEDEPTH
 70
  3020
  9
$CMLSTYLE
  2
Standard
  9
$CMLJUST
 70
     0
  9
$CMLSCALE
 40
1.0
  9
$PROXYGRAPHICS
 70
     1
  9
$MEASUREMENT
 70
     0
  9
$CELWEIGHT
370
    -1
  9
$ENDCAPS
280
     0
  9
$JOINSTYLE
280
     0
  9
$LWDISPLAY
290
     0
  9
$INSUNITS
 70
     1
  9
$HYPERLINKBASE
  1

  9
$STYLESHEET
  1

  9
$XEDIT
290
     1
  9
$CEPSNTYPE
380
     0
  9
$PSTYLEMODE
290
     1
  9
$FINGERPRINTGUID
  2
{EC68BE3A-3147-4A5B-AE38-20E2D0E3D53F}
  9
$VERSIONGUID
  2
{60142AB7-C274-4C23-AB0C-01B1AB5C3792}
  9
$EXTNAMES
290
     1
  9
$PSVPSCALE
 40
0.0
  9
$OLESTARTUP
290
     0
  0
ENDSEC
  0
SECTION
  2
CLASSES
  0
CLASS
  1
ACDBDICTIONARYWDFLT
  2
AcDbDictionaryWithDefault
  3
AutoCAD 2000
 90
        0
280
     0
281
     0
  0
CLASS
  1
ACDBPLACEHOLDER
  2
AcDbPlaceHolder
  3
ObjectDBX Classes
 90
        0
280
     0
281
     0
  0
CLASS
  1
LAYOUT
  2
AcDbLayout
  3
ObjectDBX Classes
 90
        0
280
     0
281
     0
  0
CLASS
  1
DICTIONARYVAR
  2
AcDbDictionaryVar
  3
AutoCAD 2000
 90
        0
280
     0
281
     0
  0
CLASS
  1
TABLESTYLE
  2
AcDbTableStyle
  3
ObjectDBX Classes
 90
     2047
280
     1
281
     0
  0
ENDSEC
  0
SECTION
  2
TABLES
  0
TABLE
  2
VPORT
  5
8
330
0
100
AcDbSymbolTable
 70
     4
  0
VPORT
  5
A92
330
8
100
AcDbSymbolTableRecord
100
AcDbViewportTableRecord
  2
*Active
 70
     0
 10
0.0
 20
0.0
 11
1.0
 21
1.0
 12
13.07012745156207
 22
9.667906985414732
 13
0.0
 23
0.0
 14
0.5
 24
0.5
 15
0.5
 25
0.5
 16
0.0
 26
0.0
 36
1.0
 17
0.0
 27
0.0
 37
0.0
 40
25.80080490698022
 41
1.814583333333333
 42
50.0
 43
0.0
 44
0.0
 50
0.0
 51
0.0
 71
     0
 72
   100
 73
     1
 74
     3
 75
     0
 76
     0
 77
     0
 78
     0
281
     0
 65
     1
110
0.0
120
0.0
130
0.0
111
1.0
121
0.0
131
0.0
112
0.0
122
1.0
132
0.0
 79
     0
146
0.0
  0
ENDTAB
  0
TABLE
  2
LTYPE
  5
5
330
0
100
AcDbSymbolTable
 70
     2
  0
LTYPE
  5
14
330
5
100
AcDbSymbolTableRecord
100
AcDbLinetypeTableRecord
  2
ByBlock
 70
     0
  3

 72
    65
 73
     0
 40
0.0
  0
LTYPE
  5
15
330
5
100
AcDbSymbolTableRecord
100
AcDbLinetypeTableRecord
  2
ByLayer
 70
     0
  3

 72
    65
 73
     0
 40
0.0
  0
LTYPE
  5
16
330
5
100
AcDbSymbolTableRecord
100
AcDbLinetypeTableRecord
  2
Continuous
 70
     0
  3
Solid line
 72
    65
 73
     0
 40
0.0
  0
LTYPE
  5
1C2
330
5
100
AcDbSymbolTableRecord
100
AcDbLinetypeTableRecord
  2
HIDDEN
 70
     0
  3
_ _ _ _ _ _ _ _ _ _ _ _ _ _ _ _ _ _ _ _ _ _ _
 72
    65
 73
     2
 40
0.375
 49
0.25
 74
     0
 49
-0.125
 74
     0
  0
ENDTAB
  0
TABLE
  2
LAYER
  5
2
330
0
100
AcDbSymbolTable
 70
     1
  0
LAYER
  5
10
330
2
100
AcDbSymbolTableRecord
100
AcDbLayerTableRecord
  2
0
 70
     0
 62
     7
  6
Continuous
370
    -3
390
F
  0
ENDTAB
  0
TABLE
  2
STYLE
  5
3
330
0
100
AcDbSymbolTable
 70
     1
  0
STYLE
  5
11
330
3
100
AcDbSymbolTableRecord
100
AcDbTextStyleTableRecord
  2
Standard
 70
     0
 40
0.0
 41
1.0
 50
0.0
 71
     0
 42
0.2
  3
txt
  4

  0
ENDTAB
  0
TABLE
  2
VIEW
  5
6
330
0
100
AcDbSymbolTable
 70
     0
  0
ENDTAB
  0
TABLE
  2
UCS
  5
7
330
0
100
AcDbSymbolTable
 70
     0
  0
ENDTAB
  0
TABLE
  2
APPID
  5
9
330
0
100
AcDbSymbolTable
 70
     1
  0
APPID
  5
12
330
9
100
AcDbSymbolTableRecord
100
AcDbRegAppTableRecord
  2
ACAD
 70
     0
  0
ENDTAB
  0
TABLE
  2
DIMSTYLE
  5
A
330
0
100
AcDbSymbolTable
 70
     1
100
AcDbDimStyleTable
  0
DIMSTYLE
105
27
330
A
100
AcDbSymbolTableRecord
100
AcDbDimStyleTableRecord
  2
Standard
 70
     0
  3

  4

340
11
  0
ENDTAB
  0
TABLE
  2
BLOCK_RECORD
  5
1
330
0
100
AcDbSymbolTable
 70
     1
  0
BLOCK_RECORD
  5
1F
330
1
100
AcDbSymbolTableRecord
100
AcDbBlockTableRecord
  2
*Model_Space
340
22
  0
BLOCK_RECORD
  5
1B
330
1
100
AcDbSymbolTableRecord
100
AcDbBlockTableRecord
  2
*Paper_Space
340
1E
  0
BLOCK_RECORD
  5
23
330
1
100
AcDbSymbolTableRecord
100
AcDbBlockTableRecord
  2
*Paper_Space0
340
26
  0
ENDTAB
  0
ENDSEC
  0
SECTION
  2
BLOCKS
  0
BLOCK
  5
20
330
1F
100
AcDbEntity
  8
0
100
AcDbBlockBegin
  2
*Model_Space
 70
     0
 10
0.0
 20
0.0
 30
0.0
  3
*Model_Space
  1

  4

  0
ENDBLK
  5
21
330
1F
100
AcDbEntity
  8
0
100
AcDbBlockEnd
  0
BLOCK
  5
1C
330
1B
100
AcDbEntity
 67
     1
  8
0
100
AcDbBlockBegin
  2
*Paper_Space
 70
     0
 10
0.0
 20
0.0
 30
0.0
  3
*Paper_Space
  1

  4

  0
ENDBLK
  5
1D
330
1B
100
AcDbEntity
 67
     1
  8
0
100
AcDbBlockEnd
  0
BLOCK
  5
24
330
23
100
AcDbEntity
  8
0
100
AcDbBlockBegin
  2
*Paper_Space0
 70
     0
 10
0.0
 20
0.0
 30
0.0
  3
*Paper_Space0
  1

  4

  0
ENDBLK
  5
25
330
23
100
AcDbEntity
  8
0
100
AcDbBlockEnd
  0
ENDSEC
  0
SECTION
  2
ENTITIES
  0
ARC
  5
8AA
330
1F
100
AcDbEntity
  8
0
  6
Continuous
100
AcDbCircle
 10
2.446153962863377
 20
4.843749999999879
 30
0.0
 40
0.06
100
AcDbArc
 50
301.631166275524
 51
58.36883372447601
  0
LINE
  5
8AB
330
1F
100
AcDbEntity
  8
0
  6
Continuous
100
AcDbLine
 10
3.631153962863301
 20
4.911800461042319
 30
0.0
 11
3.63115396286333
 21
4.286800461042319
 31
0.0
  0
LINE
  5
8AC
330
1F
100
AcDbEntity
  8
0
100
AcDbLine
 10
2.256153962863358
 20
0.0625000000000142
 30
0.0
 11
2.256153962863355
 21
9.093749999999996
 31
0.0
  0
LINE
  5
8AD
330
1F
100
AcDbEntity
  8
0
100
AcDbLine
 10
2.318653962863358
 20
0.0625000000000071
 30
0.0
 11
2.318653962863351
 21
9.093749999999996
 31
0.0
  0
ARC
  5
8B3
330
1F
100
AcDbEntity
  8
0
  6
Continuous
100
AcDbCircle
 10
0.4411539628633605
 20
4.843749999999883
 30
0.0
 40
0.06
100
AcDbArc
 50
121.631166275524
 51
238.368833724476
  0
LINE
  5
8B4
330
1F
100
AcDbEntity
  8
0
  6
Continuous
100
AcDbLine
 10
-0.7438460371365636
 20
4.911800461042322
 30
0.0
 11
-0.743846037136592
 21
4.286800461042322
 31
0.0
  0
LINE
  5
8B5
330
1F
100
AcDbEntity
  8
0
100
AcDbLine
 10
0.6311539628633796
 20
0.0625000000000142
 30
0.0
 11
0.631153962863376
 21
9.093749999999996
 31
0.0
  0
LINE
  5
8B6
330
1F
100
AcDbEntity
  8
0
100
AcDbLine
 10
0.5686539628633796
 20
0.0625000000000071
 30
0.0
 11
0.5686539628633724
 21
9.093749999999993
 31
0.0
  0
LINE
  5
8D6
330
1F
100
AcDbEntity
  8
0
  6
Continuous
100
AcDbLine
 10
3.338260744049912
 20
1.304878112409856
 30
0.0
 11
2.318653962863355
 21
0.2192093948484057
 31
0.0
  0
LINE
  5
8D7
330
1F
100
AcDbEntity
  8
0
  6
Continuous
100
AcDbLine
 10
-0.7438460371365565
 20
3.161800461042308
 30
0.0
 11
-0.7438460371365991
 21
2.011984893596431
 31
0.0
  0
LINE
  5
8D8
330
1F
100
AcDbEntity
  8
0
100
AcDbLine
 10
2.193653962863358
 20
-0.0624999999999929
 30
0.0
 11
0.6936539628633796
 21
-0.0624999999999929
 31
0.0
  0
LINE
  5
8D9
330
1F
100
AcDbEntity
  8
0
100
AcDbLine
 10
2.193653962863358
 20
0.0000000000000142
 30
0.0
 11
0.6936539628633796
 21
0.0000000000000142
 31
0.0
  0
CIRCLE
  5
8DA
330
1F
100
AcDbEntity
  8
0
  6
Continuous
100
AcDbCircle
 10
0.1311539628633938
 20
1.079124999999859
 30
0.0
 40
0.0855
  0
LINE
  5
8DB
330
1F
100
AcDbEntity
  8
0
  6
Continuous
100
AcDbLine
 10
-0.4509528183231595
 20
1.304878112409853
 30
0.0
 11
0.5686539628633831
 21
0.2192093948484057
 31
0.0
  0
ARC
  5
8DC
330
1F
100
AcDbEntity
  8
0
100
AcDbCircle
 10
0.6936539628633796
 20
0.0625000000000071
 30
0.0
 40
0.125
100
AcDbArc
 50
180.0
 51
269.9999999999999
  0
ARC
  5
8DD
330
1F
100
AcDbEntity
  8
0
100
AcDbCircle
 10
0.6936539628633796
 20
0.0625000000000142
 30
0.0
 40
0.0625
100
AcDbArc
 50
180.0
 51
269.9999999999998
  0
CIRCLE
  5
8DE
330
1F
100
AcDbEntity
  8
0
  6
Continuous
100
AcDbCircle
 10
-0.3375960371366062
 20
1.579124999999859
 30
0.0
 40
0.0855
  0
ARC
  5
8DF
330
1F
100
AcDbEntity
  8
0
  6
Continuous
100
AcDbCircle
 10
0.2561539628634009
 20
2.011984893596388
 30
0.0
 40
1.0
100
AcDbArc
 50
179.9999999999976
 51
224.9999999999991
  0
CIRCLE
  5
8E0
330
1F
100
AcDbEntity
  8
0
  6
Continuous
100
AcDbCircle
 10
0.1311539628633938
 20
2.079124999999859
 30
0.0
 40
0.0855
  0
CIRCLE
  5
8E1
330
1F
100
AcDbEntity
  8
0
  6
Continuous
100
AcDbCircle
 10
2.756153962863344
 20
1.079124999999856
 30
0.0
 40
0.0855
  0
ARC
  5
8E2
330
1F
100
AcDbEntity
  8
0
100
AcDbCircle
 10
2.193653962863358
 20
0.0625000000000142
 30
0.0
 40
0.0625
100
AcDbArc
 50
270.0000000000002
 51
0.0
  0
ARC
  5
8E3
330
1F
100
AcDbEntity
  8
0
100
AcDbCircle
 10
2.193653962863358
 20
0.0625000000000071
 30
0.0
 40
0.125
100
AcDbArc
 50
270.0000000000001
 51
0.0
  0
CIRCLE
  5
8E4
330
1F
100
AcDbEntity
  8
0
  6
Continuous
100
AcDbCircle
 10
2.756153962863344
 20
2.079124999999856
 30
0.0
 40
0.0855
  0
LINE
  5
8E5
330
1F
100
AcDbEntity
  8
0
  6
Continuous
100
AcDbLine
 10
-1.056346037136564
 20
4.036800461042322
 30
0.0
 11
-1.056346037136592
 21
3.411800461042336
 31
0.0
  0
CIRCLE
  5
8E6
330
1F
100
AcDbEntity
  8
0
  6
Continuous
100
AcDbCircle
 10
-0.3375960371366062
 20
3.579124999999859
 30
0.0
 40
0.0855
  0
CIRCLE
  5
8E7
330
1F
100
AcDbEntity
  8
0
  6
Continuous
100
AcDbCircle
 10
-0.3375960371366062
 20
2.579124999999859
 30
0.0
 40
0.0855
  0
ARC
  5
8E8
330
1F
100
AcDbEntity
  8
0
  6
Continuous
100
AcDbCircle
 10
-0.8688460371365707
 20
3.161800461042315
 30
0.0
 40
0.1250000000000142
100
AcDbArc
 50
0.0
 51
90.00000000000978
  0
LINE
  5
8E9
330
1F
100
AcDbEntity
  8
0
  6
Continuous
100
AcDbLine
 10
-0.9313460371365636
 20
3.286800461042322
 30
0.0
 11
-0.868846037136592
 21
3.286800461042322
 31
0.0
  0
ARC
  5
8EA
330
1F
100
AcDbEntity
  8
0
  6
Continuous
100
AcDbCircle
 10
-0.9313460371365778
 20
3.411800461042343
 30
0.0
 40
0.1250000000000142
100
AcDbArc
 50
180.0
 51
270.0000000000065
  0
ARC
  5
8EB
330
1F
100
AcDbEntity
  8
0
  6
Continuous
100
AcDbCircle
 10
0.6311539628633938
 20
2.579124999999859
 30
0.0
 40
0.1875
100
AcDbArc
 50
109.4712206344954
 51
250.5287793655046
  0
CIRCLE
  5
8EC
330
1F
100
AcDbEntity
  8
0
  6
Continuous
100
AcDbCircle
 10
0.1311539628633938
 20
3.079124999999859
 30
0.0
 40
0.0855
  0
ARC
  5
8ED
330
1F
100
AcDbEntity
  8
0
  6
Continuous
100
AcDbCircle
 10
0.4411539628633605
 20
3.343749999999883
 30
0.0
 40
0.06
100
AcDbArc
 50
121.631166275524
 51
238.368833724476
  0
LINE
  5
8EE
330
1F
100
AcDbEntity
  8
0
  6
Continuous
100
AcDbLine
 10
0.568653962863376
 20
3.49275286352875
 30
0.0
 11
0.4096870151350629
 21
3.394836507031233
 31
0.0
  0
LINE
  5
8EF
330
1F
100
AcDbEntity
  8
0
  6
Continuous
100
AcDbLine
 10
0.568653962863376
 20
3.194747136471001
 30
0.0
 11
0.4096870151350629
 21
3.292663492968533
 31
0.0
  0
CIRCLE
  5
8F0
330
1F
100
AcDbEntity
  8
0
  6
Continuous
100
AcDbCircle
 10
-0.3375960371366062
 20
4.579124999999859
 30
0.0
 40
0.0855
  0
ARC
  5
8F1
330
1F
100
AcDbEntity
  8
0
  6
Continuous
100
AcDbCircle
 10
-0.8688460371365778
 20
4.286800461042315
 30
0.0
 40
0.1249999999999858
100
AcDbArc
 50
270.0000000000065
 51
0.0000000000065138
  0
CIRCLE
  5
8F2
330
1F
100
AcDbEntity
  8
0
  6
Continuous
100
AcDbCircle
 10
-0.7750960371366134
 20
3.87499999999994
 30
0.0
 40
0.0855
  0
LINE
  5
8F3
330
1F
100
AcDbEntity
  8
0
  6
Continuous
100
AcDbLine
 10
-0.8688460371365636
 20
4.161800461042322
 30
0.0
 11
-0.931346037136592
 21
4.161800461042322
 31
0.0
  0
ARC
  5
8F4
330
1F
100
AcDbEntity
  8
0
  6
Continuous
100
AcDbCircle
 10
-0.9313460371365778
 20
4.036800461042343
 30
0.0
 40
0.1249999999999858
100
AcDbArc
 50
90.00000000000651
 51
180.0000000000065
  0
CIRCLE
  5
8F5
330
1F
100
AcDbEntity
  8
0
  6
Continuous
100
AcDbCircle
 10
0.1311539628633938
 20
4.078124999999883
 30
0.0
 40
0.0855
  0
LINE
  5
8F6
330
1F
100
AcDbEntity
  8
0
  6
Continuous
100
AcDbLine
 10
0.568653962863376
 20
4.694747136470998
 30
0.0
 11
0.4096870151350629
 21
4.792663492968533
 31
0.0
  0
ARC
  5
8F7
330
1F
100
AcDbEntity
  8
0
  6
Continuous
100
AcDbCircle
 10
2.256153962863344
 20
2.579124999999856
 30
0.0
 40
0.1875
100
AcDbArc
 50
289.4712206344954
 51
70.52877936550463
  0
ARC
  5
8F8
330
1F
100
AcDbEntity
  8
0
  6
Continuous
100
AcDbCircle
 10
2.446153962863377
 20
3.343749999999879
 30
0.0
 40
0.06
100
AcDbArc
 50
301.631166275524
 51
58.36883372447601
  0
LINE
  5
8F9
330
1F
100
AcDbEntity
  8
0
  6
Continuous
100
AcDbLine
 10
2.318653962863362
 20
3.492752863528747
 30
0.0
 11
2.477620910591675
 21
3.394836507031229
 31
0.0
  0
LINE
  5
8FA
330
1F
100
AcDbEntity
  8
0
  6
Continuous
100
AcDbLine
 10
2.318653962863362
 20
3.194747136470998
 30
0.0
 11
2.477620910591675
 21
3.292663492968529
 31
0.0
  0
CIRCLE
  5
8FB
330
1F
100
AcDbEntity
  8
0
  6
Continuous
100
AcDbCircle
 10
2.756153962863344
 20
3.079124999999856
 30
0.0
 40
0.0855
  0
CIRCLE
  5
8FC
330
1F
100
AcDbEntity
  8
0
  6
Continuous
100
AcDbCircle
 10
2.756153962863344
 20
4.078124999999879
 30
0.0
 40
0.0855
  0
LINE
  5
8FD
330
1F
100
AcDbEntity
  8
0
  6
Continuous
100
AcDbLine
 10
2.318653962863362
 20
4.694747136470998
 30
0.0
 11
2.477620910591675
 21
4.792663492968529
 31
0.0
  0
LINE
  5
8FE
330
1F
100
AcDbEntity
  8
0
  6
Continuous
100
AcDbLine
 10
3.631153962863294
 20
3.161800461042304
 30
0.0
 11
3.631153962863337
 21
2.011984893596431
 31
0.0
  0
ARC
  5
8FF
330
1F
100
AcDbEntity
  8
0
  6
Continuous
100
AcDbCircle
 10
2.631153962863351
 20
2.011984893596395
 30
0.0
 40
1.0
100
AcDbArc
 50
315.0000000000009
 51
0.0000000000024427
  0
CIRCLE
  5
900
330
1F
100
AcDbEntity
  8
0
  6
Continuous
100
AcDbCircle
 10
3.224903962863344
 20
1.579124999999856
 30
0.0
 40
0.0855
  0
CIRCLE
  5
901
330
1F
100
AcDbEntity
  8
0
  6
Continuous
100
AcDbCircle
 10
3.224903962863344
 20
3.579124999999856
 30
0.0
 40
0.0855
  0
LINE
  5
902
330
1F
100
AcDbEntity
  8
0
  6
Continuous
100
AcDbLine
 10
3.943653962863301
 20
4.036800461042319
 30
0.0
 11
3.94365396286333
 21
3.411800461042333
 31
0.0
  0
CIRCLE
  5
903
330
1F
100
AcDbEntity
  8
0
  6
Continuous
100
AcDbCircle
 10
3.224903962863344
 20
2.579124999999856
 30
0.0
 40
0.0855
  0
ARC
  5
904
330
1F
100
AcDbEntity
  8
0
  6
Continuous
100
AcDbCircle
 10
3.756153962863309
 20
3.161800461042311
 30
0.0
 40
0.1250000000000142
100
AcDbArc
 50
89.99999999999022
 51
180.0
  0
LINE
  5
905
330
1F
100
AcDbEntity
  8
0
  6
Continuous
100
AcDbLine
 10
3.818653962863301
 20
3.286800461042319
 30
0.0
 11
3.75615396286333
 21
3.286800461042319
 31
0.0
  0
ARC
  5
906
330
1F
100
AcDbEntity
  8
0
  6
Continuous
100
AcDbCircle
 10
3.818653962863316
 20
3.41180046104234
 30
0.0
 40
0.1250000000000142
100
AcDbArc
 50
269.9999999999935
 51
0.0
  0
ARC
  5
907
330
1F
100
AcDbEntity
  8
0
  6
Continuous
100
AcDbCircle
 10
3.756153962863316
 20
4.286800461042311
 30
0.0
 40
0.1249999999999858
100
AcDbArc
 50
179.9999999999935
 51
269.9999999999935
  0
CIRCLE
  5
908
330
1F
100
AcDbEntity
  8
0
  6
Continuous
100
AcDbCircle
 10
3.662403962863351
 20
3.874999999999936
 30
0.0
 40
0.0855
  0
LINE
  5
909
330
1F
100
AcDbEntity
  8
0
  6
Continuous
100
AcDbLine
 10
3.756153962863301
 20
4.161800461042319
 30
0.0
 11
3.81865396286333
 21
4.161800461042319
 31
0.0
  0
ARC
  5
90A
330
1F
100
AcDbEntity
  8
0
  6
Continuous
100
AcDbCircle
 10
3.818653962863316
 20
4.03680046104234
 30
0.0
 40
0.1249999999999858
100
AcDbArc
 50
359.9999999999934
 51
89.99999999999349
  0
CIRCLE
  5
90B
330
1F
100
AcDbEntity
  8
0
  6
Continuous
100
AcDbCircle
 10
3.224903962863344
 20
4.579124999999856
 30
0.0
 40
0.0855
  0
LINE
  5
937
330
1F
100
AcDbEntity
  8
0
  6
Continuous
100
AcDbLine
 10
3.943653962863365
 20
9.093749999999989
 30
0.0
 11
2.256153962863372
 21
9.093749999999996
 31
0.0
  0
LINE
  5
938
330
1F
100
AcDbEntity
  8
0
100
AcDbLine
 10
-1.056346037136589
 20
7.786800461042379
 30
0.0
 11
-1.056346037136621
 21
6.911800461042393
 31
0.0
  0
LINE
  5
939
330
1F
100
AcDbEntity
  8
0
100
AcDbLine
 10
-0.7438460371365991
 20
6.661800461042365
 30
0.0
 11
-0.7438460371366205
 21
6.036800461042379
 31
0.0
  0
LINE
  5
93A
330
1F
100
AcDbEntity
  8
0
  6
Continuous
100
AcDbLine
 10
-1.056346037136592
 20
5.786800461042436
 30
0.0
 11
-1.056346037136592
 21
5.161800461042322
 31
0.0
  0
ARC
  5
93B
330
1F
100
AcDbEntity
  8
0
  6
Continuous
100
AcDbCircle
 10
-0.8688460371365778
 20
4.911800461042315
 30
0.0
 40
0.1250000000000142
100
AcDbArc
 50
0.0000000000065138
 51
90.00000000000651
  0
LINE
  5
93C
330
1F
100
AcDbEntity
  8
0
  6
Continuous
100
AcDbLine
 10
-0.9313460371365636
 20
5.036800461042322
 30
0.0
 11
-0.868846037136592
 21
5.036800461042322
 31
0.0
  0
ARC
  5
93D
330
1F
100
AcDbEntity
  8
0
  6
Continuous
100
AcDbCircle
 10
-0.9313460371365778
 20
5.161800461042343
 30
0.0
 40
0.1250000000000142
100
AcDbArc
 50
180.0000000000065
 51
270.0000000000065
  0
ARC
  5
93E
330
1F
100
AcDbEntity
  8
0
100
AcDbCircle
 10
-0.8688460371365778
 20
6.036800461042393
 30
0.0
 40
0.1249999999999574
100
AcDbArc
 50
269.9999999999935
 51
359.9999999999935
  0
CIRCLE
  5
93F
330
1F
100
AcDbEntity
  8
0
100
AcDbCircle
 10
-0.7750960371366134
 20
5.624999999999876
 30
0.0
 40
0.0855
  0
LINE
  5
940
330
1F
100
AcDbEntity
  8
0
100
AcDbLine
 10
-0.868846037136592
 20
5.911800461042436
 30
0.0
 11
-0.9313460371366205
 21
5.911800461042379
 31
0.0
  0
ARC
  5
941
330
1F
100
AcDbEntity
  8
0
100
AcDbCircle
 10
-0.9313460371366347
 20
5.786800461042422
 30
0.0
 40
0.1249999999999574
100
AcDbArc
 50
89.99999999999349
 51
179.9999999999935
  0
CIRCLE
  5
942
330
1F
100
AcDbEntity
  8
0
  6
Continuous
100
AcDbCircle
 10
0.1311539628633938
 20
5.078124999999883
 30
0.0
 40
0.0855
  0
LINE
  5
943
330
1F
100
AcDbEntity
  8
0
  6
Continuous
100
AcDbLine
 10
0.568653962863376
 20
4.992752863528747
 30
0.0
 11
0.4096870151350629
 21
4.894836507031233
 31
0.0
  0
CIRCLE
  5
944
330
1F
100
AcDbEntity
  8
0
100
AcDbCircle
 10
-0.3375960371365991
 20
6.297874999999852
 30
0.0
 40
0.0855
  0
ARC
  5
945
330
1F
100
AcDbEntity
  8
0
100
AcDbCircle
 10
-0.8688460371366134
 20
6.661800461042365
 30
0.0
 40
0.1250000000000107
100
AcDbArc
 50
359.9999999999984
 51
90.00000000000325
  0
LINE
  5
946
330
1F
100
AcDbEntity
  8
0
100
AcDbLine
 10
-0.931346037136592
 20
6.786800461042379
 30
0.0
 11
-0.8688460371366205
 21
6.786800461042379
 31
0.0
  0
ARC
  5
947
330
1F
100
AcDbEntity
  8
0
100
AcDbCircle
 10
-0.9313460371366062
 20
6.911800461042393
 30
0.0
 40
0.1250000000000142
100
AcDbArc
 50
180.0
 51
270.0000000000065
  0
CIRCLE
  5
948
330
1F
100
AcDbEntity
  8
0
100
AcDbCircle
 10
0.1311539628634009
 20
6.796874999999876
 30
0.0
 40
0.0855
  0
ARC
  5
949
330
1F
100
AcDbEntity
  8
0
  6
Continuous
100
AcDbCircle
 10
0.4411539628633605
 20
6.437499999999883
 30
0.0
 40
0.06
100
AcDbArc
 50
121.631166275524
 51
238.368833724476
  0
LINE
  5
94A
330
1F
100
AcDbEntity
  8
0
  6
Continuous
100
AcDbLine
 10
0.568653962863376
 20
6.288497136470998
 30
0.0
 11
0.4096870151350629
 21
6.386413492968533
 31
0.0
  0
LINE
  5
94B
330
1F
100
AcDbEntity
  8
0
  6
Continuous
100
AcDbLine
 10
0.568653962863376
 20
6.586502863528747
 30
0.0
 11
0.4096870151350629
 21
6.488586507031233
 31
0.0
  0
LINE
  5
94C
330
1F
100
AcDbEntity
  8
0
  6
Continuous
100
AcDbLine
 10
2.318653962863362
 20
4.992752863528747
 30
0.0
 11
2.477620910591675
 21
4.894836507031229
 31
0.0
  0
CIRCLE
  5
94D
330
1F
100
AcDbEntity
  8
0
  6
Continuous
100
AcDbCircle
 10
2.756153962863344
 20
5.078124999999879
 30
0.0
 40
0.0855
  0
CIRCLE
  5
94E
330
1F
100
AcDbEntity
  8
0
100
AcDbCircle
 10
2.756153962863337
 20
6.796874999999876
 30
0.0
 40
0.0855
  0
ARC
  5
94F
330
1F
100
AcDbEntity
  8
0
  6
Continuous
100
AcDbCircle
 10
2.446153962863377
 20
6.437499999999883
 30
0.0
 40
0.06
100
AcDbArc
 50
301.631166275524
 51
58.36883372447601
  0
LINE
  5
950
330
1F
100
AcDbEntity
  8
0
  6
Continuous
100
AcDbLine
 10
2.318653962863362
 20
6.586502863528747
 30
0.0
 11
2.477620910591675
 21
6.488586507031233
 31
0.0
  0
LINE
  5
951
330
1F
100
AcDbEntity
  8
0
  6
Continuous
100
AcDbLine
 10
2.318653962863362
 20
6.288497136470998
 30
0.0
 11
2.477620910591675
 21
6.386413492968533
 31
0.0
  0
LINE
  5
952
330
1F
100
AcDbEntity
  8
0
  6
Continuous
100
AcDbLine
 10
-0.743846037136592
 20
8.661800461042478
 30
0.0
 11
-0.7438460371366205
 21
8.036800461042379
 31
0.0
  0
CIRCLE
  5
953
330
1F
100
AcDbEntity
  8
0
  6
Continuous
100
AcDbCircle
 10
-0.3375960371365956
 20
8.297874999999966
 30
0.0
 40
0.0855
  0
ARC
  5
954
330
1F
100
AcDbEntity
  8
0
  6
Continuous
100
AcDbCircle
 10
-0.8688460371366027
 20
8.036800461042365
 30
0.0
 40
0.1249999999999858
100
AcDbArc
 50
270.0000000000065
 51
0.0000000000065138
  0
CIRCLE
  5
955
330
1F
100
AcDbEntity
  8
0
  6
Continuous
100
AcDbCircle
 10
-0.7750960371366098
 20
7.624999999999989
 30
0.0
 40
0.0855
  0
ARC
  5
956
330
1F
100
AcDbEntity
  8
0
  6
Continuous
100
AcDbCircle
 10
-0.9313460371366027
 20
7.786800461042393
 30
0.0
 40
0.1249999999999858
100
AcDbArc
 50
90.00000000000651
 51
180.0000000000065
  0
LINE
  5
957
330
1F
100
AcDbEntity
  8
0
  6
Continuous
100
AcDbLine
 10
-0.868846037136592
 20
7.911800461042379
 30
0.0
 11
-0.9313460371366205
 21
7.911800461042379
 31
0.0
  0
LINE
  5
958
330
1F
100
AcDbEntity
  8
0
  6
Continuous
100
AcDbLine
 10
0.5686539628633724
 20
8.210372136471126
 30
0.0
 11
0.40968701513507
 21
8.308288492968647
 31
0.0
  0
ARC
  5
959
330
1F
100
AcDbEntity
  8
0
  6
Continuous
100
AcDbCircle
 10
0.4411539628633712
 20
8.359374999999989
 30
0.0
 40
0.06
100
AcDbArc
 50
121.631166275524
 51
238.368833724476
  0
LINE
  5
95A
330
1F
100
AcDbEntity
  8
0
  6
Continuous
100
AcDbLine
 10
0.5686539628633724
 20
8.508377863528864
 30
0.0
 11
0.40968701513507
 21
8.410461507031346
 31
0.0
  0
LINE
  5
95B
330
1F
100
AcDbEntity
  8
0
  6
Continuous
100
AcDbLine
 10
-1.056346037136628
 20
9.093749999999989
 30
0.0
 11
0.6311539628633653
 21
9.093749999999996
 31
0.0
  0
ARC
  5
95C
330
1F
100
AcDbEntity
  8
0
  6
Continuous
100
AcDbCircle
 10
-0.8688460371366098
 20
8.661800461042471
 30
0.0
 40
0.1250000000000178
100
AcDbArc
 50
0.0000000000016284
 51
90.00000000000651
  0
LINE
  5
95D
330
1F
100
AcDbEntity
  8
0
  6
Continuous
100
AcDbLine
 10
-0.9313460371365991
 20
8.786800461042493
 30
0.0
 11
-0.8688460371366276
 21
8.786800461042493
 31
0.0
  0
ARC
  5
95E
330
1F
100
AcDbEntity
  8
0
  6
Continuous
100
AcDbCircle
 10
-0.9313460371366098
 20
8.911800461042507
 30
0.0
 40
0.1250000000000142
100
AcDbArc
 50
180.0
 51
270.0000000000065
  0
LINE
  5
95F
330
1F
100
AcDbEntity
  8
0
  6
Continuous
100
AcDbLine
 10
-1.056346037136628
 20
9.093749999999989
 30
0.0
 11
-1.056346037136628
 21
8.911800461042507
 31
0.0
  0
CIRCLE
  5
960
330
1F
100
AcDbEntity
  8
0
  6
Continuous
100
AcDbCircle
 10
0.1311539628634044
 20
8.796874999999989
 30
0.0
 40
0.0855
  0
ARC
  5
961
330
1F
100
AcDbEntity
  8
0
  6
Continuous
100
AcDbCircle
 10
2.446153962863367
 20
8.359374999999989
 30
0.0
 40
0.06
100
AcDbArc
 50
301.631166275524
 51
58.36883372447601
  0
LINE
  5
962
330
1F
100
AcDbEntity
  8
0
  6
Continuous
100
AcDbLine
 10
2.318653962863365
 20
8.508377863528864
 30
0.0
 11
2.477620910591668
 21
8.410461507031346
 31
0.0
  0
LINE
  5
963
330
1F
100
AcDbEntity
  8
0
  6
Continuous
100
AcDbLine
 10
2.318653962863365
 20
8.210372136471126
 30
0.0
 11
2.477620910591668
 21
8.308288492968647
 31
0.0
  0
CIRCLE
  5
964
330
1F
100
AcDbEntity
  8
0
  6
Continuous
100
AcDbCircle
 10
2.756153962863333
 20
8.796874999999989
 30
0.0
 40
0.0855
  0
LINE
  5
971
330
1F
100
AcDbEntity
  8
0
100
AcDbLine
 10
3.943653962863326
 20
7.786800461042379
 30
0.0
 11
3.943653962863358
 21
6.911800461042393
 31
0.0
  0
LINE
  5
972
330
1F
100
AcDbEntity
  8
0
100
AcDbLine
 10
3.631153962863337
 20
6.661800461042365
 30
0.0
 11
3.631153962863358
 21
6.036800461042379
 31
0.0
  0
LINE
  5
973
330
1F
100
AcDbEntity
  8
0
  6
Continuous
100
AcDbLine
 10
3.94365396286333
 20
5.786800461042436
 30
0.0
 11
3.94365396286333
 21
5.161800461042319
 31
0.0
  0
ARC
  5
974
330
1F
100
AcDbEntity
  8
0
  6
Continuous
100
AcDbCircle
 10
3.756153962863316
 20
4.911800461042311
 30
0.0
 40
0.1250000000000142
100
AcDbArc
 50
89.99999999999349
 51
179.9999999999935
  0
LINE
  5
975
330
1F
100
AcDbEntity
  8
0
  6
Continuous
100
AcDbLine
 10
3.818653962863301
 20
5.036800461042319
 30
0.0
 11
3.75615396286333
 21
5.036800461042319
 31
0.0
  0
ARC
  5
976
330
1F
100
AcDbEntity
  8
0
  6
Continuous
100
AcDbCircle
 10
3.818653962863316
 20
5.16180046104234
 30
0.0
 40
0.1250000000000142
100
AcDbArc
 50
269.9999999999935
 51
359.9999999999934
  0
ARC
  5
977
330
1F
100
AcDbEntity
  8
0
100
AcDbCircle
 10
3.756153962863316
 20
6.036800461042393
 30
0.0
 40
0.1249999999999574
100
AcDbArc
 50
180.0000000000065
 51
270.0000000000065
  0
CIRCLE
  5
978
330
1F
100
AcDbEntity
  8
0
100
AcDbCircle
 10
3.662403962863351
 20
5.624999999999876
 30
0.0
 40
0.0855
  0
LINE
  5
979
330
1F
100
AcDbEntity
  8
0
100
AcDbLine
 10
3.75615396286333
 20
5.911800461042436
 30
0.0
 11
3.818653962863358
 21
5.911800461042379
 31
0.0
  0
ARC
  5
97A
330
1F
100
AcDbEntity
  8
0
100
AcDbCircle
 10
3.818653962863372
 20
5.786800461042422
 30
0.0
 40
0.1249999999999574
100
AcDbArc
 50
0.0000000000065138
 51
90.00000000000651
  0
ARC
  5
97B
330
1F
100
AcDbEntity
  8
0
100
AcDbCircle
 10
3.756153962863351
 20
6.661800461042365
 30
0.0
 40
0.1250000000000107
100
AcDbArc
 50
89.99999999999675
 51
180.0000000000016
  0
CIRCLE
  5
97C
330
1F
100
AcDbEntity
  8
0
100
AcDbCircle
 10
3.224903962863337
 20
6.297874999999852
 30
0.0
 40
0.0855
  0
LINE
  5
97D
330
1F
100
AcDbEntity
  8
0
100
AcDbLine
 10
3.81865396286333
 20
6.786800461042379
 30
0.0
 11
3.756153962863358
 21
6.786800461042379
 31
0.0
  0
ARC
  5
97E
330
1F
100
AcDbEntity
  8
0
100
AcDbCircle
 10
3.818653962863344
 20
6.911800461042393
 30
0.0
 40
0.1250000000000142
100
AcDbArc
 50
269.9999999999935
 51
0.0
  0
LINE
  5
97F
330
1F
100
AcDbEntity
  8
0
  6
Continuous
100
AcDbLine
 10
3.63115396286333
 20
8.661800461042478
 30
0.0
 11
3.631153962863358
 21
8.036800461042379
 31
0.0
  0
ARC
  5
980
330
1F
100
AcDbEntity
  8
0
  6
Continuous
100
AcDbCircle
 10
3.756153962863341
 20
8.036800461042365
 30
0.0
 40
0.1249999999999858
100
AcDbArc
 50
179.9999999999935
 51
269.9999999999935
  0
CIRCLE
  5
981
330
1F
100
AcDbEntity
  8
0
  6
Continuous
100
AcDbCircle
 10
3.662403962863348
 20
7.624999999999989
 30
0.0
 40
0.0855
  0
LINE
  5
982
330
1F
100
AcDbEntity
  8
0
  6
Continuous
100
AcDbLine
 10
3.75615396286333
 20
7.911800461042379
 30
0.0
 11
3.818653962863358
 21
7.911800461042379
 31
0.0
  0
ARC
  5
983
330
1F
100
AcDbEntity
  8
0
  6
Continuous
100
AcDbCircle
 10
3.818653962863341
 20
7.786800461042393
 30
0.0
 40
0.1249999999999858
100
AcDbArc
 50
359.9999999999934
 51
89.99999999999349
  0
CIRCLE
  5
984
330
1F
100
AcDbEntity
  8
0
  6
Continuous
100
AcDbCircle
 10
3.224903962863333
 20
8.297874999999966
 30
0.0
 40
0.0855
  0
ARC
  5
985
330
1F
100
AcDbEntity
  8
0
  6
Continuous
100
AcDbCircle
 10
3.756153962863348
 20
8.661800461042471
 30
0.0
 40
0.1250000000000178
100
AcDbArc
 50
89.99999999999349
 51
179.9999999999984
  0
LINE
  5
986
330
1F
100
AcDbEntity
  8
0
  6
Continuous
100
AcDbLine
 10
3.943653962863365
 20
9.093749999999989
 30
0.0
 11
3.943653962863365
 21
8.911800461042507
 31
0.0
  0
LINE
  5
987
330
1F
100
AcDbEntity
  8
0
  6
Continuous
100
AcDbLine
 10
3.818653962863337
 20
8.786800461042493
 30
0.0
 11
3.756153962863365
 21
8.786800461042493
 31
0.0
  0
ARC
  5
988
330
1F
100
AcDbEntity
  8
0
  6
Continuous
100
AcDbCircle
 10
3.818653962863348
 20
8.911800461042507
 30
0.0
 40
0.1250000000000142
100
AcDbArc
 50
269.9999999999935
 51
0.0
  0
ENDSEC
  0
SECTION
  2
OBJECTS
  0
DICTIONARY
  5
C
330
0
100
AcDbDictionary
281
     1
  3
ACAD_COLOR
350
A79
  3
ACAD_GROUP
350
D
  3
ACAD_LAYOUT
350
1A
  3
ACAD_MATERIAL
350
A78
  3
ACAD_MLINESTYLE
350
17
  3
ACAD_PLOTSETTINGS
350
19
  3
ACAD_PLOTSTYLENAME
350
E
  3
ACAD_TABLESTYLE
350
A7A
  3
ACDBHEADERROUNDTRIPXREC
350
A9C
  3
AcDbVariableDictionary
350
1BF
  0
DICTIONARY
  5
A79
102
{ACAD_REACTORS
330
C
102
}
330
C
100
AcDbDictionary
281
     1
  0
DICTIONARY
  5
D
102
{ACAD_REACTORS
330
C
102
}
330
C
100
AcDbDictionary
281
     1
  0
DICTIONARY
  5
1A
102
{ACAD_REACTORS
330
C
102
}
330
C
100
AcDbDictionary
281
     1
  3
Layout1
350
1E
  3
Layout2
350
26
  3
Model
350
22
  0
DICTIONARY
  5
A78
102
{ACAD_REACTORS
330
C
102
}
330
C
100
AcDbDictionary
281
     1
  0
DICTIONARY
  5
17
102
{ACAD_REACTORS
330
C
102
}
330
C
100
AcDbDictionary
281
     1
  3
Standard
350
18
  0
DICTIONARY
  5
19
102
{ACAD_REACTORS
330
C
102
}
330
C
100
AcDbDictionary
281
     1
  0
ACDBDICTIONARYWDFLT
  5
E
102
{ACAD_REACTORS
330
C
102
}
330
C
100
AcDbDictionary
281
     1
  3
Normal
350
F
100
AcDbDictionaryWithDefault
340
F
  0
DICTIONARY
  5
A7A
102
{ACAD_REACTORS
330
C
102
}
330
C
100
AcDbDictionary
281
     1
  3
Standard
350
A7B
  0
DICTIONARY
  5
A9C
102
{ACAD_REACTORS
330
C
102
}
330
C
100
AcDbDictionary
281
     1
  3
COLORDICT
350
A9D
  3
MATERIALDICT
350
A9E
  0
DICTIONARY
  5
1BF
102
{ACAD_REACTORS
330
C
102
}
330
C
100
AcDbDictionary
281
     1
  3
CTABLESTYLE
350
A9A
  3
DIMASSOC
350
1C1
  3
HIDETEXT
350
1C0
  0
LAYOUT
  5
1E
102
{ACAD_REACTORS
330
1A
102
}
102
{ACAD_XDICTIONARY
360
A9F
102
}
330
1A
100
AcDbPlotSettings
  1

  2
X:\Program Files\AutoCAD2002\plotters\DWF ePlot (optimized for plotting).pc3
  4

  6

 40
0.0
 41
0.0
 42
0.0
 43
0.0
 44
0.0
 45
0.0
 46
0.0
 47
0.0
 48
0.0
 49
0.0
140
0.0
141
0.0
142
1.0
143
1.0
 70
   688
 72
     0
 73
     0
 74
     5
  7

 75
    16
147
1.0
148
0.0
149
0.0
100
AcDbLayout
  1
Layout1
 70
     1
 71
     1
 10
0.0
 20
0.0
 11
12.0
 21
9.0
 12
0.0
 22
0.0
 32
0.0
 14
1.000000000000000E+20
 24
1.000000000000000E+20
 34
1.000000000000000E+20
 15
-1.000000000000000E+20
 25
-1.000000000000000E+20
 35
-1.000000000000000E+20
146
0.0
 13
0.0
 23
0.0
 33
0.0
 16
1.0
 26
0.0
 36
0.0
 17
0.0
 27
1.0
 37
0.0
 76
     0
330
1B
  0
LAYOUT
  5
26
102
{ACAD_REACTORS
330
1A
102
}
102
{ACAD_XDICTIONARY
360
AA1
102
}
330
1A
100
AcDbPlotSettings
  1

  2
X:\Program Files\AutoCAD2002\plotters\DWF ePlot (optimized for plotting).pc3
  4

  6

 40
0.0
 41
0.0
 42
0.0
 43
0.0
 44
0.0
 45
0.0
 46
0.0
 47
0.0
 48
0.0
 49
0.0
140
0.0
141
0.0
142
1.0
143
1.0
 70
   688
 72
     0
 73
     0
 74
     5
  7

 75
    16
147
1.0
148
0.0
149
0.0
100
AcDbLayout
  1
Layout2
 70
     1
 71
     2
 10
0.0
 20
0.0
 11
12.0
 21
9.0
 12
0.0
 22
0.0
 32
0.0
 14
0.0
 24
0.0
 34
0.0
 15
0.0
 25
0.0
 35
0.0
146
0.0
 13
0.0
 23
0.0
 33
0.0
 16
1.0
 26
0.0
 36
0.0
 17
0.0
 27
1.0
 37
0.0
 76
     0
330
23
  0
LAYOUT
  5
22
102
{ACAD_REACTORS
330
1A
102
}
102
{ACAD_XDICTIONARY
360
AA3
102
}
330
1A
100
AcDbPlotSettings
  1

  2
X:\Program Files\AutoCAD2002\plotters\DWF ePlot (optimized for plotting).pc3
  4

  6

 40
0.0
 41
0.0
 42
0.0
 43
0.0
 44
0.0
 45
0.0
 46
0.0
 47
0.0
 48
0.0
 49
0.0
140
0.0
141
0.0
142
1.0
143
1.0
 70
  1712
 72
     0
 73
     0
 74
     0
  7

 75
     0
147
1.0
148
0.0
149
0.0
100
AcDbLayout
  1
Model
 70
     1
 71
     0
 10
0.0
 20
0.0
 11
12.0
 21
9.0
 12
0.0
 22
0.0
 32
0.0
 14
0.0
 24
0.0
 34
0.0
 15
0.0
 25
0.0
 35
0.0
146
0.0
 13
0.0
 23
0.0
 33
0.0
 16
1.0
 26
0.0
 36
0.0
 17
0.0
 27
1.0
 37
0.0
 76
     0
330
1F
  0
MLINESTYLE
  5
18
102
{ACAD_REACTORS
330
17
102
}
330
17
100
AcDbMlineStyle
  2
STANDARD
 70
     0
  3

 62
   256
 51
90.0
 52
90.0
 71
     2
 49
0.5
 62
   256
  6
BYLAYER
 49
-0.5
 62
   256
  6
BYLAYER
  0
ACDBPLACEHOLDER
  5
F
102
{ACAD_REACTORS
330
E
102
}
330
E
  0
ACAD_PROXY_OBJECT
  5
A7B
102
{ACAD_REACTORS
330
A7A
102
}
330
A7A
100
AcDbProxyObject
 90
      499
 91
      504
 95
   983063
 70
     0
 93
     1841
310
4214DD185B99185C9928B81E85EB51B8AE3F2E07A17AD46E2B8FC02B5E8DC0F42B1CFD028000000C1008070000C3001FDFF8000000C1003FBFF000000182007F7FE00000030400FEFFC00000060801FDFF8000000C1003FBFF00000018200000000000000681FA0B0000001820100E000186003FBFF000000182007F7FE000
310
00030400FEFFC00000060801FDFF8000000C1003FBFF000000182007F7FE000000304000AD7A3703D0AC73F4160000003040201C00030C007F7FE00000030400FEFFC00000060801FDFF8000000C1003FBFF000000182007F7FE00000030400FEFFC000000608000
340
11
340
11
340
11
 94
        0
  0
XRECORD
  5
A9D
102
{ACAD_REACTORS
330
A9C
102
}
330
A9C
100
AcDbXrecord
340
A79
  0
XRECORD
  5
A9E
102
{ACAD_REACTORS
330
A9C
102
}
330
A9C
100
AcDbXrecord
340
A78
  0
DICTIONARYVAR
  5
A9A
102
{ACAD_REACTORS
330
1BF
102
}
330
1BF
100
DictionaryVariables
280
     0
  1
STANDARD
  0
DICTIONARYVAR
  5
1C1
102
{ACAD_REACTORS
330
1BF
102
}
330
1BF
100
DictionaryVariables
280
     0
  1
2
  0
DICTIONARYVAR
  5
1C0
102
{ACAD_REACTORS
330
1BF
102
}
330
1BF
100
DictionaryVariables
280
     0
  1
1
  0
DICTIONARY
  5
A9F
330
1E
100
AcDbDictionary
280
     1
281
     1
  3
ACAD_XREC_ROUNDTRIP
360
AA0
  0
DICTIONARY
  5
AA1
330
26
100
AcDbDictionary
280
     1
281
     1
  3
ACAD_XREC_ROUNDTRIP
360
AA2
  0
DICTIONARY
  5
AA3
330
22
100
AcDbDictionary
280
     1
281
     1
  3
ACAD_XREC_ROUNDTRIP
360
AA4
  0
XRECORD
  5
AA0
102
{ACAD_REACTORS
330
A9F
102
}
330
A9F
100
AcDbXrecord
102
SHADEPLOT
 70
     0
102
SHADEPLOTRESLEVEL
 70
     2
102
SHADEPLOTCUSTOMDPI
 70
   300
  0
XRECORD
  5
AA2
102
{ACAD_REACTORS
330
AA1
102
}
330
AA1
100
AcDbXrecord
102
SHADEPLOT
 70
     0
102
SHADEPLOTRESLEVEL
 70
     2
102
SHADEPLOTCUSTOMDPI
 70
   300
  0
XRECORD
  5
AA4
102
{ACAD_REACTORS
330
AA3
102
}
330
AA3
100
AcDbXrecord
102
SHADEPLOT
 70
     0
102
SHADEPLOTRESLEVEL
 70
     2
102
SHADEPLOTCUSTOMDPI
 70
   300
  0
ENDSEC
  0
EOF
