  0
SECTION
  2
HEADER
  9
$ACADVER
  1
AC1015
  9
$ACADMAINTVER
 70
     6
  9
$DWGCODEPAGE
  3
ANSI_1252
  9
$INSBASE
 10
0.0
 20
0.0
 30
0.0
  9
$EXTMIN
 10
-0.6553608049732915
 20
-0.0883883476483122
 30
0.0
  9
$EXTMAX
 10
19.18605918903205
 20
15.83688073571026
 30
0.0
  9
$LIMMIN
 10
0.0
 20
0.0
  9
$LIMMAX
 10
12.0
 20
9.0
  9
$ORTHOMODE
 70
     1
  9
$REGENMODE
 70
     1
  9
$FILLMODE
 70
     1
  9
$QTEXTMODE
 70
     0
  9
$MIRRTEXT
 70
     1
  9
$LTSCALE
 40
1.0
  9
$ATTMODE
 70
     1
  9
$TEXTSIZE
 40
0.2
  9
$TRACEWID
 40
0.05
  9
$TEXTSTYLE
  7
Standard
  9
$CLAYER
  8
0
  9
$CELTYPE
  6
ByLayer
  9
$CECOLOR
 62
   256
  9
$CELTSCALE
 40
1.0
  9
$DISPSILH
 70
     0
  9
$DIMSCALE
 40
1.0
  9
$DIMASZ
 40
0.18
  9
$DIMEXO
 40
0.0625
  9
$DIMDLI
 40
0.38
  9
$DIMRND
 40
0.0
  9
$DIMDLE
 40
0.0
  9
$DIMEXE
 40
0.18
  9
$DIMTP
 40
0.0
  9
$DIMTM
 40
0.0
  9
$DIMTXT
 40
0.18
  9
$DIMCEN
 40
0.09
  9
$DIMTSZ
 40
0.0
  9
$DIMTOL
 70
     0
  9
$DIMLIM
 70
     0
  9
$DIMTIH
 70
     1
  9
$DIMTOH
 70
     1
  9
$DIMSE1
 70
     0
  9
$DIMSE2
 70
     0
  9
$DIMTAD
 70
     0
  9
$DIMZIN
 70
     0
  9
$DIMBLK
  1

  9
$DIMASO
 70
     1
  9
$DIMSHO
 70
     1
  9
$DIMPOST
  1

  9
$DIMAPOST
  1

  9
$DIMALT
 70
     0
  9
$DIMALTD
 70
     2
  9
$DIMALTF
 40
25.4
  9
$DIMLFAC
 40
1.0
  9
$DIMTOFL
 70
     0
  9
$DIMTVP
 40
0.0
  9
$DIMTIX
 70
     0
  9
$DIMSOXD
 70
     0
  9
$DIMSAH
 70
     0
  9
$DIMBLK1
  1

  9
$DIMBLK2
  1

  9
$DIMSTYLE
  2
Standard
  9
$DIMCLRD
 70
     0
  9
$DIMCLRE
 70
     0
  9
$DIMCLRT
 70
     0
  9
$DIMTFAC
 40
1.0
  9
$DIMGAP
 40
0.09
  9
$DIMJUST
 70
     0
  9
$DIMSD1
 70
     0
  9
$DIMSD2
 70
     0
  9
$DIMTOLJ
 70
     1
  9
$DIMTZIN
 70
     0
  9
$DIMALTZ
 70
     0
  9
$DIMALTTZ
 70
     0
  9
$DIMUPT
 70
     0
  9
$DIMDEC
 70
     4
  9
$DIMTDEC
 70
     4
  9
$DIMALTU
 70
     2
  9
$DIMALTTD
 70
     2
  9
$DIMTXSTY
  7
Standard
  9
$DIMAUNIT
 70
     0
  9
$DIMADEC
 70
     0
  9
$DIMALTRND
 40
0.0
  9
$DIMAZIN
 70
     0
  9
$DIMDSEP
 70
    46
  9
$DIMATFIT
 70
     3
  9
$DIMFRAC
 70
     0
  9
$DIMLDRBLK
  1

  9
$DIMLUNIT
 70
     2
  9
$DIMLWD
 70
    -2
  9
$DIMLWE
 70
    -2
  9
$DIMTMOVE
 70
     0
  9
$LUNITS
 70
     2
  9
$LUPREC
 70
     4
  9
$SKETCHINC
 40
0.1
  9
$FILLETRAD
 40
0.5
  9
$AUNITS
 70
     0
  9
$AUPREC
 70
     0
  9
$MENU
  1
.
  9
$ELEVATION
 40
0.0
  9
$PELEVATION
 40
0.0
  9
$THICKNESS
 40
0.0
  9
$LIMCHECK
 70
     0
  9
$CHAMFERA
 40
0.5
  9
$CHAMFERB
 40
0.5
  9
$CHAMFERC
 40
1.0
  9
$CHAMFERD
 40
0.0
  9
$SKPOLY
 70
     0
  9
$TDCREATE
 40
2453420.559099167
  9
$TDUCREATE
 40
2453420.8924325
  9
$TDUPDATE
 40
2454165.796326354
  9
$TDUUPDATE
 40
2454166.129659688
  9
$TDINDWG
 40
0.1528117361
  9
$TDUSRTIMER
 40
0.1528117361
  9
$USRTIMER
 70
     1
  9
$ANGBASE
 50
0.0
  9
$ANGDIR
 70
     0
  9
$PDMODE
 70
     0
  9
$PDSIZE
 40
0.0
  9
$PLINEWID
 40
0.0
  9
$SPLFRAME
 70
     0
  9
$SPLINETYPE
 70
     6
  9
$SPLINESEGS
 70
     8
  9
$HANDSEED
  5
AA4
  9
$SURFTAB1
 70
     6
  9
$SURFTAB2
 70
     6
  9
$SURFTYPE
 70
     6
  9
$SURFU
 70
     6
  9
$SURFV
 70
     6
  9
$UCSBASE
  2

  9
$UCSNAME
  2

  9
$UCSORG
 10
0.0
 20
0.0
 30
0.0
  9
$UCSXDIR
 10
1.0
 20
0.0
 30
0.0
  9
$UCSYDIR
 10
0.0
 20
1.0
 30
0.0
  9
$UCSORTHOREF
  2

  9
$UCSORTHOVIEW
 70
     0
  9
$UCSORGTOP
 10
0.0
 20
0.0
 30
0.0
  9
$UCSORGBOTTOM
 10
0.0
 20
0.0
 30
0.0
  9
$UCSORGLEFT
 10
0.0
 20
0.0
 30
0.0
  9
$UCSORGRIGHT
 10
0.0
 20
0.0
 30
0.0
  9
$UCSORGFRONT
 10
0.0
 20
0.0
 30
0.0
  9
$UCSORGBACK
 10
0.0
 20
0.0
 30
0.0
  9
$PUCSBASE
  2

  9
$PUCSNAME
  2

  9
$PUCSORG
 10
0.0
 20
0.0
 30
0.0
  9
$PUCSXDIR
 10
1.0
 20
0.0
 30
0.0
  9
$PUCSYDIR
 10
0.0
 20
1.0
 30
0.0
  9
$PUCSORTHOREF
  2

  9
$PUCSORTHOVIEW
 70
     0
  9
$PUCSORGTOP
 10
0.0
 20
0.0
 30
0.0
  9
$PUCSORGBOTTOM
 10
0.0
 20
0.0
 30
0.0
  9
$PUCSORGLEFT
 10
0.0
 20
0.0
 30
0.0
  9
$PUCSORGRIGHT
 10
0.0
 20
0.0
 30
0.0
  9
$PUCSORGFRONT
 10
0.0
 20
0.0
 30
0.0
  9
$PUCSORGBACK
 10
0.0
 20
0.0
 30
0.0
  9
$USERI1
 70
     0
  9
$USERI2
 70
     0
  9
$USERI3
 70
     0
  9
$USERI4
 70
     0
  9
$USERI5
 70
     0
  9
$USERR1
 40
0.0
  9
$USERR2
 40
0.0
  9
$USERR3
 40
0.0
  9
$USERR4
 40
0.0
  9
$USERR5
 40
0.0
  9
$WORLDVIEW
 70
     1
  9
$SHADEDGE
 70
     3
  9
$SHADEDIF
 70
    70
  9
$TILEMODE
 70
     1
  9
$MAXACTVP
 70
    64
  9
$PINSBASE
 10
0.0
 20
0.0
 30
0.0
  9
$PLIMCHECK
 70
     0
  9
$PEXTMIN
 10
1.000000000000000E+20
 20
1.000000000000000E+20
 30
1.000000000000000E+20
  9
$PEXTMAX
 10
-1.000000000000000E+20
 20
-1.000000000000000E+20
 30
-1.000000000000000E+20
  9
$PLIMMIN
 10
0.0
 20
0.0
  9
$PLIMMAX
 10
12.0
 20
9.0
  9
$UNITMODE
 70
     0
  9
$VISRETAIN
 70
     1
  9
$PLINEGEN
 70
     0
  9
$PSLTSCALE
 70
     1
  9
$TREEDEPTH
 70
  3020
  9
$CMLSTYLE
  2
Standard
  9
$CMLJUST
 70
     0
  9
$CMLSCALE
 40
1.0
  9
$PROXYGRAPHICS
 70
     1
  9
$MEASUREMENT
 70
     0
  9
$CELWEIGHT
370
    -1
  9
$ENDCAPS
280
     0
  9
$JOINSTYLE
280
     0
  9
$LWDISPLAY
290
     0
  9
$INSUNITS
 70
     1
  9
$HYPERLINKBASE
  1

  9
$STYLESHEET
  1

  9
$XEDIT
290
     1
  9
$CEPSNTYPE
380
     0
  9
$PSTYLEMODE
290
     1
  9
$FINGERPRINTGUID
  2
{EC68BE3A-3147-4A5B-AE38-20E2D0E3D53F}
  9
$VERSIONGUID
  2
{BBEBCD1E-6EC0-4F80-86E6-DD748129A483}
  9
$EXTNAMES
290
     1
  9
$PSVPSCALE
 40
0.0
  9
$OLESTARTUP
290
     0
  0
ENDSEC
  0
SECTION
  2
CLASSES
  0
CLASS
  1
ACDBDICTIONARYWDFLT
  2
AcDbDictionaryWithDefault
  3
AutoCAD 2000
 90
        0
280
     0
281
     0
  0
CLASS
  1
ACDBPLACEHOLDER
  2
AcDbPlaceHolder
  3
ObjectDBX Classes
 90
        0
280
     0
281
     0
  0
CLASS
  1
LAYOUT
  2
AcDbLayout
  3
ObjectDBX Classes
 90
        0
280
     0
281
     0
  0
CLASS
  1
DICTIONARYVAR
  2
AcDbDictionaryVar
  3
AutoCAD 2000
 90
        0
280
     0
281
     0
  0
CLASS
  1
TABLESTYLE
  2
AcDbTableStyle
  3
ObjectDBX Classes
 90
     2047
280
     1
281
     0
  0
ENDSEC
  0
SECTION
  2
TABLES
  0
TABLE
  2
VPORT
  5
8
330
0
100
AcDbSymbolTable
 70
     3
  0
VPORT
  5
A93
330
8
100
AcDbSymbolTableRecord
100
AcDbViewportTableRecord
  2
*Active
 70
     0
 10
0.0
 20
0.0
 11
1.0
 21
1.0
 12
13.07012745156207
 22
9.667906985414732
 13
0.0
 23
0.0
 14
0.5
 24
0.5
 15
0.5
 25
0.5
 16
0.0
 26
0.0
 36
1.0
 17
0.0
 27
0.0
 37
0.0
 40
25.80080490698022
 41
1.814583333333333
 42
50.0
 43
0.0
 44
0.0
 50
0.0
 51
0.0
 71
     0
 72
   100
 73
     1
 74
     3
 75
     0
 76
     0
 77
     0
 78
     0
281
     0
 65
     1
110
0.0
120
0.0
130
0.0
111
1.0
121
0.0
131
0.0
112
0.0
122
1.0
132
0.0
 79
     0
146
0.0
  0
ENDTAB
  0
TABLE
  2
LTYPE
  5
5
330
0
100
AcDbSymbolTable
 70
     2
  0
LTYPE
  5
14
330
5
100
AcDbSymbolTableRecord
100
AcDbLinetypeTableRecord
  2
ByBlock
 70
     0
  3

 72
    65
 73
     0
 40
0.0
  0
LTYPE
  5
15
330
5
100
AcDbSymbolTableRecord
100
AcDbLinetypeTableRecord
  2
ByLayer
 70
     0
  3

 72
    65
 73
     0
 40
0.0
  0
LTYPE
  5
16
330
5
100
AcDbSymbolTableRecord
100
AcDbLinetypeTableRecord
  2
Continuous
 70
     0
  3
Solid line
 72
    65
 73
     0
 40
0.0
  0
LTYPE
  5
1C2
330
5
100
AcDbSymbolTableRecord
100
AcDbLinetypeTableRecord
  2
HIDDEN
 70
     0
  3
_ _ _ _ _ _ _ _ _ _ _ _ _ _ _ _ _ _ _ _ _ _ _
 72
    65
 73
     2
 40
0.375
 49
0.25
 74
     0
 49
-0.125
 74
     0
  0
ENDTAB
  0
TABLE
  2
LAYER
  5
2
330
0
100
AcDbSymbolTable
 70
     1
  0
LAYER
  5
10
330
2
100
AcDbSymbolTableRecord
100
AcDbLayerTableRecord
  2
0
 70
     0
 62
     7
  6
Continuous
370
    -3
390
F
  0
ENDTAB
  0
TABLE
  2
STYLE
  5
3
330
0
100
AcDbSymbolTable
 70
     1
  0
STYLE
  5
11
330
3
100
AcDbSymbolTableRecord
100
AcDbTextStyleTableRecord
  2
Standard
 70
     0
 40
0.0
 41
1.0
 50
0.0
 71
     0
 42
0.2
  3
txt
  4

  0
ENDTAB
  0
TABLE
  2
VIEW
  5
6
330
0
100
AcDbSymbolTable
 70
     0
  0
ENDTAB
  0
TABLE
  2
UCS
  5
7
330
0
100
AcDbSymbolTable
 70
     0
  0
ENDTAB
  0
TABLE
  2
APPID
  5
9
330
0
100
AcDbSymbolTable
 70
     1
  0
APPID
  5
12
330
9
100
AcDbSymbolTableRecord
100
AcDbRegAppTableRecord
  2
ACAD
 70
     0
  0
ENDTAB
  0
TABLE
  2
DIMSTYLE
  5
A
330
0
100
AcDbSymbolTable
 70
     1
100
AcDbDimStyleTable
  0
DIMSTYLE
105
27
330
A
100
AcDbSymbolTableRecord
100
AcDbDimStyleTableRecord
  2
Standard
 70
     0
  3

  4

340
11
  0
ENDTAB
  0
TABLE
  2
BLOCK_RECORD
  5
1
330
0
100
AcDbSymbolTable
 70
     1
  0
BLOCK_RECORD
  5
1F
330
1
100
AcDbSymbolTableRecord
100
AcDbBlockTableRecord
  2
*Model_Space
340
22
  0
BLOCK_RECORD
  5
1B
330
1
100
AcDbSymbolTableRecord
100
AcDbBlockTableRecord
  2
*Paper_Space
340
1E
  0
BLOCK_RECORD
  5
23
330
1
100
AcDbSymbolTableRecord
100
AcDbBlockTableRecord
  2
*Paper_Space0
340
26
  0
ENDTAB
  0
ENDSEC
  0
SECTION
  2
BLOCKS
  0
BLOCK
  5
20
330
1F
100
AcDbEntity
  8
0
100
AcDbBlockBegin
  2
*Model_Space
 70
     0
 10
0.0
 20
0.0
 30
0.0
  3
*Model_Space
  1

  4

  0
ENDBLK
  5
21
330
1F
100
AcDbEntity
  8
0
100
AcDbBlockEnd
  0
BLOCK
  5
1C
330
1B
100
AcDbEntity
 67
     1
  8
0
100
AcDbBlockBegin
  2
*Paper_Space
 70
     0
 10
0.0
 20
0.0
 30
0.0
  3
*Paper_Space
  1

  4

  0
ENDBLK
  5
1D
330
1B
100
AcDbEntity
 67
     1
  8
0
100
AcDbBlockEnd
  0
BLOCK
  5
24
330
23
100
AcDbEntity
  8
0
100
AcDbBlockBegin
  2
*Paper_Space0
 70
     0
 10
0.0
 20
0.0
 30
0.0
  3
*Paper_Space0
  1

  4

  0
ENDBLK
  5
25
330
23
100
AcDbEntity
  8
0
100
AcDbBlockEnd
  0
ENDSEC
  0
SECTION
  2
ENTITIES
  0
LINE
  5
9A0
330
1F
100
AcDbEntity
  8
0
  6
Continuous
100
AcDbLine
 10
0.846668539738026
 20
4.286800461042307
 30
0.0
 11
0.8466685397379976
 21
4.911800461042308
 31
0.0
  0
ARC
  5
9A1
330
1F
100
AcDbEntity
  8
0
  6
Continuous
100
AcDbCircle
 10
2.781668539738028
 20
4.843749999999869
 30
0.0
 40
0.06
100
AcDbArc
 50
121.6311662755244
 51
238.368833724476
  0
LINE
  5
9A2
330
1F
100
AcDbEntity
  8
0
  6
Continuous
100
AcDbLine
 10
2.971668539738054
 20
0.1519555937132431
 30
0.0
 11
2.971668539738054
 21
9.093749999999989
 31
0.0
  0
LINE
  5
9A3
330
1F
100
AcDbEntity
  8
0
100
AcDbLine
 10
2.922358508838535
 20
9.093749999999993
 30
0.0
 11
2.922358508838514
 21
0.1067424821282472
 31
0.0
  0
CIRCLE
  5
9A5
330
1F
100
AcDbEntity
  8
0
  6
Continuous
100
AcDbCircle
 10
1.409168539738012
 20
3.046874999999996
 30
0.0
 40
0.0855
  0
CIRCLE
  5
9A6
330
1F
100
AcDbEntity
  8
0
  6
Continuous
100
AcDbCircle
 10
1.409168539738012
 20
1.54687500000005
 30
0.0
 40
0.0855
  0
LINE
  5
9A7
330
1F
100
AcDbEntity
  8
0
100
AcDbLine
 10
-0.6553608049732915
 20
-0.0625000000000107
 30
0.0
 11
2.844639195026709
 21
-0.0625000000000107
 31
0.0
  0
LINE
  5
9A8
330
1F
100
AcDbEntity
  8
0
  6
HIDDEN
100
AcDbLine
 10
-0.5643363146285338
 20
-0.0000000000000107
 30
0.0
 11
2.844639195026709
 21
-0.0000000000000107
 31
0.0
  0
LINE
  5
9A9
330
1F
100
AcDbEntity
  8
0
  6
Continuous
100
AcDbLine
 10
0.8466685397380402
 20
1.913154439278689
 30
0.0
 11
0.8466685397379976
 21
3.161800461042294
 31
0.0
  0
LINE
  5
9AA
330
1F
100
AcDbEntity
  8
0
  6
Continuous
100
AcDbLine
 10
-0.4783603605105142
 20
0.1151966094065884
 30
0.0
 11
0.5537753209246006
 21
1.206047658092107
 31
0.0
  0
LINE
  5
9AB
330
1F
100
AcDbEntity
  8
0
100
AcDbLine
 10
-0.5643363146285338
 20
-0.0000000000000107
 30
0.0
 11
-0.6553608049732915
 21
-0.0000000000000107
 31
0.0
  0
LINE
  5
9AC
330
1F
100
AcDbEntity
  8
0
100
AcDbLine
 10
-0.6553608049732915
 20
-0.0625000000000107
 30
0.0
 11
-0.6553608049732915
 21
-0.0000000000000107
 31
0.0
  0
ARC
  5
9AD
330
1F
100
AcDbEntity
  8
0
  6
Continuous
100
AcDbCircle
 10
-0.1248069699173087
 20
-0.238356781186674
 30
0.0
 40
0.4999999999999432
100
AcDbArc
 50
134.9999999999953
 51
159.4078398862809
  0
CIRCLE
  5
9AE
330
1F
100
AcDbEntity
  8
0
  6
Continuous
100
AcDbCircle
 10
0.9716685397380118
 20
0.8125000000000497
 30
0.0
 40
0.0855
  0
ARC
  5
9AF
330
1F
100
AcDbEntity
  8
0
  6
Continuous
100
AcDbCircle
 10
-0.1533314602619598
 20
1.913154439278646
 30
0.0
 40
1.000000000000003
100
AcDbArc
 50
315.0000000000009
 51
0.0000000000024427
  0
LINE
  5
9B0
330
1F
100
AcDbEntity
  8
0
  6
Continuous
100
AcDbLine
 10
1.159168539738026
 20
3.411800461042322
 30
0.0
 11
1.159168539737998
 21
4.036800461042308
 31
0.0
  0
ARC
  5
9B1
330
1F
100
AcDbEntity
  8
0
  6
Continuous
100
AcDbCircle
 10
1.034168539738012
 20
3.411800461042329
 30
0.0
 40
0.1250000000000142
100
AcDbArc
 50
269.9999999999935
 51
0.0
  0
LINE
  5
9B2
330
1F
100
AcDbEntity
  8
0
  6
Continuous
100
AcDbLine
 10
0.971668539738026
 20
3.286800461042308
 30
0.0
 11
1.034168539737998
 21
3.286800461042308
 31
0.0
  0
ARC
  5
9B3
330
1F
100
AcDbEntity
  8
0
  6
Continuous
100
AcDbCircle
 10
0.9716685397380118
 20
3.161800461042301
 30
0.0
 40
0.1250000000000142
100
AcDbArc
 50
89.99999999999349
 51
180.0
  0
ARC
  5
9B4
330
1F
100
AcDbEntity
  8
0
  6
Continuous
100
AcDbCircle
 10
0.9716685397380118
 20
4.2868004610423
 30
0.0
 40
0.1249999999999858
100
AcDbArc
 50
179.9999999999935
 51
269.9999999999935
  0
LINE
  5
9B5
330
1F
100
AcDbEntity
  8
0
  6
Continuous
100
AcDbLine
 10
1.034168539738026
 20
4.161800461042307
 30
0.0
 11
0.9716685397379976
 21
4.161800461042307
 31
0.0
  0
ARC
  5
9B6
330
1F
100
AcDbEntity
  8
0
  6
Continuous
100
AcDbCircle
 10
1.034168539738012
 20
4.036800461042329
 30
0.0
 40
0.1249999999999858
100
AcDbArc
 50
359.9999999999934
 51
89.99999999999349
  0
CIRCLE
  5
9B7
330
1F
100
AcDbEntity
  8
0
  6
Continuous
100
AcDbCircle
 10
2.034168539737998
 20
1.04687500000005
 30
0.0
 40
0.0855
  0
ARC
  5
9B8
330
1F
100
AcDbEntity
  8
0
  6
Continuous
100
AcDbCircle
 10
3.284168539737941
 20
-0.238356781186674
 30
0.0
 40
0.4999999999999437
100
AcDbArc
 50
128.6821874534726
 51
151.5290213442328
  0
LINE
  5
9B9
330
1F
100
AcDbEntity
  8
0
100
AcDbLine
 10
2.844639195026709
 20
-0.0000000000000107
 30
0.0
 11
2.844639195026709
 21
-0.0625000000000107
 31
0.0
  0
CIRCLE
  5
9BA
330
1F
100
AcDbEntity
  8
0
  6
Continuous
100
AcDbCircle
 10
1.721668539738012
 20
2.046875000000036
 30
0.0
 40
0.0855
  0
CIRCLE
  5
9BB
330
1F
100
AcDbEntity
  8
0
  6
Continuous
100
AcDbCircle
 10
1.721668539738012
 20
3.546874999999982
 30
0.0
 40
0.0855
  0
CIRCLE
  5
9BC
330
1F
100
AcDbEntity
  8
0
  6
Continuous
100
AcDbCircle
 10
2.034168539737998
 20
2.546874999999996
 30
0.0
 40
0.0855
  0
ARC
  5
9BD
330
1F
100
AcDbEntity
  8
0
  6
Continuous
100
AcDbCircle
 10
2.97166853973804
 20
2.579124999999845
 30
0.0
 40
0.1875
100
AcDbArc
 50
105.2473642457561
 51
254.7526357542439
  0
LINE
  5
9BE
330
1F
100
AcDbEntity
  8
0
  6
Continuous
100
AcDbLine
 10
2.922358508838507
 20
3.186622719822822
 30
0.0
 11
2.750201592009738
 21
3.292663492968519
 31
0.0
  0
ARC
  5
9BF
330
1F
100
AcDbEntity
  8
0
  6
Continuous
100
AcDbCircle
 10
2.781668539738028
 20
3.343749999999869
 30
0.0
 40
0.06
100
AcDbArc
 50
121.6311662755244
 51
238.368833724476
  0
LINE
  5
9C0
330
1F
100
AcDbEntity
  8
0
  6
Continuous
100
AcDbLine
 10
2.922358508838507
 20
3.500877280176901
 30
0.0
 11
2.750201592009738
 21
3.394836507031219
 31
0.0
  0
LINE
  5
9C2
330
1F
100
AcDbEntity
  8
0
  6
Continuous
100
AcDbLine
 10
2.922358508838521
 20
4.686622719822818
 30
0.0
 11
2.750201592009738
 21
4.792663492968519
 31
0.0
  0
LINE
  5
9C4
330
1F
100
AcDbEntity
  8
0
  6
Continuous
100
AcDbLine
 10
2.971668539738069
 20
9.093749999999989
 30
0.0
 11
1.159168539738062
 21
9.093749999999989
 31
0.0
  0
LINE
  5
9C6
330
1F
100
AcDbEntity
  8
0
100
AcDbLine
 10
1.159168539738062
 20
6.911800461042382
 30
0.0
 11
1.159168539738026
 21
7.786800461042365
 31
0.0
  0
LINE
  5
9C7
330
1F
100
AcDbEntity
  8
0
  6
Continuous
100
AcDbLine
 10
0.8466685397380545
 20
6.036800461042365
 30
0.0
 11
0.846668539738026
 21
6.661800461042365
 31
0.0
  0
LINE
  5
9C8
330
1F
100
AcDbEntity
  8
0
  6
Continuous
100
AcDbLine
 10
1.159168539738026
 20
5.161800461042308
 30
0.0
 11
1.159168539738026
 21
5.786800461042422
 31
0.0
  0
ARC
  5
9C9
330
1F
100
AcDbEntity
  8
0
  6
Continuous
100
AcDbCircle
 10
1.034168539738012
 20
5.161800461042329
 30
0.0
 40
0.1250000000000142
100
AcDbArc
 50
269.9999999999935
 51
359.9999999999934
  0
LINE
  5
9CA
330
1F
100
AcDbEntity
  8
0
  6
Continuous
100
AcDbLine
 10
0.971668539738026
 20
5.036800461042308
 30
0.0
 11
1.034168539737998
 21
5.036800461042308
 31
0.0
  0
ARC
  5
9CB
330
1F
100
AcDbEntity
  8
0
  6
Continuous
100
AcDbCircle
 10
0.9716685397380118
 20
4.911800461042301
 30
0.0
 40
0.1250000000000142
100
AcDbArc
 50
89.99999999999349
 51
179.9999999999935
  0
LINE
  5
9CC
330
1F
100
AcDbEntity
  8
0
  6
Continuous
100
AcDbLine
 10
1.159168539738026
 20
5.786800461042422
 30
0.0
 11
1.159168539738026
 21
5.786800461042422
 31
0.0
  0
ARC
  5
9CD
330
1F
100
AcDbEntity
  8
0
  6
Continuous
100
AcDbCircle
 10
1.034168539738069
 20
5.786800461042414
 30
0.0
 40
0.1249999999999574
100
AcDbArc
 50
0.0000000000065138
 51
90.00000000000644
  0
LINE
  5
9CE
330
1F
100
AcDbEntity
  8
0
  6
Continuous
100
AcDbLine
 10
1.034168539738054
 20
5.911800461042365
 30
0.0
 11
0.971668539738026
 21
5.911800461042422
 31
0.0
  0
ARC
  5
9CF
330
1F
100
AcDbEntity
  8
0
  6
Continuous
100
AcDbCircle
 10
0.9716685397380118
 20
6.036800461042386
 30
0.0
 40
0.1249999999999574
100
AcDbArc
 50
180.0000000000065
 51
270.0000000000065
  0
ARC
  5
9D0
330
1F
100
AcDbEntity
  8
0
  6
Continuous
100
AcDbCircle
 10
0.9716685397380473
 20
6.661800461042351
 30
0.0
 40
0.1250000000000213
100
AcDbArc
 50
89.99999999999675
 51
179.9999999999902
  0
LINE
  5
9D2
330
1F
100
AcDbEntity
  8
0
  6
Continuous
100
AcDbLine
 10
0.9716685397380545
 20
6.786800461042365
 30
0.0
 11
1.034168539738026
 21
6.786800461042365
 31
0.0
  0
ARC
  5
9D3
330
1F
100
AcDbEntity
  8
0
  6
Continuous
100
AcDbCircle
 10
1.034168539738047
 20
6.911800461042386
 30
0.0
 40
0.1250000000000178
100
AcDbArc
 50
269.9999999999902
 51
359.9999999999984
  0
LINE
  5
9D4
330
1F
100
AcDbEntity
  8
0
  6
Continuous
100
AcDbLine
 10
0.8466685397380545
 20
8.036800461042365
 30
0.0
 11
0.8466685397380331
 21
8.661800461042478
 31
0.0
  0
ARC
  5
9D5
330
1F
100
AcDbEntity
  8
0
  6
Continuous
100
AcDbCircle
 10
0.9716685397380402
 20
8.036800461042351
 30
0.0
 40
0.1249999999999858
100
AcDbArc
 50
179.9999999999935
 51
269.9999999999935
  0
LINE
  5
9D6
330
1F
100
AcDbEntity
  8
0
  6
Continuous
100
AcDbLine
 10
1.034168539738054
 20
7.911800461042365
 30
0.0
 11
0.971668539738026
 21
7.911800461042365
 31
0.0
  0
ARC
  5
9D7
330
1F
100
AcDbEntity
  8
0
  6
Continuous
100
AcDbCircle
 10
1.03416853973804
 20
7.786800461042379
 30
0.0
 40
0.1249999999999858
100
AcDbArc
 50
359.9999999999935
 51
89.99999999999349
  0
LINE
  5
9D9
330
1F
100
AcDbEntity
  8
0
  6
Continuous
100
AcDbLine
 10
1.159168539738076
 20
8.911800461042507
 30
0.0
 11
1.159168539738062
 21
9.093749999999989
 31
0.0
  0
ARC
  5
9DA
330
1F
100
AcDbEntity
  8
0
  6
Continuous
100
AcDbCircle
 10
1.034168539738047
 20
8.911800461042507
 30
0.0
 40
0.1250000000000284
100
AcDbArc
 50
269.9999999999935
 51
0.0
  0
LINE
  5
9DB
330
1F
100
AcDbEntity
  8
0
  6
Continuous
100
AcDbLine
 10
0.9716685397380616
 20
8.786800461042478
 30
0.0
 11
1.034168539738033
 21
8.786800461042478
 31
0.0
  0
ARC
  5
9DC
330
1F
100
AcDbEntity
  8
0
  6
Continuous
100
AcDbCircle
 10
0.9716685397380545
 20
8.661800461042457
 30
0.0
 40
0.1250000000000213
100
AcDbArc
 50
89.99999999999675
 51
179.9999999999902
  0
LINE
  5
9DF
330
1F
100
AcDbEntity
  8
0
  6
Continuous
100
AcDbLine
 10
2.922358508838507
 20
5.000877280176901
 30
0.0
 11
2.750201592009738
 21
4.894836507031219
 31
0.0
  0
LINE
  5
9E0
330
1F
100
AcDbEntity
  8
0
  6
Continuous
100
AcDbLine
 10
2.971668539738047
 20
6.171874999999918
 30
0.0
 11
2.750201592009738
 21
6.308288492968575
 31
0.0
  0
ARC
  5
9E1
330
1F
100
AcDbEntity
  8
0
  6
Continuous
100
AcDbCircle
 10
2.781668539738035
 20
6.359374999999925
 30
0.0
 40
0.06
100
AcDbArc
 50
121.6311662755242
 51
238.3688337244758
  0
LINE
  5
9E2
330
1F
100
AcDbEntity
  8
0
  6
Continuous
100
AcDbLine
 10
2.971668539738047
 20
6.546874999999918
 30
0.0
 11
2.750201592009738
 21
6.410461507031275
 31
0.0
  0
LINE
  5
9E4
330
1F
100
AcDbEntity
  8
0
  6
Continuous
100
AcDbLine
 10
2.922358508838535
 20
8.202247719822978
 30
0.0
 11
2.750201592009738
 21
8.308288492968689
 31
0.0
  0
ARC
  5
9E5
330
1F
100
AcDbEntity
  8
0
  6
Continuous
100
AcDbCircle
 10
2.781668539738028
 20
8.359375000000032
 30
0.0
 40
0.06
100
AcDbArc
 50
121.6311662755242
 51
238.3688337244758
  0
LINE
  5
9E6
330
1F
100
AcDbEntity
  8
0
  6
Continuous
100
AcDbLine
 10
2.922358508838528
 20
8.51650228017709
 30
0.0
 11
2.750201592009738
 21
8.410461507031389
 31
0.0
  0
LINE
  5
A32
330
1F
100
AcDbEntity
  8
0
  6
Continuous
100
AcDbLine
 10
1.370543539738002
 20
4.667902050178856
 30
0.0
 11
1.53329353973799
 21
4.573938293868228
 31
0.0
  0
ARC
  5
A33
330
1F
100
AcDbEntity
  8
0
  6
Continuous
100
AcDbCircle
 10
1.51766853973799
 20
4.546874999999962
 30
0.0
 40
0.0312500000000026
100
AcDbArc
 50
299.9999999999973
 51
60.00000000000272
  0
LINE
  5
A34
330
1F
100
AcDbEntity
  8
0
  6
Continuous
100
AcDbLine
 10
1.53329353973799
 20
4.519811706131695
 30
0.0
 11
1.370543539738002
 21
4.425847949821079
 31
0.0
  0
ARC
  5
A35
330
1F
100
AcDbEntity
  8
0
  6
Continuous
100
AcDbCircle
 10
1.354918539738002
 20
4.452911243689345
 30
0.0
 40
0.0312500000000026
100
AcDbArc
 50
180.0
 51
299.9999999999973
  0
LINE
  5
A36
330
1F
100
AcDbEntity
  8
0
  6
Continuous
100
AcDbLine
 10
1.323668539738002
 20
4.452911243689345
 30
0.0
 11
1.323668539738002
 21
4.546874999999976
 31
0.0
  0
LINE
  5
A37
330
1F
100
AcDbEntity
  8
0
  6
Continuous
100
AcDbLine
 10
1.323668539738002
 20
4.546874999999976
 30
0.0
 11
1.323668539738002
 21
4.64083875631059
 31
0.0
  0
ARC
  5
A38
330
1F
100
AcDbEntity
  8
0
  6
Continuous
100
AcDbCircle
 10
1.354918539738002
 20
4.640838756310593
 30
0.0
 40
0.03125
100
AcDbArc
 50
60.00000000000109
 51
180.0000000000032
  0
LINE
  5
A39
330
1F
100
AcDbEntity
  8
0
  6
Continuous
100
AcDbLine
 10
1.995543539738002
 20
4.167902050178841
 30
0.0
 11
2.158293539738004
 21
4.073938293868228
 31
0.0
  0
ARC
  5
A3A
330
1F
100
AcDbEntity
  8
0
  6
Continuous
100
AcDbCircle
 10
2.142668539738004
 20
4.046874999999961
 30
0.0
 40
0.0312500000000026
100
AcDbArc
 50
299.9999999999973
 51
60.00000000000272
  0
LINE
  5
A3B
330
1F
100
AcDbEntity
  8
0
  6
Continuous
100
AcDbLine
 10
2.158293539738004
 20
4.019811706131694
 30
0.0
 11
1.995543539738002
 21
3.925847949821108
 31
0.0
  0
ARC
  5
A3C
330
1F
100
AcDbEntity
  8
0
  6
Continuous
100
AcDbCircle
 10
1.979918539738002
 20
3.952911243689375
 30
0.0
 40
0.0312500000000026
100
AcDbArc
 50
180.0
 51
299.9999999999973
  0
LINE
  5
A3D
330
1F
100
AcDbEntity
  8
0
  6
Continuous
100
AcDbLine
 10
1.948668539738002
 20
3.952911243689375
 30
0.0
 11
1.948668539738002
 21
4.046874999999975
 31
0.0
  0
LINE
  5
A3E
330
1F
100
AcDbEntity
  8
0
  6
Continuous
100
AcDbLine
 10
1.948668539738002
 20
4.046874999999975
 30
0.0
 11
1.948668539738002
 21
4.140838756310575
 31
0.0
  0
ARC
  5
A3F
330
1F
100
AcDbEntity
  8
0
  6
Continuous
100
AcDbCircle
 10
1.979918539738002
 20
4.140838756310576
 30
0.0
 40
0.03125
100
AcDbArc
 50
60.00000000000109
 51
180.0000000000032
  0
LINE
  5
A40
330
1F
100
AcDbEntity
  8
0
  6
Continuous
100
AcDbLine
 10
1.683043539738016
 20
5.167902050178828
 30
0.0
 11
1.84579353973799
 21
5.073938293868242
 31
0.0
  0
ARC
  5
A41
330
1F
100
AcDbEntity
  8
0
  6
Continuous
100
AcDbCircle
 10
1.83016853973799
 20
5.046874999999975
 30
0.0
 40
0.0312500000000026
100
AcDbArc
 50
299.9999999999973
 51
60.00000000000272
  0
LINE
  5
A42
330
1F
100
AcDbEntity
  8
0
  6
Continuous
100
AcDbLine
 10
1.84579353973799
 20
5.019811706131709
 30
0.0
 11
1.683043539738016
 21
4.925847949821108
 31
0.0
  0
ARC
  5
A43
330
1F
100
AcDbEntity
  8
0
  6
Continuous
100
AcDbCircle
 10
1.667418539738016
 20
4.952911243689375
 30
0.0
 40
0.031250000000001
100
AcDbArc
 50
179.9999999999967
 51
299.9999999999989
  0
LINE
  5
A44
330
1F
100
AcDbEntity
  8
0
  6
Continuous
100
AcDbLine
 10
1.636168539738016
 20
4.952911243689375
 30
0.0
 11
1.636168539738002
 21
5.046874999999975
 31
0.0
  0
LINE
  5
A45
330
1F
100
AcDbEntity
  8
0
  6
Continuous
100
AcDbLine
 10
1.636168539738002
 20
5.046874999999975
 30
0.0
 11
1.636168539738016
 21
5.140838756310561
 31
0.0
  0
ARC
  5
A46
330
1F
100
AcDbEntity
  8
0
  6
Continuous
100
AcDbCircle
 10
1.667418539738016
 20
5.140838756310565
 30
0.0
 40
0.03125
100
AcDbArc
 50
60.00000000000109
 51
180.0000000000032
  0
LINE
  5
A47
330
1F
100
AcDbEntity
  8
0
100
AcDbLine
 10
1.376517338409585
 20
6.839777050178743
 30
0.0
 11
1.539267338409573
 21
6.745813293868114
 31
0.0
  0
ARC
  5
A48
330
1F
100
AcDbEntity
  8
0
100
AcDbCircle
 10
1.523642338409573
 20
6.718749999999847
 30
0.0
 40
0.0312500000000026
100
AcDbArc
 50
299.9999999999973
 51
60.00000000000272
  0
LINE
  5
A49
330
1F
100
AcDbEntity
  8
0
100
AcDbLine
 10
1.539267338409573
 20
6.691686706131581
 30
0.0
 11
1.376517338409585
 21
6.597722949820966
 31
0.0
  0
ARC
  5
A4A
330
1F
100
AcDbEntity
  8
0
100
AcDbCircle
 10
1.360892338409585
 20
6.624786243689233
 30
0.0
 40
0.0312500000000026
100
AcDbArc
 50
180.0
 51
299.9999999999973
  0
LINE
  5
A4B
330
1F
100
AcDbEntity
  8
0
100
AcDbLine
 10
1.329642338409585
 20
6.624786243689233
 30
0.0
 11
1.329642338409585
 21
6.718749999999861
 31
0.0
  0
LINE
  5
A4C
330
1F
100
AcDbEntity
  8
0
100
AcDbLine
 10
1.329642338409585
 20
6.718749999999861
 30
0.0
 11
1.329642338409585
 21
6.812713756310476
 31
0.0
  0
ARC
  5
A4D
330
1F
100
AcDbEntity
  8
0
100
AcDbCircle
 10
1.360892338409585
 20
6.81271375631048
 30
0.0
 40
0.03125
100
AcDbArc
 50
60.00000000000109
 51
180.0000000000032
  0
LINE
  5
A4E
330
1F
100
AcDbEntity
  8
0
100
AcDbLine
 10
1.08929353973808
 20
6.386652050178743
 30
0.0
 11
1.252043539738068
 21
6.292688293868114
 31
0.0
  0
ARC
  5
A4F
330
1F
100
AcDbEntity
  8
0
100
AcDbCircle
 10
1.236418539738068
 20
6.265624999999847
 30
0.0
 40
0.0312500000000026
100
AcDbArc
 50
299.9999999999973
 51
60.00000000000272
  0
LINE
  5
A50
330
1F
100
AcDbEntity
  8
0
100
AcDbLine
 10
1.252043539738068
 20
6.238561706131581
 30
0.0
 11
1.08929353973808
 21
6.144597949820966
 31
0.0
  0
ARC
  5
A51
330
1F
100
AcDbEntity
  8
0
100
AcDbCircle
 10
1.07366853973808
 20
6.171661243689233
 30
0.0
 40
0.0312500000000026
100
AcDbArc
 50
180.0
 51
299.9999999999973
  0
LINE
  5
A52
330
1F
100
AcDbEntity
  8
0
100
AcDbLine
 10
1.04241853973808
 20
6.171661243689233
 30
0.0
 11
1.04241853973808
 21
6.265624999999861
 31
0.0
  0
LINE
  5
A53
330
1F
100
AcDbEntity
  8
0
100
AcDbLine
 10
1.04241853973808
 20
6.265624999999861
 30
0.0
 11
1.04241853973808
 21
6.359588756310476
 31
0.0
  0
ARC
  5
A54
330
1F
100
AcDbEntity
  8
0
100
AcDbCircle
 10
1.07366853973808
 20
6.35958875631048
 30
0.0
 40
0.03125
100
AcDbArc
 50
60.00000000000109
 51
180.0000000000032
  0
LINE
  5
A55
330
1F
100
AcDbEntity
  8
0
100
AcDbLine
 10
1.870543539738002
 20
5.886652050178729
 30
0.0
 11
2.033293539738004
 21
5.792688293868114
 31
0.0
  0
ARC
  5
A56
330
1F
100
AcDbEntity
  8
0
100
AcDbCircle
 10
2.017668539738004
 20
5.765624999999847
 30
0.0
 40
0.0312500000000026
100
AcDbArc
 50
299.9999999999973
 51
60.00000000000272
  0
LINE
  5
A57
330
1F
100
AcDbEntity
  8
0
100
AcDbLine
 10
2.033293539738004
 20
5.738561706131581
 30
0.0
 11
1.870543539738002
 21
5.644597949820994
 31
0.0
  0
ARC
  5
A58
330
1F
100
AcDbEntity
  8
0
100
AcDbCircle
 10
1.854918539738002
 20
5.671661243689261
 30
0.0
 40
0.0312500000000026
100
AcDbArc
 50
180.0
 51
299.9999999999973
  0
LINE
  5
A59
330
1F
100
AcDbEntity
  8
0
100
AcDbLine
 10
1.823668539738002
 20
5.671661243689261
 30
0.0
 11
1.823668539738002
 21
5.765624999999861
 31
0.0
  0
LINE
  5
A5A
330
1F
100
AcDbEntity
  8
0
100
AcDbLine
 10
1.823668539738002
 20
5.765624999999861
 30
0.0
 11
1.823668539738002
 21
5.859588756310462
 31
0.0
  0
ARC
  5
A5B
330
1F
100
AcDbEntity
  8
0
100
AcDbCircle
 10
1.854918539738002
 20
5.859588756310465
 30
0.0
 40
0.03125
100
AcDbArc
 50
60.00000000000109
 51
180.0000000000032
  0
LINE
  5
A5C
330
1F
100
AcDbEntity
  8
0
  6
Continuous
100
AcDbLine
 10
1.376517338409585
 20
8.839777050178856
 30
0.0
 11
1.539267338409573
 21
8.745813293868228
 31
0.0
  0
ARC
  5
A5D
330
1F
100
AcDbEntity
  8
0
  6
Continuous
100
AcDbCircle
 10
1.523642338409573
 20
8.718749999999961
 30
0.0
 40
0.0312500000000026
100
AcDbArc
 50
299.9999999999973
 51
60.00000000000272
  0
LINE
  5
A5E
330
1F
100
AcDbEntity
  8
0
  6
Continuous
100
AcDbLine
 10
1.539267338409573
 20
8.691686706131694
 30
0.0
 11
1.376517338409585
 21
8.59772294982108
 31
0.0
  0
ARC
  5
A5F
330
1F
100
AcDbEntity
  8
0
  6
Continuous
100
AcDbCircle
 10
1.360892338409585
 20
8.624786243689346
 30
0.0
 40
0.0312500000000026
100
AcDbArc
 50
180.0
 51
299.9999999999973
  0
LINE
  5
A60
330
1F
100
AcDbEntity
  8
0
  6
Continuous
100
AcDbLine
 10
1.329642338409585
 20
8.624786243689346
 30
0.0
 11
1.329642338409585
 21
8.718749999999975
 31
0.0
  0
LINE
  5
A61
330
1F
100
AcDbEntity
  8
0
  6
Continuous
100
AcDbLine
 10
1.329642338409585
 20
8.718749999999975
 30
0.0
 11
1.329642338409585
 21
8.81271375631059
 31
0.0
  0
ARC
  5
A62
330
1F
100
AcDbEntity
  8
0
  6
Continuous
100
AcDbCircle
 10
1.360892338409585
 20
8.812713756310593
 30
0.0
 40
0.03125
100
AcDbArc
 50
60.00000000000109
 51
180.0000000000032
  0
LINE
  5
A63
330
1F
100
AcDbEntity
  8
0
  6
Continuous
100
AcDbLine
 10
1.08929353973808
 20
8.386652050178856
 30
0.0
 11
1.252043539738068
 21
8.292688293868228
 31
0.0
  0
ARC
  5
A64
330
1F
100
AcDbEntity
  8
0
  6
Continuous
100
AcDbCircle
 10
1.236418539738068
 20
8.265624999999961
 30
0.0
 40
0.0312500000000026
100
AcDbArc
 50
299.9999999999973
 51
60.00000000000272
  0
LINE
  5
A65
330
1F
100
AcDbEntity
  8
0
  6
Continuous
100
AcDbLine
 10
1.252043539738068
 20
8.238561706131694
 30
0.0
 11
1.08929353973808
 21
8.14459794982108
 31
0.0
  0
ARC
  5
A66
330
1F
100
AcDbEntity
  8
0
  6
Continuous
100
AcDbCircle
 10
1.07366853973808
 20
8.171661243689346
 30
0.0
 40
0.0312500000000026
100
AcDbArc
 50
180.0
 51
299.9999999999973
  0
LINE
  5
A67
330
1F
100
AcDbEntity
  8
0
  6
Continuous
100
AcDbLine
 10
1.04241853973808
 20
8.171661243689346
 30
0.0
 11
1.04241853973808
 21
8.265624999999975
 31
0.0
  0
LINE
  5
A68
330
1F
100
AcDbEntity
  8
0
  6
Continuous
100
AcDbLine
 10
1.04241853973808
 20
8.265624999999975
 30
0.0
 11
1.04241853973808
 21
8.35958875631059
 31
0.0
  0
ARC
  5
A69
330
1F
100
AcDbEntity
  8
0
  6
Continuous
100
AcDbCircle
 10
1.07366853973808
 20
8.359588756310593
 30
0.0
 40
0.03125
100
AcDbArc
 50
60.00000000000109
 51
180.0000000000032
  0
LINE
  5
A6A
330
1F
100
AcDbEntity
  8
0
  6
Continuous
100
AcDbLine
 10
1.870543539738009
 20
7.886652050178842
 30
0.0
 11
2.033293539738011
 21
7.792688293868228
 31
0.0
  0
ARC
  5
A6B
330
1F
100
AcDbEntity
  8
0
  6
Continuous
100
AcDbCircle
 10
2.017668539738011
 20
7.765624999999961
 30
0.0
 40
0.0312500000000026
100
AcDbArc
 50
299.9999999999973
 51
60.00000000000272
  0
LINE
  5
A6C
330
1F
100
AcDbEntity
  8
0
  6
Continuous
100
AcDbLine
 10
2.033293539738011
 20
7.738561706131694
 30
0.0
 11
1.870543539738009
 21
7.644597949821108
 31
0.0
  0
ARC
  5
A6D
330
1F
100
AcDbEntity
  8
0
  6
Continuous
100
AcDbCircle
 10
1.854918539738009
 20
7.671661243689375
 30
0.0
 40
0.0312500000000026
100
AcDbArc
 50
180.0
 51
299.9999999999973
  0
LINE
  5
A6E
330
1F
100
AcDbEntity
  8
0
  6
Continuous
100
AcDbLine
 10
1.823668539738009
 20
7.671661243689375
 30
0.0
 11
1.823668539738009
 21
7.765624999999975
 31
0.0
  0
LINE
  5
A6F
330
1F
100
AcDbEntity
  8
0
  6
Continuous
100
AcDbLine
 10
1.823668539738009
 20
7.765624999999975
 30
0.0
 11
1.823668539738009
 21
7.859588756310576
 31
0.0
  0
ARC
  5
A70
330
1F
100
AcDbEntity
  8
0
  6
Continuous
100
AcDbCircle
 10
1.854918539738009
 20
7.859588756310579
 30
0.0
 40
0.03125
100
AcDbArc
 50
60.00000000000109
 51
180.0000000000032
  0
ENDSEC
  0
SECTION
  2
OBJECTS
  0
DICTIONARY
  5
C
330
0
100
AcDbDictionary
281
     1
  3
ACAD_COLOR
350
A79
  3
ACAD_GROUP
350
D
  3
ACAD_LAYOUT
350
1A
  3
ACAD_MATERIAL
350
A78
  3
ACAD_MLINESTYLE
350
17
  3
ACAD_PLOTSETTINGS
350
19
  3
ACAD_PLOTSTYLENAME
350
E
  3
ACAD_TABLESTYLE
350
A7A
  3
ACDBHEADERROUNDTRIPXREC
350
A9B
  3
AcDbVariableDictionary
350
1BF
  0
DICTIONARY
  5
A79
102
{ACAD_REACTORS
330
C
102
}
330
C
100
AcDbDictionary
281
     1
  0
DICTIONARY
  5
D
102
{ACAD_REACTORS
330
C
102
}
330
C
100
AcDbDictionary
281
     1
  0
DICTIONARY
  5
1A
102
{ACAD_REACTORS
330
C
102
}
330
C
100
AcDbDictionary
281
     1
  3
Layout1
350
1E
  3
Layout2
350
26
  3
Model
350
22
  0
DICTIONARY
  5
A78
102
{ACAD_REACTORS
330
C
102
}
330
C
100
AcDbDictionary
281
     1
  0
DICTIONARY
  5
17
102
{ACAD_REACTORS
330
C
102
}
330
C
100
AcDbDictionary
281
     1
  3
Standard
350
18
  0
DICTIONARY
  5
19
102
{ACAD_REACTORS
330
C
102
}
330
C
100
AcDbDictionary
281
     1
  0
ACDBDICTIONARYWDFLT
  5
E
102
{ACAD_REACTORS
330
C
102
}
330
C
100
AcDbDictionary
281
     1
  3
Normal
350
F
100
AcDbDictionaryWithDefault
340
F
  0
DICTIONARY
  5
A7A
102
{ACAD_REACTORS
330
C
102
}
330
C
100
AcDbDictionary
281
     1
  3
Standard
350
A7B
  0
DICTIONARY
  5
A9B
102
{ACAD_REACTORS
330
C
102
}
330
C
100
AcDbDictionary
281
     1
  3
COLORDICT
350
A9C
  3
MATERIALDICT
350
A9D
  0
DICTIONARY
  5
1BF
102
{ACAD_REACTORS
330
C
102
}
330
C
100
AcDbDictionary
281
     1
  3
CTABLESTYLE
350
A86
  3
DIMASSOC
350
1C1
  3
HIDETEXT
350
1C0
  0
LAYOUT
  5
1E
102
{ACAD_REACTORS
330
1A
102
}
102
{ACAD_XDICTIONARY
360
A9E
102
}
330
1A
100
AcDbPlotSettings
  1

  2
X:\Program Files\AutoCAD2002\plotters\DWF ePlot (optimized for plotting).pc3
  4

  6

 40
0.0
 41
0.0
 42
0.0
 43
0.0
 44
0.0
 45
0.0
 46
0.0
 47
0.0
 48
0.0
 49
0.0
140
0.0
141
0.0
142
1.0
143
1.0
 70
   688
 72
     0
 73
     0
 74
     5
  7

 75
    16
147
1.0
148
0.0
149
0.0
100
AcDbLayout
  1
Layout1
 70
     1
 71
     1
 10
0.0
 20
0.0
 11
12.0
 21
9.0
 12
0.0
 22
0.0
 32
0.0
 14
1.000000000000000E+20
 24
1.000000000000000E+20
 34
1.000000000000000E+20
 15
-1.000000000000000E+20
 25
-1.000000000000000E+20
 35
-1.000000000000000E+20
146
0.0
 13
0.0
 23
0.0
 33
0.0
 16
1.0
 26
0.0
 36
0.0
 17
0.0
 27
1.0
 37
0.0
 76
     0
330
1B
  0
LAYOUT
  5
26
102
{ACAD_REACTORS
330
1A
102
}
102
{ACAD_XDICTIONARY
360
AA0
102
}
330
1A
100
AcDbPlotSettings
  1

  2
X:\Program Files\AutoCAD2002\plotters\DWF ePlot (optimized for plotting).pc3
  4

  6

 40
0.0
 41
0.0
 42
0.0
 43
0.0
 44
0.0
 45
0.0
 46
0.0
 47
0.0
 48
0.0
 49
0.0
140
0.0
141
0.0
142
1.0
143
1.0
 70
   688
 72
     0
 73
     0
 74
     5
  7

 75
    16
147
1.0
148
0.0
149
0.0
100
AcDbLayout
  1
Layout2
 70
     1
 71
     2
 10
0.0
 20
0.0
 11
12.0
 21
9.0
 12
0.0
 22
0.0
 32
0.0
 14
0.0
 24
0.0
 34
0.0
 15
0.0
 25
0.0
 35
0.0
146
0.0
 13
0.0
 23
0.0
 33
0.0
 16
1.0
 26
0.0
 36
0.0
 17
0.0
 27
1.0
 37
0.0
 76
     0
330
23
  0
LAYOUT
  5
22
102
{ACAD_REACTORS
330
1A
102
}
102
{ACAD_XDICTIONARY
360
AA2
102
}
330
1A
100
AcDbPlotSettings
  1

  2
X:\Program Files\AutoCAD2002\plotters\DWF ePlot (optimized for plotting).pc3
  4

  6

 40
0.0
 41
0.0
 42
0.0
 43
0.0
 44
0.0
 45
0.0
 46
0.0
 47
0.0
 48
0.0
 49
0.0
140
0.0
141
0.0
142
1.0
143
1.0
 70
  1712
 72
     0
 73
     0
 74
     0
  7

 75
     0
147
1.0
148
0.0
149
0.0
100
AcDbLayout
  1
Model
 70
     1
 71
     0
 10
0.0
 20
0.0
 11
12.0
 21
9.0
 12
0.0
 22
0.0
 32
0.0
 14
0.0
 24
0.0
 34
0.0
 15
0.0
 25
0.0
 35
0.0
146
0.0
 13
0.0
 23
0.0
 33
0.0
 16
1.0
 26
0.0
 36
0.0
 17
0.0
 27
1.0
 37
0.0
 76
     0
330
1F
  0
MLINESTYLE
  5
18
102
{ACAD_REACTORS
330
17
102
}
330
17
100
AcDbMlineStyle
  2
STANDARD
 70
     0
  3

 62
   256
 51
90.0
 52
90.0
 71
     2
 49
0.5
 62
   256
  6
BYLAYER
 49
-0.5
 62
   256
  6
BYLAYER
  0
ACDBPLACEHOLDER
  5
F
102
{ACAD_REACTORS
330
E
102
}
330
E
  0
ACAD_PROXY_OBJECT
  5
A7B
102
{ACAD_REACTORS
330
A7A
102
}
330
A7A
100
AcDbProxyObject
 90
      499
 91
      504
 95
   983063
 70
     0
 93
     1841
310
4214DD185B99185C9928B81E85EB51B8AE3F2E07A17AD46E2B8FC02B5E8DC0F42B1CFD028000000C1008070000C3001FDFF8000000C1003FBFF000000182007F7FE00000030400FEFFC00000060801FDFF8000000C1003FBFF00000018200000000000000681FA0B0000001820100E000186003FBFF000000182007F7FE000
310
00030400FEFFC00000060801FDFF8000000C1003FBFF000000182007F7FE000000304000AD7A3703D0AC73F4160000003040201C00030C007F7FE00000030400FEFFC00000060801FDFF8000000C1003FBFF000000182007F7FE00000030400FEFFC000000608000
340
11
340
11
340
11
 94
        0
  0
XRECORD
  5
A9C
102
{ACAD_REACTORS
330
A9B
102
}
330
A9B
100
AcDbXrecord
340
A79
  0
XRECORD
  5
A9D
102
{ACAD_REACTORS
330
A9B
102
}
330
A9B
100
AcDbXrecord
340
A78
  0
DICTIONARYVAR
  5
A86
102
{ACAD_REACTORS
330
1BF
102
}
330
1BF
100
DictionaryVariables
280
     0
  1
STANDARD
  0
DICTIONARYVAR
  5
1C1
102
{ACAD_REACTORS
330
1BF
102
}
330
1BF
100
DictionaryVariables
280
     0
  1
2
  0
DICTIONARYVAR
  5
1C0
102
{ACAD_REACTORS
330
1BF
102
}
330
1BF
100
DictionaryVariables
280
     0
  1
1
  0
DICTIONARY
  5
A9E
330
1E
100
AcDbDictionary
280
     1
281
     1
  3
ACAD_XREC_ROUNDTRIP
360
A9F
  0
DICTIONARY
  5
AA0
330
26
100
AcDbDictionary
280
     1
281
     1
  3
ACAD_XREC_ROUNDTRIP
360
AA1
  0
DICTIONARY
  5
AA2
330
22
100
AcDbDictionary
280
     1
281
     1
  3
ACAD_XREC_ROUNDTRIP
360
AA3
  0
XRECORD
  5
A9F
102
{ACAD_REACTORS
330
A9E
102
}
330
A9E
100
AcDbXrecord
102
SHADEPLOT
 70
     0
102
SHADEPLOTRESLEVEL
 70
     2
102
SHADEPLOTCUSTOMDPI
 70
   300
  0
XRECORD
  5
AA1
102
{ACAD_REACTORS
330
AA0
102
}
330
AA0
100
AcDbXrecord
102
SHADEPLOT
 70
     0
102
SHADEPLOTRESLEVEL
 70
     2
102
SHADEPLOTCUSTOMDPI
 70
   300
  0
XRECORD
  5
AA3
102
{ACAD_REACTORS
330
AA2
102
}
330
AA2
100
AcDbXrecord
102
SHADEPLOT
 70
     0
102
SHADEPLOTRESLEVEL
 70
     2
102
SHADEPLOTCUSTOMDPI
 70
   300
  0
ENDSEC
  0
EOF
