  0
SECTION
  2
HEADER
  9
$ACADVER
  1
AC1015
  9
$ACADMAINTVER
 70
     6
  9
$DWGCODEPAGE
  3
ANSI_1252
  9
$INSBASE
 10
0.0
 20
0.0
 30
0.0
  9
$EXTMIN
 10
0.0340174012277572
 20
-0.0894710430818364
 30
-0.0000000000000091
  9
$EXTMAX
 10
19.18613156209749
 20
15.83736052305216
 30
0.000000000000007
  9
$LIMMIN
 10
0.0
 20
0.0
  9
$LIMMAX
 10
12.0
 20
9.0
  9
$ORTHOMODE
 70
     1
  9
$REGENMODE
 70
     1
  9
$FILLMODE
 70
     1
  9
$QTEXTMODE
 70
     0
  9
$MIRRTEXT
 70
     1
  9
$LTSCALE
 40
1.0
  9
$ATTMODE
 70
     1
  9
$TEXTSIZE
 40
0.2
  9
$TRACEWID
 40
0.05
  9
$TEXTSTYLE
  7
Standard
  9
$CLAYER
  8
0
  9
$CELTYPE
  6
ByLayer
  9
$CECOLOR
 62
   256
  9
$CELTSCALE
 40
1.0
  9
$DISPSILH
 70
     0
  9
$DIMSCALE
 40
1.0
  9
$DIMASZ
 40
0.18
  9
$DIMEXO
 40
0.0625
  9
$DIMDLI
 40
0.38
  9
$DIMRND
 40
0.0
  9
$DIMDLE
 40
0.0
  9
$DIMEXE
 40
0.18
  9
$DIMTP
 40
0.0
  9
$DIMTM
 40
0.0
  9
$DIMTXT
 40
0.18
  9
$DIMCEN
 40
0.09
  9
$DIMTSZ
 40
0.0
  9
$DIMTOL
 70
     0
  9
$DIMLIM
 70
     0
  9
$DIMTIH
 70
     1
  9
$DIMTOH
 70
     1
  9
$DIMSE1
 70
     0
  9
$DIMSE2
 70
     0
  9
$DIMTAD
 70
     0
  9
$DIMZIN
 70
     0
  9
$DIMBLK
  1

  9
$DIMASO
 70
     1
  9
$DIMSHO
 70
     1
  9
$DIMPOST
  1

  9
$DIMAPOST
  1

  9
$DIMALT
 70
     0
  9
$DIMALTD
 70
     2
  9
$DIMALTF
 40
25.4
  9
$DIMLFAC
 40
1.0
  9
$DIMTOFL
 70
     0
  9
$DIMTVP
 40
0.0
  9
$DIMTIX
 70
     0
  9
$DIMSOXD
 70
     0
  9
$DIMSAH
 70
     0
  9
$DIMBLK1
  1

  9
$DIMBLK2
  1

  9
$DIMSTYLE
  2
Standard
  9
$DIMCLRD
 70
     0
  9
$DIMCLRE
 70
     0
  9
$DIMCLRT
 70
     0
  9
$DIMTFAC
 40
1.0
  9
$DIMGAP
 40
0.09
  9
$DIMJUST
 70
     0
  9
$DIMSD1
 70
     0
  9
$DIMSD2
 70
     0
  9
$DIMTOLJ
 70
     1
  9
$DIMTZIN
 70
     0
  9
$DIMALTZ
 70
     0
  9
$DIMALTTZ
 70
     0
  9
$DIMUPT
 70
     0
  9
$DIMDEC
 70
     4
  9
$DIMTDEC
 70
     4
  9
$DIMALTU
 70
     2
  9
$DIMALTTD
 70
     2
  9
$DIMTXSTY
  7
Standard
  9
$DIMAUNIT
 70
     0
  9
$DIMADEC
 70
     0
  9
$DIMALTRND
 40
0.0
  9
$DIMAZIN
 70
     0
  9
$DIMDSEP
 70
    46
  9
$DIMATFIT
 70
     3
  9
$DIMFRAC
 70
     0
  9
$DIMLDRBLK
  1

  9
$DIMLUNIT
 70
     2
  9
$DIMLWD
 70
    -2
  9
$DIMLWE
 70
    -2
  9
$DIMTMOVE
 70
     0
  9
$LUNITS
 70
     2
  9
$LUPREC
 70
     4
  9
$SKETCHINC
 40
0.1
  9
$FILLETRAD
 40
0.5
  9
$AUNITS
 70
     0
  9
$AUPREC
 70
     0
  9
$MENU
  1
.
  9
$ELEVATION
 40
0.0
  9
$PELEVATION
 40
0.0
  9
$THICKNESS
 40
0.0
  9
$LIMCHECK
 70
     0
  9
$CHAMFERA
 40
0.5
  9
$CHAMFERB
 40
0.5
  9
$CHAMFERC
 40
1.0
  9
$CHAMFERD
 40
0.0
  9
$SKPOLY
 70
     0
  9
$TDCREATE
 40
2453420.559099167
  9
$TDUCREATE
 40
2453420.8924325
  9
$TDUPDATE
 40
2454165.795675845
  9
$TDUUPDATE
 40
2454166.129009178
  9
$TDINDWG
 40
0.1526214815
  9
$TDUSRTIMER
 40
0.1526214815
  9
$USRTIMER
 70
     1
  9
$ANGBASE
 50
0.0
  9
$ANGDIR
 70
     0
  9
$PDMODE
 70
     0
  9
$PDSIZE
 40
0.0
  9
$PLINEWID
 40
0.0
  9
$SPLFRAME
 70
     0
  9
$SPLINETYPE
 70
     6
  9
$SPLINESEGS
 70
     8
  9
$HANDSEED
  5
A91
  9
$SURFTAB1
 70
     6
  9
$SURFTAB2
 70
     6
  9
$SURFTYPE
 70
     6
  9
$SURFU
 70
     6
  9
$SURFV
 70
     6
  9
$UCSBASE
  2

  9
$UCSNAME
  2

  9
$UCSORG
 10
0.0
 20
0.0
 30
0.0
  9
$UCSXDIR
 10
1.0
 20
0.0
 30
0.0
  9
$UCSYDIR
 10
0.0
 20
1.0
 30
0.0
  9
$UCSORTHOREF
  2

  9
$UCSORTHOVIEW
 70
     0
  9
$UCSORGTOP
 10
0.0
 20
0.0
 30
0.0
  9
$UCSORGBOTTOM
 10
0.0
 20
0.0
 30
0.0
  9
$UCSORGLEFT
 10
0.0
 20
0.0
 30
0.0
  9
$UCSORGRIGHT
 10
0.0
 20
0.0
 30
0.0
  9
$UCSORGFRONT
 10
0.0
 20
0.0
 30
0.0
  9
$UCSORGBACK
 10
0.0
 20
0.0
 30
0.0
  9
$PUCSBASE
  2

  9
$PUCSNAME
  2

  9
$PUCSORG
 10
0.0
 20
0.0
 30
0.0
  9
$PUCSXDIR
 10
1.0
 20
0.0
 30
0.0
  9
$PUCSYDIR
 10
0.0
 20
1.0
 30
0.0
  9
$PUCSORTHOREF
  2

  9
$PUCSORTHOVIEW
 70
     0
  9
$PUCSORGTOP
 10
0.0
 20
0.0
 30
0.0
  9
$PUCSORGBOTTOM
 10
0.0
 20
0.0
 30
0.0
  9
$PUCSORGLEFT
 10
0.0
 20
0.0
 30
0.0
  9
$PUCSORGRIGHT
 10
0.0
 20
0.0
 30
0.0
  9
$PUCSORGFRONT
 10
0.0
 20
0.0
 30
0.0
  9
$PUCSORGBACK
 10
0.0
 20
0.0
 30
0.0
  9
$USERI1
 70
     0
  9
$USERI2
 70
     0
  9
$USERI3
 70
     0
  9
$USERI4
 70
     0
  9
$USERI5
 70
     0
  9
$USERR1
 40
0.0
  9
$USERR2
 40
0.0
  9
$USERR3
 40
0.0
  9
$USERR4
 40
0.0
  9
$USERR5
 40
0.0
  9
$WORLDVIEW
 70
     1
  9
$SHADEDGE
 70
     3
  9
$SHADEDIF
 70
    70
  9
$TILEMODE
 70
     1
  9
$MAXACTVP
 70
    64
  9
$PINSBASE
 10
0.0
 20
0.0
 30
0.0
  9
$PLIMCHECK
 70
     0
  9
$PEXTMIN
 10
1.000000000000000E+20
 20
1.000000000000000E+20
 30
1.000000000000000E+20
  9
$PEXTMAX
 10
-1.000000000000000E+20
 20
-1.000000000000000E+20
 30
-1.000000000000000E+20
  9
$PLIMMIN
 10
0.0
 20
0.0
  9
$PLIMMAX
 10
12.0
 20
9.0
  9
$UNITMODE
 70
     0
  9
$VISRETAIN
 70
     1
  9
$PLINEGEN
 70
     0
  9
$PSLTSCALE
 70
     1
  9
$TREEDEPTH
 70
  3020
  9
$CMLSTYLE
  2
Standard
  9
$CMLJUST
 70
     0
  9
$CMLSCALE
 40
1.0
  9
$PROXYGRAPHICS
 70
     1
  9
$MEASUREMENT
 70
     0
  9
$CELWEIGHT
370
    -1
  9
$ENDCAPS
280
     0
  9
$JOINSTYLE
280
     0
  9
$LWDISPLAY
290
     0
  9
$INSUNITS
 70
     1
  9
$HYPERLINKBASE
  1

  9
$STYLESHEET
  1

  9
$XEDIT
290
     1
  9
$CEPSNTYPE
380
     0
  9
$PSTYLEMODE
290
     1
  9
$FINGERPRINTGUID
  2
{EC68BE3A-3147-4A5B-AE38-20E2D0E3D53F}
  9
$VERSIONGUID
  2
{9B5691B1-3FBF-4C6C-A754-AAE1779DFEE3}
  9
$EXTNAMES
290
     1
  9
$PSVPSCALE
 40
0.0
  9
$OLESTARTUP
290
     0
  0
ENDSEC
  0
SECTION
  2
CLASSES
  0
CLASS
  1
ACDBDICTIONARYWDFLT
  2
AcDbDictionaryWithDefault
  3
AutoCAD 2000
 90
        0
280
     0
281
     0
  0
CLASS
  1
ACDBPLACEHOLDER
  2
AcDbPlaceHolder
  3
ObjectDBX Classes
 90
        0
280
     0
281
     0
  0
CLASS
  1
LAYOUT
  2
AcDbLayout
  3
ObjectDBX Classes
 90
        0
280
     0
281
     0
  0
CLASS
  1
DICTIONARYVAR
  2
AcDbDictionaryVar
  3
AutoCAD 2000
 90
        0
280
     0
281
     0
  0
CLASS
  1
TABLESTYLE
  2
AcDbTableStyle
  3
ObjectDBX Classes
 90
     2047
280
     1
281
     0
  0
ENDSEC
  0
SECTION
  2
TABLES
  0
TABLE
  2
VPORT
  5
8
330
0
100
AcDbSymbolTable
 70
     2
  0
VPORT
  5
A7E
330
8
100
AcDbSymbolTableRecord
100
AcDbViewportTableRecord
  2
*Active
 70
     0
 10
0.0
 20
0.0
 11
1.0
 21
1.0
 12
13.07012745156207
 22
9.667906985414732
 13
0.0
 23
0.0
 14
0.5
 24
0.5
 15
0.5
 25
0.5
 16
0.0
 26
0.0
 36
1.0
 17
0.0
 27
0.0
 37
0.0
 40
25.80080490698022
 41
1.814583333333333
 42
50.0
 43
0.0
 44
0.0
 50
0.0
 51
0.0
 71
     0
 72
   100
 73
     1
 74
     3
 75
     0
 76
     0
 77
     0
 78
     0
281
     0
 65
     1
110
0.0
120
0.0
130
0.0
111
1.0
121
0.0
131
0.0
112
0.0
122
1.0
132
0.0
 79
     0
146
0.0
  0
ENDTAB
  0
TABLE
  2
LTYPE
  5
5
330
0
100
AcDbSymbolTable
 70
     2
  0
LTYPE
  5
14
330
5
100
AcDbSymbolTableRecord
100
AcDbLinetypeTableRecord
  2
ByBlock
 70
     0
  3

 72
    65
 73
     0
 40
0.0
  0
LTYPE
  5
15
330
5
100
AcDbSymbolTableRecord
100
AcDbLinetypeTableRecord
  2
ByLayer
 70
     0
  3

 72
    65
 73
     0
 40
0.0
  0
LTYPE
  5
16
330
5
100
AcDbSymbolTableRecord
100
AcDbLinetypeTableRecord
  2
Continuous
 70
     0
  3
Solid line
 72
    65
 73
     0
 40
0.0
  0
LTYPE
  5
1C2
330
5
100
AcDbSymbolTableRecord
100
AcDbLinetypeTableRecord
  2
HIDDEN
 70
     0
  3
_ _ _ _ _ _ _ _ _ _ _ _ _ _ _ _ _ _ _ _ _ _ _
 72
    65
 73
     2
 40
0.375
 49
0.25
 74
     0
 49
-0.125
 74
     0
  0
ENDTAB
  0
TABLE
  2
LAYER
  5
2
330
0
100
AcDbSymbolTable
 70
     1
  0
LAYER
  5
10
330
2
100
AcDbSymbolTableRecord
100
AcDbLayerTableRecord
  2
0
 70
     0
 62
     7
  6
Continuous
370
    -3
390
F
  0
ENDTAB
  0
TABLE
  2
STYLE
  5
3
330
0
100
AcDbSymbolTable
 70
     1
  0
STYLE
  5
11
330
3
100
AcDbSymbolTableRecord
100
AcDbTextStyleTableRecord
  2
Standard
 70
     0
 40
0.0
 41
1.0
 50
0.0
 71
     0
 42
0.2
  3
txt
  4

  0
ENDTAB
  0
TABLE
  2
VIEW
  5
6
330
0
100
AcDbSymbolTable
 70
     0
  0
ENDTAB
  0
TABLE
  2
UCS
  5
7
330
0
100
AcDbSymbolTable
 70
     0
  0
ENDTAB
  0
TABLE
  2
APPID
  5
9
330
0
100
AcDbSymbolTable
 70
     1
  0
APPID
  5
12
330
9
100
AcDbSymbolTableRecord
100
AcDbRegAppTableRecord
  2
ACAD
 70
     0
  0
ENDTAB
  0
TABLE
  2
DIMSTYLE
  5
A
330
0
100
AcDbSymbolTable
 70
     1
100
AcDbDimStyleTable
  0
DIMSTYLE
105
27
330
A
100
AcDbSymbolTableRecord
100
AcDbDimStyleTableRecord
  2
Standard
 70
     0
  3

  4

340
11
  0
ENDTAB
  0
TABLE
  2
BLOCK_RECORD
  5
1
330
0
100
AcDbSymbolTable
 70
     1
  0
BLOCK_RECORD
  5
1F
330
1
100
AcDbSymbolTableRecord
100
AcDbBlockTableRecord
  2
*Model_Space
340
22
  0
BLOCK_RECORD
  5
1B
330
1
100
AcDbSymbolTableRecord
100
AcDbBlockTableRecord
  2
*Paper_Space
340
1E
  0
BLOCK_RECORD
  5
23
330
1
100
AcDbSymbolTableRecord
100
AcDbBlockTableRecord
  2
*Paper_Space0
340
26
  0
ENDTAB
  0
ENDSEC
  0
SECTION
  2
BLOCKS
  0
BLOCK
  5
20
330
1F
100
AcDbEntity
  8
0
100
AcDbBlockBegin
  2
*Model_Space
 70
     0
 10
0.0
 20
0.0
 30
0.0
  3
*Model_Space
  1

  4

  0
ENDBLK
  5
21
330
1F
100
AcDbEntity
  8
0
100
AcDbBlockEnd
  0
BLOCK
  5
1C
330
1B
100
AcDbEntity
 67
     1
  8
0
100
AcDbBlockBegin
  2
*Paper_Space
 70
     0
 10
0.0
 20
0.0
 30
0.0
  3
*Paper_Space
  1

  4

  0
ENDBLK
  5
1D
330
1B
100
AcDbEntity
 67
     1
  8
0
100
AcDbBlockEnd
  0
BLOCK
  5
24
330
23
100
AcDbEntity
  8
0
100
AcDbBlockBegin
  2
*Paper_Space0
 70
     0
 10
0.0
 20
0.0
 30
0.0
  3
*Paper_Space0
  1

  4

  0
ENDBLK
  5
25
330
23
100
AcDbEntity
  8
0
100
AcDbBlockEnd
  0
ENDSEC
  0
SECTION
  2
ENTITIES
  0
ARC
  5
8AA
330
1F
100
AcDbEntity
  8
0
  6
Continuous
100
AcDbCircle
 10
10.66072939134365
 20
4.843749999999879
 30
0.0
 40
0.06
100
AcDbArc
 50
301.631166275524
 51
58.36883372447601
  0
LINE
  5
8AB
330
1F
100
AcDbEntity
  8
0
  6
Continuous
100
AcDbLine
 10
11.84572939134358
 20
4.911800461042319
 30
0.0
 11
11.8457293913436
 21
4.286800461042319
 31
0.0
  0
LINE
  5
8AC
330
1F
100
AcDbEntity
  8
0
100
AcDbLine
 10
10.47072939134363
 20
0.0625000000000133
 30
0.0
 11
10.47072939134363
 21
9.093749999999996
 31
0.0
  0
LINE
  5
8AD
330
1F
100
AcDbEntity
  8
0
100
AcDbLine
 10
10.53322939134363
 20
0.0625000000000062
 30
0.0
 11
10.53322939134363
 21
9.093749999999996
 31
0.0
  0
ARC
  5
8AF
330
1F
100
AcDbEntity
  8
0
  6
Continuous
100
AcDbCircle
 10
0.2246519064550654
 20
4.84374999999989
 30
0.0
 40
0.06
100
AcDbArc
 50
301.631166275524
 51
58.36883372447566
  0
LINE
  5
8B0
330
1F
100
AcDbEntity
  8
0
  6
Continuous
100
AcDbLine
 10
2.159651906455068
 20
4.286800461042328
 30
0.0
 11
2.159651906455096
 21
4.911800461042329
 31
0.0
  0
LINE
  5
8B1
330
1F
100
AcDbEntity
  8
0
  6
Continuous
100
AcDbLine
 10
0.0346519064550392
 20
0.1519555937132644
 30
0.0
 11
0.0346519064550392
 21
9.093750000000018
 31
0.0
  0
LINE
  5
8B2
330
1F
100
AcDbEntity
  8
0
100
AcDbLine
 10
0.0839619373545659
 20
9.093750000000021
 30
0.0
 11
0.0839619373545801
 21
0.1067424821282685
 31
0.0
  0
ARC
  5
8B3
330
1F
100
AcDbEntity
  8
0
  6
Continuous
100
AcDbCircle
 10
8.655729391343634
 20
4.843749999999883
 30
0.0
 40
0.06
100
AcDbArc
 50
121.631166275524
 51
238.368833724476
  0
LINE
  5
8B4
330
1F
100
AcDbEntity
  8
0
  6
Continuous
100
AcDbLine
 10
7.47072939134371
 20
4.911800461042322
 30
0.0
 11
7.470729391343681
 21
4.286800461042321
 31
0.0
  0
LINE
  5
8B5
330
1F
100
AcDbEntity
  8
0
100
AcDbLine
 10
8.845729391343653
 20
0.0625000000000151
 30
0.0
 11
8.845729391343649
 21
9.093749999999996
 31
0.0
  0
LINE
  5
8B6
330
1F
100
AcDbEntity
  8
0
100
AcDbLine
 10
8.783229391343653
 20
0.062500000000008
 30
0.0
 11
8.783229391343646
 21
9.093749999999993
 31
0.0
  0
ARC
  5
8B7
330
1F
100
AcDbEntity
  8
0
  6
Continuous
100
AcDbCircle
 10
3.159651906455057
 20
1.912161571547411
 30
0.0
 40
1.000000000000003
100
AcDbArc
 50
179.9999999999976
 51
224.9999999999991
  0
LINE
  5
8B8
330
1F
100
AcDbEntity
  8
0
  6
HIDDEN
100
AcDbLine
 10
3.567931251166385
 20
-0.0000000000000107
 30
0.0
 11
0.1616812511663852
 21
0.0000000000000107
 31
0.0
  0
LINE
  5
8B9
330
1F
100
AcDbEntity
  8
0
100
AcDbLine
 10
3.658955741511143
 20
-0.0625000000000107
 30
0.0
 11
0.1616812511663852
 21
-0.0624999999999893
 31
0.0
  0
CIRCLE
  5
8BA
330
1F
100
AcDbEntity
  8
0
  6
Continuous
100
AcDbCircle
 10
1.565901906455053
 20
2.296874999999989
 30
0.0
 40
0.0855
  0
LINE
  5
8BB
330
1F
100
AcDbEntity
  8
0
  6
Continuous
100
AcDbLine
 10
2.159651906455053
 20
1.912161571547454
 30
0.0
 11
2.159651906455096
 21
3.161800461042314
 31
0.0
  0
ARC
  5
8BC
330
1F
100
AcDbEntity
  8
0
  6
Continuous
100
AcDbCircle
 10
-0.2778480935448471
 20
-0.2383567811866527
 30
0.0
 40
0.4999999999999437
100
AcDbArc
 50
28.47097865576721
 51
51.31781254652737
  0
LINE
  5
8BD
330
1F
100
AcDbEntity
  8
0
100
AcDbLine
 10
0.1616812511663852
 20
0.0000000000000107
 30
0.0
 11
0.1616812511663852
 21
-0.0624999999999893
 31
0.0
  0
CIRCLE
  5
8BE
330
1F
100
AcDbEntity
  8
0
  6
Continuous
100
AcDbCircle
 10
0.9726519064551127
 20
1.796874999999989
 30
0.0
 40
0.0855
  0
CIRCLE
  5
8BF
330
1F
100
AcDbEntity
  8
0
  6
Continuous
100
AcDbCircle
 10
1.758739849432438
 20
1.203124999999989
 30
0.0
 40
0.0855
  0
CIRCLE
  5
8C0
330
1F
100
AcDbEntity
  8
0
  6
Continuous
100
AcDbCircle
 10
1.284651906455061
 20
1.296874999999989
 30
0.0
 40
0.0855
  0
LINE
  5
8C1
330
1F
100
AcDbEntity
  8
0
  6
Continuous
100
AcDbLine
 10
1.847151906455068
 20
3.411800461042343
 30
0.0
 11
1.847151906455096
 21
4.036800461042328
 31
0.0
  0
ARC
  5
8C2
330
1F
100
AcDbEntity
  8
0
  6
Continuous
100
AcDbCircle
 10
0.0346519064550534
 20
2.579124999999865
 30
0.0
 40
0.1875
100
AcDbArc
 50
285.247364245756
 51
74.75263575424388
  0
ARC
  5
8C3
330
1F
100
AcDbEntity
  8
0
  6
Continuous
100
AcDbCircle
 10
0.2246519064550654
 20
3.343749999999889
 30
0.0
 40
0.06
100
AcDbArc
 50
301.631166275524
 51
58.36883372447566
  0
LINE
  5
8C4
330
1F
100
AcDbEntity
  8
0
  6
Continuous
100
AcDbLine
 10
0.0839619373545872
 20
3.500877280176924
 30
0.0
 11
0.2561188541833559
 21
3.394836507031239
 31
0.0
  0
LINE
  5
8C5
330
1F
100
AcDbEntity
  8
0
  6
Continuous
100
AcDbLine
 10
0.0839619373545872
 20
3.186622719822842
 30
0.0
 11
0.2561188541833559
 21
3.292663492968539
 31
0.0
  0
CIRCLE
  5
8C6
330
1F
100
AcDbEntity
  8
0
  6
Continuous
100
AcDbCircle
 10
0.9726519064551127
 20
3.296874999999989
 30
0.0
 40
0.0855
  0
CIRCLE
  5
8C7
330
1F
100
AcDbEntity
  8
0
  6
Continuous
100
AcDbCircle
 10
1.878401906455039
 20
2.671874999999989
 30
0.0
 40
0.0855
  0
ARC
  5
8C8
330
1F
100
AcDbEntity
  8
0
  6
Continuous
100
AcDbCircle
 10
2.034651906455082
 20
3.161800461042321
 30
0.0
 40
0.1250000000000142
100
AcDbArc
 50
0.0
 51
90.00000000000651
  0
LINE
  5
8C9
330
1F
100
AcDbEntity
  8
0
  6
Continuous
100
AcDbLine
 10
2.034651906455068
 20
3.286800461042328
 30
0.0
 11
1.972151906455096
 21
3.286800461042328
 31
0.0
  0
ARC
  5
8CA
330
1F
100
AcDbEntity
  8
0
  6
Continuous
100
AcDbCircle
 10
1.972151906455082
 20
3.41180046104235
 30
0.0
 40
0.1250000000000142
100
AcDbArc
 50
180.0
 51
270.0000000000065
  0
LINE
  5
8CB
330
1F
100
AcDbEntity
  8
0
  6
Continuous
100
AcDbLine
 10
0.083961937354573
 20
4.686622719822839
 30
0.0
 11
0.2561188541833559
 21
4.79266349296854
 31
0.0
  0
ARC
  5
8CD
330
1F
100
AcDbEntity
  8
0
  6
Continuous
100
AcDbCircle
 10
2.034651906455082
 20
4.286800461042321
 30
0.0
 40
0.1249999999999858
100
AcDbArc
 50
270.0000000000065
 51
0.0000000000065138
  0
CIRCLE
  5
8CE
330
1F
100
AcDbEntity
  8
0
  6
Continuous
100
AcDbCircle
 10
1.565901906455053
 20
3.796874999999989
 30
0.0
 40
0.0855
  0
LINE
  5
8CF
330
1F
100
AcDbEntity
  8
0
  6
Continuous
100
AcDbLine
 10
1.972151906455068
 20
4.161800461042328
 30
0.0
 11
2.034651906455096
 21
4.161800461042328
 31
0.0
  0
ARC
  5
8D0
330
1F
100
AcDbEntity
  8
0
  6
Continuous
100
AcDbCircle
 10
1.972151906455082
 20
4.03680046104235
 30
0.0
 40
0.1249999999999858
100
AcDbArc
 50
90.00000000000651
 51
180.0000000000067
  0
LINE
  5
8D2
330
1F
100
AcDbEntity
  8
0
  6
Continuous
100
AcDbLine
 10
3.481955297048359
 20
0.1151966094066061
 30
0.0
 11
2.452545125268497
 21
1.205054790360872
 31
0.0
  0
LINE
  5
8D3
330
1F
100
AcDbEntity
  8
0
100
AcDbLine
 10
3.567931251166385
 20
-0.0000000000000107
 30
0.0
 11
3.658955741511143
 21
-0.0000000000000107
 31
0.0
  0
LINE
  5
8D4
330
1F
100
AcDbEntity
  8
0
100
AcDbLine
 10
3.658955741511143
 20
-0.0625000000000107
 30
0.0
 11
3.658955741511143
 21
-0.0000000000000107
 31
0.0
  0
ARC
  5
8D5
330
1F
100
AcDbEntity
  8
0
  6
Continuous
100
AcDbCircle
 10
3.128401906455153
 20
-0.2383567811866527
 30
0.0
 40
0.4999999999999432
100
AcDbArc
 50
20.59216011371911
 51
45.00000000000465
  0
LINE
  5
8D6
330
1F
100
AcDbEntity
  8
0
  6
Continuous
100
AcDbLine
 10
11.55283617253019
 20
1.304878112409857
 30
0.0
 11
10.53322939134363
 21
0.2192093948484066
 31
0.0
  0
LINE
  5
8D7
330
1F
100
AcDbEntity
  8
0
  6
Continuous
100
AcDbLine
 10
7.470729391343717
 20
3.161800461042307
 30
0.0
 11
7.470729391343674
 21
2.011984893596432
 31
0.0
  0
LINE
  5
8D8
330
1F
100
AcDbEntity
  8
0
100
AcDbLine
 10
10.40822939134363
 20
-0.0624999999999938
 30
0.0
 11
8.908229391343653
 21
-0.062499999999992
 31
0.0
  0
LINE
  5
8D9
330
1F
100
AcDbEntity
  8
0
100
AcDbLine
 10
10.40822939134363
 20
0.0000000000000133
 30
0.0
 11
8.908229391343653
 21
0.0000000000000151
 31
0.0
  0
CIRCLE
  5
8DA
330
1F
100
AcDbEntity
  8
0
  6
Continuous
100
AcDbCircle
 10
8.345729391343667
 20
1.079124999999858
 30
0.0
 40
0.0855
  0
LINE
  5
8DB
330
1F
100
AcDbEntity
  8
0
  6
Continuous
100
AcDbLine
 10
7.763622610157114
 20
1.304878112409852
 30
0.0
 11
8.783229391343657
 21
0.2192093948484066
 31
0.0
  0
ARC
  5
8DC
330
1F
100
AcDbEntity
  8
0
100
AcDbCircle
 10
8.908229391343653
 20
0.062500000000008
 30
0.0
 40
0.125
100
AcDbArc
 50
180.0
 51
269.9999999999999
  0
ARC
  5
8DD
330
1F
100
AcDbEntity
  8
0
100
AcDbCircle
 10
8.908229391343653
 20
0.0625000000000151
 30
0.0
 40
0.0625
100
AcDbArc
 50
180.0
 51
269.9999999999998
  0
CIRCLE
  5
8DE
330
1F
100
AcDbEntity
  8
0
  6
Continuous
100
AcDbCircle
 10
7.876979391343667
 20
1.579124999999858
 30
0.0
 40
0.0855
  0
ARC
  5
8DF
330
1F
100
AcDbEntity
  8
0
  6
Continuous
100
AcDbCircle
 10
8.470729391343674
 20
2.011984893596389
 30
0.0
 40
1.0
100
AcDbArc
 50
179.9999999999976
 51
224.9999999999991
  0
CIRCLE
  5
8E0
330
1F
100
AcDbEntity
  8
0
  6
Continuous
100
AcDbCircle
 10
8.345729391343667
 20
2.079124999999858
 30
0.0
 40
0.0855
  0
CIRCLE
  5
8E1
330
1F
100
AcDbEntity
  8
0
  6
Continuous
100
AcDbCircle
 10
10.97072939134362
 20
1.079124999999856
 30
0.0
 40
0.0855
  0
ARC
  5
8E2
330
1F
100
AcDbEntity
  8
0
100
AcDbCircle
 10
10.40822939134363
 20
0.0625000000000133
 30
0.0
 40
0.0625
100
AcDbArc
 50
270.0000000000002
 51
0.0
  0
ARC
  5
8E3
330
1F
100
AcDbEntity
  8
0
100
AcDbCircle
 10
10.40822939134363
 20
0.0625000000000062
 30
0.0
 40
0.125
100
AcDbArc
 50
270.0000000000001
 51
0.0
  0
CIRCLE
  5
8E4
330
1F
100
AcDbEntity
  8
0
  6
Continuous
100
AcDbCircle
 10
10.97072939134362
 20
2.079124999999856
 30
0.0
 40
0.0855
  0
LINE
  5
8E5
330
1F
100
AcDbEntity
  8
0
  6
Continuous
100
AcDbLine
 10
7.15822939134371
 20
4.036800461042321
 30
0.0
 11
7.158229391343681
 21
3.411800461042335
 31
0.0
  0
CIRCLE
  5
8E6
330
1F
100
AcDbEntity
  8
0
  6
Continuous
100
AcDbCircle
 10
7.876979391343667
 20
3.579124999999858
 30
0.0
 40
0.0855
  0
CIRCLE
  5
8E7
330
1F
100
AcDbEntity
  8
0
  6
Continuous
100
AcDbCircle
 10
7.876979391343667
 20
2.579124999999858
 30
0.0
 40
0.0855
  0
ARC
  5
8E8
330
1F
100
AcDbEntity
  8
0
  6
Continuous
100
AcDbCircle
 10
7.345729391343703
 20
3.161800461042314
 30
0.0
 40
0.1250000000000142
100
AcDbArc
 50
0.0
 51
90.00000000000978
  0
LINE
  5
8E9
330
1F
100
AcDbEntity
  8
0
  6
Continuous
100
AcDbLine
 10
7.28322939134371
 20
3.286800461042321
 30
0.0
 11
7.345729391343681
 21
3.286800461042321
 31
0.0
  0
ARC
  5
8EA
330
1F
100
AcDbEntity
  8
0
  6
Continuous
100
AcDbCircle
 10
7.283229391343696
 20
3.411800461042343
 30
0.0
 40
0.1250000000000142
100
AcDbArc
 50
180.0
 51
270.0000000000065
  0
ARC
  5
8EB
330
1F
100
AcDbEntity
  8
0
  6
Continuous
100
AcDbCircle
 10
8.845729391343667
 20
2.579124999999858
 30
0.0
 40
0.1875
100
AcDbArc
 50
109.4712206344954
 51
250.5287793655046
  0
CIRCLE
  5
8EC
330
1F
100
AcDbEntity
  8
0
  6
Continuous
100
AcDbCircle
 10
8.345729391343667
 20
3.079124999999858
 30
0.0
 40
0.0855
  0
ARC
  5
8ED
330
1F
100
AcDbEntity
  8
0
  6
Continuous
100
AcDbCircle
 10
8.655729391343634
 20
3.343749999999882
 30
0.0
 40
0.06
100
AcDbArc
 50
121.631166275524
 51
238.368833724476
  0
LINE
  5
8EE
330
1F
100
AcDbEntity
  8
0
  6
Continuous
100
AcDbLine
 10
8.783229391343649
 20
3.492752863528749
 30
0.0
 11
8.624262443615336
 21
3.394836507031232
 31
0.0
  0
LINE
  5
8EF
330
1F
100
AcDbEntity
  8
0
  6
Continuous
100
AcDbLine
 10
8.783229391343649
 20
3.194747136471
 30
0.0
 11
8.624262443615336
 21
3.292663492968532
 31
0.0
  0
CIRCLE
  5
8F0
330
1F
100
AcDbEntity
  8
0
  6
Continuous
100
AcDbCircle
 10
7.876979391343667
 20
4.579124999999859
 30
0.0
 40
0.0855
  0
ARC
  5
8F1
330
1F
100
AcDbEntity
  8
0
  6
Continuous
100
AcDbCircle
 10
7.345729391343696
 20
4.286800461042314
 30
0.0
 40
0.1249999999999858
100
AcDbArc
 50
270.0000000000065
 51
0.0000000000065138
  0
CIRCLE
  5
8F2
330
1F
100
AcDbEntity
  8
0
  6
Continuous
100
AcDbCircle
 10
7.43947939134366
 20
3.874999999999939
 30
0.0
 40
0.0855
  0
LINE
  5
8F3
330
1F
100
AcDbEntity
  8
0
  6
Continuous
100
AcDbLine
 10
7.34572939134371
 20
4.161800461042321
 30
0.0
 11
7.283229391343681
 21
4.161800461042321
 31
0.0
  0
ARC
  5
8F4
330
1F
100
AcDbEntity
  8
0
  6
Continuous
100
AcDbCircle
 10
7.283229391343696
 20
4.036800461042343
 30
0.0
 40
0.1249999999999858
100
AcDbArc
 50
90.00000000000651
 51
180.0000000000065
  0
CIRCLE
  5
8F5
330
1F
100
AcDbEntity
  8
0
  6
Continuous
100
AcDbCircle
 10
8.345729391343667
 20
4.078124999999882
 30
0.0
 40
0.0855
  0
LINE
  5
8F6
330
1F
100
AcDbEntity
  8
0
  6
Continuous
100
AcDbLine
 10
8.783229391343649
 20
4.694747136470998
 30
0.0
 11
8.624262443615336
 21
4.792663492968533
 31
0.0
  0
ARC
  5
8F7
330
1F
100
AcDbEntity
  8
0
  6
Continuous
100
AcDbCircle
 10
10.47072939134362
 20
2.579124999999856
 30
0.0
 40
0.1875
100
AcDbArc
 50
289.4712206344954
 51
70.52877936550463
  0
ARC
  5
8F8
330
1F
100
AcDbEntity
  8
0
  6
Continuous
100
AcDbCircle
 10
10.66072939134365
 20
3.34374999999988
 30
0.0
 40
0.06
100
AcDbArc
 50
301.631166275524
 51
58.36883372447601
  0
LINE
  5
8F9
330
1F
100
AcDbEntity
  8
0
  6
Continuous
100
AcDbLine
 10
10.53322939134364
 20
3.492752863528748
 30
0.0
 11
10.69219633907195
 21
3.39483650703123
 31
0.0
  0
LINE
  5
8FA
330
1F
100
AcDbEntity
  8
0
  6
Continuous
100
AcDbLine
 10
10.53322939134364
 20
3.194747136470999
 30
0.0
 11
10.69219633907195
 21
3.29266349296853
 31
0.0
  0
CIRCLE
  5
8FB
330
1F
100
AcDbEntity
  8
0
  6
Continuous
100
AcDbCircle
 10
10.97072939134362
 20
3.079124999999856
 30
0.0
 40
0.0855
  0
CIRCLE
  5
8FC
330
1F
100
AcDbEntity
  8
0
  6
Continuous
100
AcDbCircle
 10
10.97072939134362
 20
4.07812499999988
 30
0.0
 40
0.0855
  0
LINE
  5
8FD
330
1F
100
AcDbEntity
  8
0
  6
Continuous
100
AcDbLine
 10
10.53322939134364
 20
4.694747136470998
 30
0.0
 11
10.69219633907195
 21
4.792663492968529
 31
0.0
  0
LINE
  5
8FE
330
1F
100
AcDbEntity
  8
0
  6
Continuous
100
AcDbLine
 10
11.84572939134357
 20
3.161800461042305
 30
0.0
 11
11.84572939134361
 21
2.011984893596432
 31
0.0
  0
ARC
  5
8FF
330
1F
100
AcDbEntity
  8
0
  6
Continuous
100
AcDbCircle
 10
10.84572939134363
 20
2.011984893596394
 30
0.0
 40
1.0
100
AcDbArc
 50
315.0000000000009
 51
0.0000000000024427
  0
CIRCLE
  5
900
330
1F
100
AcDbEntity
  8
0
  6
Continuous
100
AcDbCircle
 10
11.43947939134362
 20
1.579124999999856
 30
0.0
 40
0.0855
  0
CIRCLE
  5
901
330
1F
100
AcDbEntity
  8
0
  6
Continuous
100
AcDbCircle
 10
11.43947939134362
 20
3.579124999999856
 30
0.0
 40
0.0855
  0
LINE
  5
902
330
1F
100
AcDbEntity
  8
0
  6
Continuous
100
AcDbLine
 10
12.15822939134358
 20
4.036800461042319
 30
0.0
 11
12.1582293913436
 21
3.411800461042334
 31
0.0
  0
CIRCLE
  5
903
330
1F
100
AcDbEntity
  8
0
  6
Continuous
100
AcDbCircle
 10
11.43947939134362
 20
2.579124999999856
 30
0.0
 40
0.0855
  0
ARC
  5
904
330
1F
100
AcDbEntity
  8
0
  6
Continuous
100
AcDbCircle
 10
11.97072939134358
 20
3.161800461042312
 30
0.0
 40
0.1250000000000142
100
AcDbArc
 50
89.99999999999022
 51
180.0
  0
LINE
  5
905
330
1F
100
AcDbEntity
  8
0
  6
Continuous
100
AcDbLine
 10
12.03322939134358
 20
3.286800461042319
 30
0.0
 11
11.9707293913436
 21
3.286800461042319
 31
0.0
  0
ARC
  5
906
330
1F
100
AcDbEntity
  8
0
  6
Continuous
100
AcDbCircle
 10
12.03322939134359
 20
3.411800461042341
 30
0.0
 40
0.1250000000000142
100
AcDbArc
 50
269.9999999999935
 51
0.0
  0
ARC
  5
907
330
1F
100
AcDbEntity
  8
0
  6
Continuous
100
AcDbCircle
 10
11.97072939134359
 20
4.286800461042312
 30
0.0
 40
0.1249999999999858
100
AcDbArc
 50
179.9999999999935
 51
269.9999999999935
  0
CIRCLE
  5
908
330
1F
100
AcDbEntity
  8
0
  6
Continuous
100
AcDbCircle
 10
11.87697939134363
 20
3.874999999999937
 30
0.0
 40
0.0855
  0
LINE
  5
909
330
1F
100
AcDbEntity
  8
0
  6
Continuous
100
AcDbLine
 10
11.97072939134358
 20
4.161800461042319
 30
0.0
 11
12.0332293913436
 21
4.161800461042319
 31
0.0
  0
ARC
  5
90A
330
1F
100
AcDbEntity
  8
0
  6
Continuous
100
AcDbCircle
 10
12.03322939134359
 20
4.036800461042341
 30
0.0
 40
0.1249999999999858
100
AcDbArc
 50
359.9999999999934
 51
89.99999999999349
  0
CIRCLE
  5
90B
330
1F
100
AcDbEntity
  8
0
  6
Continuous
100
AcDbCircle
 10
11.43947939134362
 20
4.579124999999856
 30
0.0
 40
0.0855
  0
LINE
  5
90C
330
1F
100
AcDbEntity
  8
0
  6
Continuous
100
AcDbLine
 10
1.847151906455032
 20
6.9118004610424
 30
0.0
 11
1.847151906455071
 21
7.786800461042386
 31
0.0
  0
LINE
  5
90E
330
1F
100
AcDbEntity
  8
0
  6
Continuous
100
AcDbLine
 10
2.159651906455039
 20
6.036800461042386
 30
0.0
 11
2.159651906455068
 21
6.661800461042386
 31
0.0
  0
LINE
  5
90F
330
1F
100
AcDbEntity
  8
0
  6
Continuous
100
AcDbLine
 10
0.0839619373545872
 20
5.000877280176923
 30
0.0
 11
0.2561188541833559
 21
4.89483650703124
 31
0.0
  0
LINE
  5
911
330
1F
100
AcDbEntity
  8
0
  6
Continuous
100
AcDbLine
 10
1.847151906455068
 20
5.161800461042329
 30
0.0
 11
1.847151906455068
 21
5.786800461042443
 31
0.0
  0
ARC
  5
912
330
1F
100
AcDbEntity
  8
0
  6
Continuous
100
AcDbCircle
 10
2.034651906455082
 20
4.911800461042322
 30
0.0
 40
0.1250000000000142
100
AcDbArc
 50
0.0000000000065138
 51
90.00000000000651
  0
LINE
  5
913
330
1F
100
AcDbEntity
  8
0
  6
Continuous
100
AcDbLine
 10
2.034651906455068
 20
5.036800461042329
 30
0.0
 11
1.972151906455096
 21
5.036800461042329
 31
0.0
  0
ARC
  5
914
330
1F
100
AcDbEntity
  8
0
  6
Continuous
100
AcDbCircle
 10
1.972151906455082
 20
5.161800461042351
 30
0.0
 40
0.1250000000000142
100
AcDbArc
 50
180.0000000000067
 51
270.0000000000065
  0
LINE
  5
915
330
1F
100
AcDbEntity
  8
0
  6
Continuous
100
AcDbLine
 10
1.847151906455068
 20
5.786800461042443
 30
0.0
 11
1.847151906455068
 21
5.786800461042443
 31
0.0
  0
ARC
  5
916
330
1F
100
AcDbEntity
  8
0
  6
Continuous
100
AcDbCircle
 10
1.972151906455025
 20
5.786800461042429
 30
0.0
 40
0.1249999999999574
100
AcDbArc
 50
89.99999999999349
 51
179.9999999999935
  0
LINE
  5
917
330
1F
100
AcDbEntity
  8
0
  6
Continuous
100
AcDbLine
 10
1.972151906455039
 20
5.911800461042386
 30
0.0
 11
2.034651906455068
 21
5.911800461042443
 31
0.0
  0
ARC
  5
918
330
1F
100
AcDbEntity
  8
0
  6
Continuous
100
AcDbCircle
 10
2.034651906455082
 20
6.0368004610424
 30
0.0
 40
0.1249999999999574
100
AcDbArc
 50
269.9999999999935
 51
359.9999999999935
  0
LINE
  5
91A
330
1F
100
AcDbEntity
  8
0
  6
Continuous
100
AcDbLine
 10
0.0839619373545659
 20
6.202247719822832
 30
0.0
 11
0.2561188541833488
 21
6.308288492968533
 31
0.0
  0
LINE
  5
91B
330
1F
100
AcDbEntity
  8
0
  6
Continuous
100
AcDbLine
 10
0.0839619373545801
 20
6.516502280176916
 30
0.0
 11
0.2561188541833488
 21
6.410461507031233
 31
0.0
  0
ARC
  5
91C
330
1F
100
AcDbEntity
  8
0
  6
Continuous
100
AcDbCircle
 10
0.2246519064550583
 20
6.359374999999883
 30
0.0
 40
0.06
100
AcDbArc
 50
301.631166275524
 51
58.36883372447566
  0
ARC
  5
91D
330
1F
100
AcDbEntity
  8
0
  6
HIDDEN
100
AcDbCircle
 10
0.2246519064550583
 20
6.359374999999883
 30
0.0
 40
0.06
100
AcDbArc
 50
301.6311662755242
 51
58.36883372447584
  0
ARC
  5
91E
330
1F
100
AcDbEntity
  8
0
  6
Continuous
100
AcDbCircle
 10
2.034651906455046
 20
6.661800461042365
 30
0.0
 40
0.1250000000000213
100
AcDbArc
 50
0.0000000000097707
 51
90.00000000000325
  0
LINE
  5
91F
330
1F
100
AcDbEntity
  8
0
  6
Continuous
100
AcDbLine
 10
2.034651906455039
 20
6.786800461042386
 30
0.0
 11
1.972151906455068
 21
6.786800461042386
 31
0.0
  0
ARC
  5
920
330
1F
100
AcDbEntity
  8
0
  6
Continuous
100
AcDbCircle
 10
1.972151906455046
 20
6.9118004610424
 30
0.0
 40
0.1250000000000178
100
AcDbArc
 50
180.0000000000016
 51
270.0000000000098
  0
LINE
  5
921
330
1F
100
AcDbEntity
  8
0
  6
Continuous
100
AcDbLine
 10
2.159651906455039
 20
8.036800461042386
 30
0.0
 11
2.159651906455061
 21
8.6618004610425
 31
0.0
  0
LINE
  5
924
330
1F
100
AcDbEntity
  8
0
  6
Continuous
100
AcDbLine
 10
0.0346519064550463
 20
8.546874999999996
 30
0.0
 11
0.2561188541833559
 21
8.410461507031354
 31
0.0
  0
ARC
  5
925
330
1F
100
AcDbEntity
  8
0
  6
Continuous
100
AcDbCircle
 10
0.2246519064550618
 20
8.359374999999996
 30
0.0
 40
0.06
100
AcDbArc
 50
301.6311662755242
 51
58.36883372447584
  0
LINE
  5
926
330
1F
100
AcDbEntity
  8
0
  6
Continuous
100
AcDbLine
 10
0.0346519064550463
 20
8.171874999999996
 30
0.0
 11
0.2561188541833559
 21
8.308288492968654
 31
0.0
  0
ARC
  5
927
330
1F
100
AcDbEntity
  8
0
  6
Continuous
100
AcDbCircle
 10
2.034651906455057
 20
8.036800461042372
 30
0.0
 40
0.1249999999999858
100
AcDbArc
 50
270.0000000000065
 51
0.0000000000065138
  0
LINE
  5
92A
330
1F
100
AcDbEntity
  8
0
  6
Continuous
100
AcDbLine
 10
1.972151906455039
 20
7.911800461042386
 30
0.0
 11
2.034651906455068
 21
7.911800461042386
 31
0.0
  0
ARC
  5
92B
330
1F
100
AcDbEntity
  8
0
  6
Continuous
100
AcDbCircle
 10
1.972151906455057
 20
7.7868004610424
 30
0.0
 40
0.1249999999999858
100
AcDbArc
 50
90.00000000000651
 51
180.0000000000065
  0
LINE
  5
92C
330
1F
100
AcDbEntity
  8
0
  6
Continuous
100
AcDbLine
 10
0.0346519064550321
 20
9.093750000000018
 30
0.0
 11
1.847151906455032
 21
9.093750000000011
 31
0.0
  0
LINE
  5
92F
330
1F
100
AcDbEntity
  8
0
  6
Continuous
100
AcDbLine
 10
1.847151906455018
 20
8.911800461042528
 30
0.0
 11
1.847151906455032
 21
9.093750000000011
 31
0.0
  0
ARC
  5
930
330
1F
100
AcDbEntity
  8
0
  6
Continuous
100
AcDbCircle
 10
1.97215190645505
 20
8.911800461042528
 30
0.0
 40
0.1250000000000284
100
AcDbArc
 50
180.0
 51
270.0000000000065
  0
LINE
  5
931
330
1F
100
AcDbEntity
  8
0
  6
Continuous
100
AcDbLine
 10
2.034651906455032
 20
8.7868004610425
 30
0.0
 11
1.972151906455061
 21
8.7868004610425
 31
0.0
  0
ARC
  5
932
330
1F
100
AcDbEntity
  8
0
  6
Continuous
100
AcDbCircle
 10
2.034651906455043
 20
8.661800461042478
 30
0.0
 40
0.1250000000000213
100
AcDbArc
 50
0.0000000000097707
 51
90.00000000000325
  0
LINE
  5
933
330
1F
100
AcDbEntity
  8
0
100
AcDbLine
 10
10.47072939134363
 20
12.17077307425013
 30
0.0
 11
10.47072939134362
 21
15.67077307425013
 31
0.0
  0
LINE
  5
934
330
1F
100
AcDbEntity
  8
0
100
AcDbLine
 10
8.845729391343653
 20
12.17077307425012
 30
0.0
 11
8.845729391343632
 21
15.68599238806194
 31
0.0
  0
LINE
  5
935
330
1F
100
AcDbEntity
  8
0
100
AcDbLine
 10
10.53322939134363
 20
12.17077307425013
 30
0.0
 11
10.53322939134363
 21
15.68599238806194
 31
0.0
  0
LINE
  5
936
330
1F
100
AcDbEntity
  8
0
100
AcDbLine
 10
8.783229391343653
 20
12.17077307425012
 30
0.0
 11
8.783229391343653
 21
15.68599238806194
 31
0.0
  0
LINE
  5
937
330
1F
100
AcDbEntity
  8
0
  6
Continuous
100
AcDbLine
 10
12.15822939134364
 20
9.093749999999989
 30
0.0
 11
10.47072939134365
 21
9.093749999999996
 31
0.0
  0
LINE
  5
938
330
1F
100
AcDbEntity
  8
0
100
AcDbLine
 10
7.158229391343685
 20
7.786800461042379
 30
0.0
 11
7.158229391343653
 21
6.911800461042393
 31
0.0
  0
LINE
  5
939
330
1F
100
AcDbEntity
  8
0
100
AcDbLine
 10
7.470729391343674
 20
6.661800461042365
 30
0.0
 11
7.470729391343653
 21
6.036800461042379
 31
0.0
  0
LINE
  5
93A
330
1F
100
AcDbEntity
  8
0
  6
Continuous
100
AcDbLine
 10
7.158229391343681
 20
5.786800461042436
 30
0.0
 11
7.158229391343681
 21
5.161800461042322
 31
0.0
  0
ARC
  5
93B
330
1F
100
AcDbEntity
  8
0
  6
Continuous
100
AcDbCircle
 10
7.345729391343696
 20
4.911800461042315
 30
0.0
 40
0.1250000000000142
100
AcDbArc
 50
0.0000000000065138
 51
90.00000000000651
  0
LINE
  5
93C
330
1F
100
AcDbEntity
  8
0
  6
Continuous
100
AcDbLine
 10
7.28322939134371
 20
5.036800461042322
 30
0.0
 11
7.345729391343681
 21
5.036800461042322
 31
0.0
  0
ARC
  5
93D
330
1F
100
AcDbEntity
  8
0
  6
Continuous
100
AcDbCircle
 10
7.283229391343696
 20
5.161800461042343
 30
0.0
 40
0.1250000000000142
100
AcDbArc
 50
180.0000000000065
 51
270.0000000000065
  0
ARC
  5
93E
330
1F
100
AcDbEntity
  8
0
100
AcDbCircle
 10
7.345729391343696
 20
6.036800461042393
 30
0.0
 40
0.1249999999999574
100
AcDbArc
 50
269.9999999999935
 51
359.9999999999935
  0
CIRCLE
  5
93F
330
1F
100
AcDbEntity
  8
0
100
AcDbCircle
 10
7.43947939134366
 20
5.624999999999876
 30
0.0
 40
0.0855
  0
LINE
  5
940
330
1F
100
AcDbEntity
  8
0
100
AcDbLine
 10
7.345729391343681
 20
5.911800461042436
 30
0.0
 11
7.283229391343653
 21
5.911800461042379
 31
0.0
  0
ARC
  5
941
330
1F
100
AcDbEntity
  8
0
100
AcDbCircle
 10
7.283229391343639
 20
5.786800461042422
 30
0.0
 40
0.1249999999999574
100
AcDbArc
 50
89.99999999999349
 51
179.9999999999935
  0
CIRCLE
  5
942
330
1F
100
AcDbEntity
  8
0
  6
Continuous
100
AcDbCircle
 10
8.345729391343667
 20
5.078124999999883
 30
0.0
 40
0.0855
  0
LINE
  5
943
330
1F
100
AcDbEntity
  8
0
  6
Continuous
100
AcDbLine
 10
8.783229391343649
 20
4.992752863528747
 30
0.0
 11
8.624262443615336
 21
4.894836507031233
 31
0.0
  0
CIRCLE
  5
944
330
1F
100
AcDbEntity
  8
0
100
AcDbCircle
 10
7.876979391343674
 20
6.297874999999852
 30
0.0
 40
0.0855
  0
ARC
  5
945
330
1F
100
AcDbEntity
  8
0
100
AcDbCircle
 10
7.34572939134366
 20
6.661800461042365
 30
0.0
 40
0.1250000000000107
100
AcDbArc
 50
359.9999999999984
 51
90.00000000000325
  0
LINE
  5
946
330
1F
100
AcDbEntity
  8
0
100
AcDbLine
 10
7.283229391343681
 20
6.786800461042379
 30
0.0
 11
7.345729391343653
 21
6.786800461042379
 31
0.0
  0
ARC
  5
947
330
1F
100
AcDbEntity
  8
0
100
AcDbCircle
 10
7.283229391343667
 20
6.911800461042393
 30
0.0
 40
0.1250000000000142
100
AcDbArc
 50
180.0
 51
270.0000000000065
  0
CIRCLE
  5
948
330
1F
100
AcDbEntity
  8
0
100
AcDbCircle
 10
8.345729391343674
 20
6.796874999999876
 30
0.0
 40
0.0855
  0
ARC
  5
949
330
1F
100
AcDbEntity
  8
0
  6
Continuous
100
AcDbCircle
 10
8.655729391343634
 20
6.437499999999883
 30
0.0
 40
0.06
100
AcDbArc
 50
121.631166275524
 51
238.368833724476
  0
LINE
  5
94A
330
1F
100
AcDbEntity
  8
0
  6
Continuous
100
AcDbLine
 10
8.783229391343649
 20
6.288497136470998
 30
0.0
 11
8.624262443615336
 21
6.386413492968533
 31
0.0
  0
LINE
  5
94B
330
1F
100
AcDbEntity
  8
0
  6
Continuous
100
AcDbLine
 10
8.783229391343649
 20
6.586502863528747
 30
0.0
 11
8.624262443615336
 21
6.488586507031233
 31
0.0
  0
LINE
  5
94C
330
1F
100
AcDbEntity
  8
0
  6
Continuous
100
AcDbLine
 10
10.53322939134364
 20
4.992752863528747
 30
0.0
 11
10.69219633907195
 21
4.894836507031229
 31
0.0
  0
CIRCLE
  5
94D
330
1F
100
AcDbEntity
  8
0
  6
Continuous
100
AcDbCircle
 10
10.97072939134362
 20
5.078124999999879
 30
0.0
 40
0.0855
  0
CIRCLE
  5
94E
330
1F
100
AcDbEntity
  8
0
100
AcDbCircle
 10
10.97072939134361
 20
6.796874999999876
 30
0.0
 40
0.0855
  0
ARC
  5
94F
330
1F
100
AcDbEntity
  8
0
  6
Continuous
100
AcDbCircle
 10
10.66072939134365
 20
6.437499999999883
 30
0.0
 40
0.06
100
AcDbArc
 50
301.631166275524
 51
58.36883372447601
  0
LINE
  5
950
330
1F
100
AcDbEntity
  8
0
  6
Continuous
100
AcDbLine
 10
10.53322939134364
 20
6.586502863528747
 30
0.0
 11
10.69219633907195
 21
6.488586507031233
 31
0.0
  0
LINE
  5
951
330
1F
100
AcDbEntity
  8
0
  6
Continuous
100
AcDbLine
 10
10.53322939134364
 20
6.288497136470998
 30
0.0
 11
10.69219633907195
 21
6.386413492968533
 31
0.0
  0
LINE
  5
952
330
1F
100
AcDbEntity
  8
0
  6
Continuous
100
AcDbLine
 10
7.470729391343681
 20
8.661800461042478
 30
0.0
 11
7.470729391343653
 21
8.036800461042379
 31
0.0
  0
CIRCLE
  5
953
330
1F
100
AcDbEntity
  8
0
  6
Continuous
100
AcDbCircle
 10
7.876979391343678
 20
8.297874999999966
 30
0.0
 40
0.0855
  0
ARC
  5
954
330
1F
100
AcDbEntity
  8
0
  6
Continuous
100
AcDbCircle
 10
7.345729391343671
 20
8.036800461042365
 30
0.0
 40
0.1249999999999858
100
AcDbArc
 50
270.0000000000065
 51
0.0000000000065138
  0
CIRCLE
  5
955
330
1F
100
AcDbEntity
  8
0
  6
Continuous
100
AcDbCircle
 10
7.439479391343664
 20
7.624999999999989
 30
0.0
 40
0.0855
  0
ARC
  5
956
330
1F
100
AcDbEntity
  8
0
  6
Continuous
100
AcDbCircle
 10
7.283229391343671
 20
7.786800461042393
 30
0.0
 40
0.1249999999999858
100
AcDbArc
 50
90.00000000000651
 51
180.0000000000065
  0
LINE
  5
957
330
1F
100
AcDbEntity
  8
0
  6
Continuous
100
AcDbLine
 10
7.345729391343681
 20
7.911800461042379
 30
0.0
 11
7.283229391343653
 21
7.911800461042379
 31
0.0
  0
LINE
  5
958
330
1F
100
AcDbEntity
  8
0
  6
Continuous
100
AcDbLine
 10
8.783229391343646
 20
8.210372136471126
 30
0.0
 11
8.624262443615343
 21
8.308288492968647
 31
0.0
  0
ARC
  5
959
330
1F
100
AcDbEntity
  8
0
  6
Continuous
100
AcDbCircle
 10
8.655729391343645
 20
8.359374999999989
 30
0.0
 40
0.06
100
AcDbArc
 50
121.631166275524
 51
238.368833724476
  0
LINE
  5
95A
330
1F
100
AcDbEntity
  8
0
  6
Continuous
100
AcDbLine
 10
8.783229391343646
 20
8.508377863528864
 30
0.0
 11
8.624262443615343
 21
8.410461507031346
 31
0.0
  0
LINE
  5
95B
330
1F
100
AcDbEntity
  8
0
  6
Continuous
100
AcDbLine
 10
7.158229391343646
 20
9.093749999999989
 30
0.0
 11
8.845729391343639
 21
9.093749999999996
 31
0.0
  0
ARC
  5
95C
330
1F
100
AcDbEntity
  8
0
  6
Continuous
100
AcDbCircle
 10
7.345729391343664
 20
8.661800461042471
 30
0.0
 40
0.1250000000000178
100
AcDbArc
 50
0.0000000000016284
 51
90.00000000000651
  0
LINE
  5
95D
330
1F
100
AcDbEntity
  8
0
  6
Continuous
100
AcDbLine
 10
7.283229391343674
 20
8.786800461042493
 30
0.0
 11
7.345729391343646
 21
8.786800461042493
 31
0.0
  0
ARC
  5
95E
330
1F
100
AcDbEntity
  8
0
  6
Continuous
100
AcDbCircle
 10
7.283229391343664
 20
8.911800461042507
 30
0.0
 40
0.1250000000000142
100
AcDbArc
 50
180.0
 51
270.0000000000065
  0
LINE
  5
95F
330
1F
100
AcDbEntity
  8
0
  6
Continuous
100
AcDbLine
 10
7.158229391343646
 20
9.093749999999989
 30
0.0
 11
7.158229391343646
 21
8.911800461042507
 31
0.0
  0
CIRCLE
  5
960
330
1F
100
AcDbEntity
  8
0
  6
Continuous
100
AcDbCircle
 10
8.345729391343678
 20
8.796874999999989
 30
0.0
 40
0.0855
  0
ARC
  5
961
330
1F
100
AcDbEntity
  8
0
  6
Continuous
100
AcDbCircle
 10
10.66072939134364
 20
8.359374999999989
 30
0.0
 40
0.06
100
AcDbArc
 50
301.631166275524
 51
58.36883372447601
  0
LINE
  5
962
330
1F
100
AcDbEntity
  8
0
  6
Continuous
100
AcDbLine
 10
10.53322939134364
 20
8.508377863528864
 30
0.0
 11
10.69219633907194
 21
8.410461507031346
 31
0.0
  0
LINE
  5
963
330
1F
100
AcDbEntity
  8
0
  6
Continuous
100
AcDbLine
 10
10.53322939134364
 20
8.210372136471126
 30
0.0
 11
10.69219633907194
 21
8.308288492968647
 31
0.0
  0
CIRCLE
  5
964
330
1F
100
AcDbEntity
  8
0
  6
Continuous
100
AcDbCircle
 10
10.97072939134361
 20
8.796874999999989
 30
0.0
 40
0.0855
  0
ARC
  5
965
330
1F
100
AcDbEntity
  8
0
100
AcDbCircle
 10
9.05796799033488
 20
12.62349238806193
 30
0.0
 40
0.5
100
AcDbArc
 50
244.8824237621802
 51
269.9999999999999
  0
LINE
  5
966
330
1F
100
AcDbEntity
  8
0
100
AcDbLine
 10
8.783229391343653
 20
12.17077307425012
 30
0.0
 11
8.845729391343653
 21
12.17077307425012
 31
0.0
  0
LINE
  5
967
330
1F
100
AcDbEntity
  8
0
100
AcDbLine
 10
8.783229391343653
 20
12.17077307425012
 30
0.0
 11
8.845729391343653
 21
12.17077307425012
 31
0.0
  0
LINE
  5
968
330
1F
100
AcDbEntity
  8
0
100
AcDbLine
 10
10.12006183536682
 20
12.12349238806193
 30
0.0
 11
10.25849079235237
 21
12.12349238806193
 31
0.0
  0
LINE
  5
969
330
1F
100
AcDbEntity
  8
0
100
AcDbLine
 10
9.369738116591368
 20
12.12349238806193
 30
0.0
 11
9.94707551528186
 21
12.12349238806193
 31
0.0
  0
LINE
  5
96A
330
1F
100
AcDbEntity
  8
0
100
AcDbLine
 10
9.05796799033488
 20
12.12349238806193
 30
0.0
 11
9.19704797737727
 21
12.12349238806193
 31
0.0
  0
LINE
  5
96B
330
1F
100
AcDbEntity
  8
0
100
AcDbLine
 10
9.05796799033488
 20
12.12349238806193
 30
0.0
 11
9.158229391343625
 21
12.12349238806193
 31
0.0
  0
ARC
  5
96C
330
1F
100
AcDbEntity
  8
0
100
AcDbCircle
 10
9.283393046984319
 20
12.12308097476258
 30
0.0
 40
0.0863460497437565
100
AcDbArc
 50
0.2729984168420139
 51
179.7270015831581
  0
ARC
  5
96D
330
1F
100
AcDbEntity
  8
0
100
AcDbCircle
 10
10.03356867532438
 20
12.12278090162868
 30
0.0
 40
0.0864960863107047
100
AcDbArc
 50
0.4713002780001157
 51
179.5286997219983
  0
LINE
  5
96E
330
1F
100
AcDbEntity
  8
0
100
AcDbLine
 10
10.53322939134363
 20
12.17077307425013
 30
0.0
 11
10.47072939134363
 21
12.17077307425013
 31
0.0
  0
LINE
  5
96F
330
1F
100
AcDbEntity
  8
0
100
AcDbLine
 10
10.15822939134363
 20
12.12349238806194
 30
0.0
 11
10.25849079235237
 21
12.12349238806193
 31
0.0
  0
ARC
  5
970
330
1F
100
AcDbEntity
  8
0
100
AcDbCircle
 10
10.25849079235237
 20
12.62349238806193
 30
0.0
 40
0.5
100
AcDbArc
 50
270.0
 51
295.1175762378231
  0
LINE
  5
971
330
1F
100
AcDbEntity
  8
0
100
AcDbLine
 10
12.1582293913436
 20
7.786800461042379
 30
0.0
 11
12.15822939134363
 21
6.911800461042393
 31
0.0
  0
LINE
  5
972
330
1F
100
AcDbEntity
  8
0
100
AcDbLine
 10
11.84572939134361
 20
6.661800461042365
 30
0.0
 11
11.84572939134363
 21
6.036800461042379
 31
0.0
  0
LINE
  5
973
330
1F
100
AcDbEntity
  8
0
  6
Continuous
100
AcDbLine
 10
12.1582293913436
 20
5.786800461042436
 30
0.0
 11
12.1582293913436
 21
5.161800461042319
 31
0.0
  0
ARC
  5
974
330
1F
100
AcDbEntity
  8
0
  6
Continuous
100
AcDbCircle
 10
11.97072939134359
 20
4.911800461042311
 30
0.0
 40
0.1250000000000142
100
AcDbArc
 50
89.99999999999349
 51
179.9999999999935
  0
LINE
  5
975
330
1F
100
AcDbEntity
  8
0
  6
Continuous
100
AcDbLine
 10
12.03322939134358
 20
5.036800461042319
 30
0.0
 11
11.9707293913436
 21
5.036800461042319
 31
0.0
  0
ARC
  5
976
330
1F
100
AcDbEntity
  8
0
  6
Continuous
100
AcDbCircle
 10
12.03322939134359
 20
5.16180046104234
 30
0.0
 40
0.1250000000000142
100
AcDbArc
 50
269.9999999999935
 51
359.9999999999934
  0
ARC
  5
977
330
1F
100
AcDbEntity
  8
0
100
AcDbCircle
 10
11.97072939134359
 20
6.036800461042393
 30
0.0
 40
0.1249999999999574
100
AcDbArc
 50
180.0000000000065
 51
270.0000000000065
  0
CIRCLE
  5
978
330
1F
100
AcDbEntity
  8
0
100
AcDbCircle
 10
11.87697939134363
 20
5.624999999999876
 30
0.0
 40
0.0855
  0
LINE
  5
979
330
1F
100
AcDbEntity
  8
0
100
AcDbLine
 10
11.9707293913436
 20
5.911800461042436
 30
0.0
 11
12.03322939134363
 21
5.911800461042379
 31
0.0
  0
ARC
  5
97A
330
1F
100
AcDbEntity
  8
0
100
AcDbCircle
 10
12.03322939134365
 20
5.786800461042422
 30
0.0
 40
0.1249999999999574
100
AcDbArc
 50
0.0000000000065138
 51
90.00000000000651
  0
ARC
  5
97B
330
1F
100
AcDbEntity
  8
0
100
AcDbCircle
 10
11.97072939134363
 20
6.661800461042365
 30
0.0
 40
0.1250000000000107
100
AcDbArc
 50
89.99999999999675
 51
180.0000000000016
  0
CIRCLE
  5
97C
330
1F
100
AcDbEntity
  8
0
100
AcDbCircle
 10
11.43947939134361
 20
6.297874999999852
 30
0.0
 40
0.0855
  0
LINE
  5
97D
330
1F
100
AcDbEntity
  8
0
100
AcDbLine
 10
12.0332293913436
 20
6.786800461042379
 30
0.0
 11
11.97072939134363
 21
6.786800461042379
 31
0.0
  0
ARC
  5
97E
330
1F
100
AcDbEntity
  8
0
100
AcDbCircle
 10
12.03322939134362
 20
6.911800461042393
 30
0.0
 40
0.1250000000000142
100
AcDbArc
 50
269.9999999999935
 51
0.0
  0
LINE
  5
97F
330
1F
100
AcDbEntity
  8
0
  6
Continuous
100
AcDbLine
 10
11.8457293913436
 20
8.661800461042478
 30
0.0
 11
11.84572939134363
 21
8.036800461042379
 31
0.0
  0
ARC
  5
980
330
1F
100
AcDbEntity
  8
0
  6
Continuous
100
AcDbCircle
 10
11.97072939134361
 20
8.036800461042365
 30
0.0
 40
0.1249999999999858
100
AcDbArc
 50
179.9999999999935
 51
269.9999999999935
  0
CIRCLE
  5
981
330
1F
100
AcDbEntity
  8
0
  6
Continuous
100
AcDbCircle
 10
11.87697939134362
 20
7.624999999999989
 30
0.0
 40
0.0855
  0
LINE
  5
982
330
1F
100
AcDbEntity
  8
0
  6
Continuous
100
AcDbLine
 10
11.9707293913436
 20
7.911800461042379
 30
0.0
 11
12.03322939134363
 21
7.911800461042379
 31
0.0
  0
ARC
  5
983
330
1F
100
AcDbEntity
  8
0
  6
Continuous
100
AcDbCircle
 10
12.03322939134361
 20
7.786800461042393
 30
0.0
 40
0.1249999999999858
100
AcDbArc
 50
359.9999999999934
 51
89.99999999999349
  0
CIRCLE
  5
984
330
1F
100
AcDbEntity
  8
0
  6
Continuous
100
AcDbCircle
 10
11.43947939134361
 20
8.297874999999966
 30
0.0
 40
0.0855
  0
ARC
  5
985
330
1F
100
AcDbEntity
  8
0
  6
Continuous
100
AcDbCircle
 10
11.97072939134362
 20
8.661800461042471
 30
0.0
 40
0.1250000000000178
100
AcDbArc
 50
89.99999999999349
 51
179.9999999999984
  0
LINE
  5
986
330
1F
100
AcDbEntity
  8
0
  6
Continuous
100
AcDbLine
 10
12.15822939134364
 20
9.093749999999989
 30
0.0
 11
12.15822939134364
 21
8.911800461042507
 31
0.0
  0
LINE
  5
987
330
1F
100
AcDbEntity
  8
0
  6
Continuous
100
AcDbLine
 10
12.03322939134361
 20
8.786800461042493
 30
0.0
 11
11.97072939134364
 21
8.786800461042493
 31
0.0
  0
ARC
  5
988
330
1F
100
AcDbEntity
  8
0
  6
Continuous
100
AcDbCircle
 10
12.03322939134362
 20
8.911800461042507
 30
0.0
 40
0.1250000000000142
100
AcDbArc
 50
269.9999999999935
 51
0.0
  0
LINE
  5
989
330
1F
100
AcDbEntity
  8
0
100
AcDbLine
 10
12.15822939134364
 20
15.74849238806194
 30
0.0
 11
10.59572939134363
 21
15.74849238806194
 31
0.0
  0
LINE
  5
98A
330
1F
100
AcDbEntity
  8
0
100
AcDbLine
 10
12.15822939134364
 20
15.81099238806194
 30
0.0
 11
10.59572939134363
 21
15.81099238806194
 31
0.0
  0
CIRCLE
  5
98B
330
1F
100
AcDbEntity
  8
0
100
AcDbCircle
 10
9.66149598691888
 20
13.49849238806192
 30
0.0
 40
0.1405
  0
ARC
  5
98D
330
1F
100
AcDbEntity
  8
0
100
AcDbCircle
 10
9.05796799033488
 20
16.12349238806193
 30
0.0
 40
0.5
100
AcDbArc
 50
244.8824237621772
 51
269.9999999999999
  0
LINE
  5
98E
330
1F
100
AcDbEntity
  8
0
100
AcDbLine
 10
8.720729391343653
 20
15.74849238806194
 30
0.0
 11
7.15822939134368
 21
15.74849238806193
 31
0.0
  0
LINE
  5
98F
330
1F
100
AcDbEntity
  8
0
100
AcDbLine
 10
8.720729391343632
 20
15.81099238806194
 30
0.0
 11
7.158229391343681
 21
15.81099238806193
 31
0.0
  0
LINE
  5
990
330
1F
100
AcDbEntity
  8
0
100
AcDbLine
 10
7.158229391343681
 20
15.74849238806194
 30
0.0
 11
7.158229391343681
 21
15.81099238806194
 31
0.0
  0
LINE
  5
991
330
1F
100
AcDbEntity
  8
0
100
AcDbLine
 10
8.789762582494213
 20
15.63952307425013
 30
0.0
 11
8.852262582494191
 21
15.63952307425013
 31
0.0
  0
ARC
  5
992
330
1F
100
AcDbEntity
  8
0
100
AcDbCircle
 10
8.720729391343632
 20
15.68599238806194
 30
0.0
 40
0.125
100
AcDbArc
 50
0.0
 51
90.0
  0
ARC
  5
993
330
1F
100
AcDbEntity
  8
0
100
AcDbCircle
 10
8.720729391343653
 20
15.68599238806194
 30
0.0
 40
0.0625
100
AcDbArc
 50
0.0
 51
90.0
  0
LINE
  5
994
330
1F
100
AcDbEntity
  8
0
100
AcDbLine
 10
10.1318785590756
 20
15.62349238806193
 30
0.0
 11
10.25849079235237
 21
15.62349238806193
 31
0.0
  0
LINE
  5
995
330
1F
100
AcDbEntity
  8
0
100
AcDbLine
 10
9.381878559075659
 20
15.62349238806193
 30
0.0
 11
9.941113414762157
 21
15.62349238806193
 31
0.0
  0
LINE
  5
996
330
1F
100
AcDbEntity
  8
0
100
AcDbLine
 10
9.05796799033488
 20
15.62349238806193
 30
0.0
 11
9.191113414762022
 21
15.62349238806193
 31
0.0
  0
ARC
  5
997
330
1F
100
AcDbEntity
  8
0
100
AcDbCircle
 10
9.286495986918876
 20
15.62386444397387
 30
0.0
 40
0.0953832977876115
100
AcDbArc
 50
180.223490779295
 51
359.7765092207051
  0
ARC
  5
998
330
1F
100
AcDbEntity
  8
0
100
AcDbCircle
 10
10.03649598691888
 20
15.62386444397387
 30
0.0
 40
0.0953832977876115
100
AcDbArc
 50
180.223490779295
 51
359.7765092207051
  0
LINE
  5
999
330
1F
100
AcDbEntity
  8
0
100
AcDbLine
 10
10.5332293913436
 20
15.63952307425013
 30
0.0
 11
10.47072939134363
 21
15.63952307425013
 31
0.0
  0
LINE
  5
99A
330
1F
100
AcDbEntity
  8
0
100
AcDbLine
 10
10.47072939134363
 20
15.67077307425013
 30
0.0
 11
10.47072939134363
 21
15.68599238806194
 31
0.0
  0
LINE
  5
99B
330
1F
100
AcDbEntity
  8
0
100
AcDbLine
 10
10.15822939134363
 20
15.62349238806193
 30
0.0
 11
10.25849079235237
 21
15.62349238806193
 31
0.0
  0
ARC
  5
99C
330
1F
100
AcDbEntity
  8
0
100
AcDbCircle
 10
10.25849079235237
 20
16.12349238806193
 30
0.0
 40
0.5
100
AcDbArc
 50
270.0
 51
295.1175762378231
  0
ARC
  5
99D
330
1F
100
AcDbEntity
  8
0
100
AcDbCircle
 10
10.59572939134363
 20
15.68599238806194
 30
0.0
 40
0.125
100
AcDbArc
 50
90.00000000000006
 51
180.0
  0
ARC
  5
99E
330
1F
100
AcDbEntity
  8
0
100
AcDbCircle
 10
10.59572939134363
 20
15.68599238806194
 30
0.0
 40
0.0625
100
AcDbArc
 50
90.00000000000006
 51
180.0
  0
LINE
  5
99F
330
1F
100
AcDbEntity
  8
0
100
AcDbLine
 10
12.15822939134364
 20
15.74849238806194
 30
0.0
 11
12.15822939134364
 21
15.81099238806194
 31
0.0
  0
LINE
  5
9A0
330
1F
100
AcDbEntity
  8
0
  6
Continuous
100
AcDbLine
 10
17.06105918903199
 20
4.286800461042307
 30
0.0
 11
17.06105918903196
 21
4.911800461042308
 31
0.0
  0
ARC
  5
9A1
330
1F
100
AcDbEntity
  8
0
  6
Continuous
100
AcDbCircle
 10
18.99605918903199
 20
4.843749999999869
 30
0.0
 40
0.06
100
AcDbArc
 50
121.6311662755244
 51
238.368833724476
  0
LINE
  5
9A2
330
1F
100
AcDbEntity
  8
0
  6
Continuous
100
AcDbLine
 10
19.18605918903202
 20
0.1519555937132431
 30
0.0
 11
19.18605918903202
 21
9.093749999999989
 31
0.0
  0
LINE
  5
9A3
330
1F
100
AcDbEntity
  8
0
100
AcDbLine
 10
19.1367491581325
 20
9.093749999999993
 30
0.0
 11
19.13674915813247
 21
0.1067424821282472
 31
0.0
  0
CIRCLE
  5
9A5
330
1F
100
AcDbEntity
  8
0
  6
Continuous
100
AcDbCircle
 10
17.62355918903197
 20
3.046874999999996
 30
0.0
 40
0.0855
  0
CIRCLE
  5
9A6
330
1F
100
AcDbEntity
  8
0
  6
Continuous
100
AcDbCircle
 10
17.62355918903197
 20
1.54687500000005
 30
0.0
 40
0.0855
  0
LINE
  5
9A7
330
1F
100
AcDbEntity
  8
0
100
AcDbLine
 10
15.55902984432067
 20
-0.0625000000000107
 30
0.0
 11
19.05902984432067
 21
-0.0625000000000107
 31
0.0
  0
LINE
  5
9A8
330
1F
100
AcDbEntity
  8
0
  6
HIDDEN
100
AcDbLine
 10
15.65005433466543
 20
-0.0000000000000107
 30
0.0
 11
19.05902984432067
 21
-0.0000000000000107
 31
0.0
  0
LINE
  5
9A9
330
1F
100
AcDbEntity
  8
0
  6
Continuous
100
AcDbLine
 10
17.061059189032
 20
1.913154439278689
 30
0.0
 11
17.06105918903196
 21
3.161800461042293
 31
0.0
  0
LINE
  5
9AA
330
1F
100
AcDbEntity
  8
0
  6
Continuous
100
AcDbLine
 10
15.73603028878345
 20
0.1151966094065884
 30
0.0
 11
16.76816597021856
 21
1.206047658092107
 31
0.0
  0
LINE
  5
9AB
330
1F
100
AcDbEntity
  8
0
100
AcDbLine
 10
15.65005433466543
 20
-0.0000000000000107
 30
0.0
 11
15.55902984432067
 21
-0.0000000000000107
 31
0.0
  0
LINE
  5
9AC
330
1F
100
AcDbEntity
  8
0
100
AcDbLine
 10
15.55902984432067
 20
-0.0625000000000107
 30
0.0
 11
15.55902984432067
 21
-0.0000000000000107
 31
0.0
  0
ARC
  5
9AD
330
1F
100
AcDbEntity
  8
0
  6
Continuous
100
AcDbCircle
 10
16.08958367937665
 20
-0.238356781186674
 30
0.0
 40
0.4999999999999432
100
AcDbArc
 50
134.9999999999953
 51
159.4078398862809
  0
CIRCLE
  5
9AE
330
1F
100
AcDbEntity
  8
0
  6
Continuous
100
AcDbCircle
 10
17.18605918903197
 20
0.8125000000000497
 30
0.0
 40
0.0855
  0
ARC
  5
9AF
330
1F
100
AcDbEntity
  8
0
  6
Continuous
100
AcDbCircle
 10
16.061059189032
 20
1.913154439278646
 30
0.0
 40
1.000000000000003
100
AcDbArc
 50
315.0000000000009
 51
0.0000000000024427
  0
LINE
  5
9B0
330
1F
100
AcDbEntity
  8
0
  6
Continuous
100
AcDbLine
 10
17.37355918903199
 20
3.411800461042321
 30
0.0
 11
17.37355918903196
 21
4.036800461042307
 31
0.0
  0
ARC
  5
9B1
330
1F
100
AcDbEntity
  8
0
  6
Continuous
100
AcDbCircle
 10
17.24855918903197
 20
3.411800461042328
 30
0.0
 40
0.1250000000000142
100
AcDbArc
 50
269.9999999999935
 51
0.0
  0
LINE
  5
9B2
330
1F
100
AcDbEntity
  8
0
  6
Continuous
100
AcDbLine
 10
17.18605918903199
 20
3.286800461042307
 30
0.0
 11
17.24855918903196
 21
3.286800461042307
 31
0.0
  0
ARC
  5
9B3
330
1F
100
AcDbEntity
  8
0
  6
Continuous
100
AcDbCircle
 10
17.18605918903197
 20
3.1618004610423
 30
0.0
 40
0.1250000000000142
100
AcDbArc
 50
89.99999999999349
 51
180.0
  0
ARC
  5
9B4
330
1F
100
AcDbEntity
  8
0
  6
Continuous
100
AcDbCircle
 10
17.18605918903197
 20
4.2868004610423
 30
0.0
 40
0.1249999999999858
100
AcDbArc
 50
179.9999999999935
 51
269.9999999999935
  0
LINE
  5
9B5
330
1F
100
AcDbEntity
  8
0
  6
Continuous
100
AcDbLine
 10
17.24855918903199
 20
4.161800461042307
 30
0.0
 11
17.18605918903196
 21
4.161800461042307
 31
0.0
  0
ARC
  5
9B6
330
1F
100
AcDbEntity
  8
0
  6
Continuous
100
AcDbCircle
 10
17.24855918903197
 20
4.036800461042328
 30
0.0
 40
0.1249999999999858
100
AcDbArc
 50
359.9999999999934
 51
89.99999999999349
  0
CIRCLE
  5
9B7
330
1F
100
AcDbEntity
  8
0
  6
Continuous
100
AcDbCircle
 10
18.24855918903196
 20
1.04687500000005
 30
0.0
 40
0.0855
  0
ARC
  5
9B8
330
1F
100
AcDbEntity
  8
0
  6
Continuous
100
AcDbCircle
 10
19.4985591890319
 20
-0.238356781186674
 30
0.0
 40
0.4999999999999437
100
AcDbArc
 50
128.6821874534726
 51
151.5290213442328
  0
LINE
  5
9B9
330
1F
100
AcDbEntity
  8
0
100
AcDbLine
 10
19.05902984432067
 20
-0.0000000000000107
 30
0.0
 11
19.05902984432067
 21
-0.0625000000000107
 31
0.0
  0
CIRCLE
  5
9BA
330
1F
100
AcDbEntity
  8
0
  6
Continuous
100
AcDbCircle
 10
17.93605918903197
 20
2.046875000000036
 30
0.0
 40
0.0855
  0
CIRCLE
  5
9BB
330
1F
100
AcDbEntity
  8
0
  6
Continuous
100
AcDbCircle
 10
17.93605918903197
 20
3.546874999999981
 30
0.0
 40
0.0855
  0
CIRCLE
  5
9BC
330
1F
100
AcDbEntity
  8
0
  6
Continuous
100
AcDbCircle
 10
18.24855918903196
 20
2.546874999999996
 30
0.0
 40
0.0855
  0
ARC
  5
9BD
330
1F
100
AcDbEntity
  8
0
  6
Continuous
100
AcDbCircle
 10
19.186059189032
 20
2.579124999999845
 30
0.0
 40
0.1875
100
AcDbArc
 50
105.2473642457561
 51
254.7526357542439
  0
LINE
  5
9BE
330
1F
100
AcDbEntity
  8
0
  6
Continuous
100
AcDbLine
 10
19.13674915813247
 20
3.186622719822821
 30
0.0
 11
18.9645922413037
 21
3.292663492968518
 31
0.0
  0
ARC
  5
9BF
330
1F
100
AcDbEntity
  8
0
  6
Continuous
100
AcDbCircle
 10
18.99605918903199
 20
3.343749999999868
 30
0.0
 40
0.06
100
AcDbArc
 50
121.6311662755244
 51
238.368833724476
  0
LINE
  5
9C0
330
1F
100
AcDbEntity
  8
0
  6
Continuous
100
AcDbLine
 10
19.13674915813247
 20
3.500877280176902
 30
0.0
 11
18.9645922413037
 21
3.394836507031218
 31
0.0
  0
LINE
  5
9C2
330
1F
100
AcDbEntity
  8
0
  6
Continuous
100
AcDbLine
 10
19.13674915813248
 20
4.686622719822818
 30
0.0
 11
18.9645922413037
 21
4.792663492968519
 31
0.0
  0
LINE
  5
9C4
330
1F
100
AcDbEntity
  8
0
  6
Continuous
100
AcDbLine
 10
19.18605918903203
 20
9.093749999999989
 30
0.0
 11
17.37355918903202
 21
9.093749999999989
 31
0.0
  0
LINE
  5
9C6
330
1F
100
AcDbEntity
  8
0
100
AcDbLine
 10
17.37355918903202
 20
6.911800461042382
 30
0.0
 11
17.37355918903199
 21
7.786800461042365
 31
0.0
  0
LINE
  5
9C7
330
1F
100
AcDbEntity
  8
0
  6
Continuous
100
AcDbLine
 10
17.06105918903202
 20
6.036800461042365
 30
0.0
 11
17.06105918903199
 21
6.661800461042365
 31
0.0
  0
LINE
  5
9C8
330
1F
100
AcDbEntity
  8
0
  6
Continuous
100
AcDbLine
 10
17.37355918903199
 20
5.161800461042308
 30
0.0
 11
17.37355918903199
 21
5.786800461042422
 31
0.0
  0
ARC
  5
9C9
330
1F
100
AcDbEntity
  8
0
  6
Continuous
100
AcDbCircle
 10
17.24855918903197
 20
5.161800461042329
 30
0.0
 40
0.1250000000000142
100
AcDbArc
 50
269.9999999999935
 51
359.9999999999934
  0
LINE
  5
9CA
330
1F
100
AcDbEntity
  8
0
  6
Continuous
100
AcDbLine
 10
17.18605918903199
 20
5.036800461042308
 30
0.0
 11
17.24855918903196
 21
5.036800461042308
 31
0.0
  0
ARC
  5
9CB
330
1F
100
AcDbEntity
  8
0
  6
Continuous
100
AcDbCircle
 10
17.18605918903197
 20
4.911800461042301
 30
0.0
 40
0.1250000000000142
100
AcDbArc
 50
89.99999999999349
 51
179.9999999999935
  0
LINE
  5
9CC
330
1F
100
AcDbEntity
  8
0
  6
Continuous
100
AcDbLine
 10
17.37355918903199
 20
5.786800461042422
 30
0.0
 11
17.37355918903199
 21
5.786800461042422
 31
0.0
  0
ARC
  5
9CD
330
1F
100
AcDbEntity
  8
0
  6
Continuous
100
AcDbCircle
 10
17.24855918903203
 20
5.786800461042414
 30
0.0
 40
0.1249999999999574
100
AcDbArc
 50
0.0000000000065138
 51
90.00000000000644
  0
LINE
  5
9CE
330
1F
100
AcDbEntity
  8
0
  6
Continuous
100
AcDbLine
 10
17.24855918903202
 20
5.911800461042365
 30
0.0
 11
17.18605918903199
 21
5.911800461042422
 31
0.0
  0
ARC
  5
9CF
330
1F
100
AcDbEntity
  8
0
  6
Continuous
100
AcDbCircle
 10
17.18605918903197
 20
6.036800461042386
 30
0.0
 40
0.1249999999999574
100
AcDbArc
 50
180.0000000000065
 51
270.0000000000065
  0
ARC
  5
9D0
330
1F
100
AcDbEntity
  8
0
  6
Continuous
100
AcDbCircle
 10
17.18605918903201
 20
6.661800461042351
 30
0.0
 40
0.1250000000000213
100
AcDbArc
 50
89.99999999999675
 51
179.9999999999902
  0
LINE
  5
9D2
330
1F
100
AcDbEntity
  8
0
  6
Continuous
100
AcDbLine
 10
17.18605918903202
 20
6.786800461042365
 30
0.0
 11
17.24855918903199
 21
6.786800461042365
 31
0.0
  0
ARC
  5
9D3
330
1F
100
AcDbEntity
  8
0
  6
Continuous
100
AcDbCircle
 10
17.24855918903201
 20
6.911800461042386
 30
0.0
 40
0.1250000000000178
100
AcDbArc
 50
269.9999999999902
 51
359.9999999999984
  0
LINE
  5
9D4
330
1F
100
AcDbEntity
  8
0
  6
Continuous
100
AcDbLine
 10
17.06105918903202
 20
8.036800461042365
 30
0.0
 11
17.06105918903199
 21
8.661800461042478
 31
0.0
  0
ARC
  5
9D5
330
1F
100
AcDbEntity
  8
0
  6
Continuous
100
AcDbCircle
 10
17.186059189032
 20
8.036800461042351
 30
0.0
 40
0.1249999999999858
100
AcDbArc
 50
179.9999999999935
 51
269.9999999999935
  0
LINE
  5
9D6
330
1F
100
AcDbEntity
  8
0
  6
Continuous
100
AcDbLine
 10
17.24855918903202
 20
7.911800461042365
 30
0.0
 11
17.18605918903199
 21
7.911800461042365
 31
0.0
  0
ARC
  5
9D7
330
1F
100
AcDbEntity
  8
0
  6
Continuous
100
AcDbCircle
 10
17.248559189032
 20
7.786800461042379
 30
0.0
 40
0.1249999999999858
100
AcDbArc
 50
359.9999999999935
 51
89.99999999999349
  0
LINE
  5
9D9
330
1F
100
AcDbEntity
  8
0
  6
Continuous
100
AcDbLine
 10
17.37355918903204
 20
8.911800461042507
 30
0.0
 11
17.37355918903202
 21
9.093749999999989
 31
0.0
  0
ARC
  5
9DA
330
1F
100
AcDbEntity
  8
0
  6
Continuous
100
AcDbCircle
 10
17.24855918903201
 20
8.911800461042507
 30
0.0
 40
0.1250000000000284
100
AcDbArc
 50
269.9999999999935
 51
0.0
  0
LINE
  5
9DB
330
1F
100
AcDbEntity
  8
0
  6
Continuous
100
AcDbLine
 10
17.18605918903202
 20
8.786800461042478
 30
0.0
 11
17.24855918903199
 21
8.786800461042478
 31
0.0
  0
ARC
  5
9DC
330
1F
100
AcDbEntity
  8
0
  6
Continuous
100
AcDbCircle
 10
17.18605918903202
 20
8.661800461042457
 30
0.0
 40
0.1250000000000213
100
AcDbArc
 50
89.99999999999675
 51
179.9999999999902
  0
LINE
  5
9DF
330
1F
100
AcDbEntity
  8
0
  6
Continuous
100
AcDbLine
 10
19.13674915813247
 20
5.000877280176901
 30
0.0
 11
18.9645922413037
 21
4.894836507031219
 31
0.0
  0
LINE
  5
9E0
330
1F
100
AcDbEntity
  8
0
  6
Continuous
100
AcDbLine
 10
19.18605918903201
 20
6.171874999999918
 30
0.0
 11
18.9645922413037
 21
6.308288492968575
 31
0.0
  0
ARC
  5
9E1
330
1F
100
AcDbEntity
  8
0
  6
Continuous
100
AcDbCircle
 10
18.996059189032
 20
6.359374999999925
 30
0.0
 40
0.06
100
AcDbArc
 50
121.6311662755242
 51
238.3688337244758
  0
LINE
  5
9E2
330
1F
100
AcDbEntity
  8
0
  6
Continuous
100
AcDbLine
 10
19.18605918903201
 20
6.546874999999918
 30
0.0
 11
18.9645922413037
 21
6.410461507031275
 31
0.0
  0
LINE
  5
9E4
330
1F
100
AcDbEntity
  8
0
  6
Continuous
100
AcDbLine
 10
19.1367491581325
 20
8.202247719822978
 30
0.0
 11
18.9645922413037
 21
8.308288492968689
 31
0.0
  0
ARC
  5
9E5
330
1F
100
AcDbEntity
  8
0
  6
Continuous
100
AcDbCircle
 10
18.99605918903199
 20
8.359375000000032
 30
0.0
 40
0.06
100
AcDbArc
 50
121.6311662755242
 51
238.3688337244758
  0
LINE
  5
9E6
330
1F
100
AcDbEntity
  8
0
  6
Continuous
100
AcDbLine
 10
19.13674915813249
 20
8.51650228017709
 30
0.0
 11
18.9645922413037
 21
8.410461507031389
 31
0.0
  0
LINE
  5
9EB
330
1F
100
AcDbEntity
  8
0
100
AcDbLine
 10
1.604526906455057
 20
5.441472949821002
 30
0.0
 11
1.441776906455054
 21
5.535436706131602
 31
0.0
  0
ARC
  5
9EC
330
1F
100
AcDbEntity
  8
0
100
AcDbCircle
 10
1.457401906455054
 20
5.562499999999869
 30
0.0
 40
0.0312500000000031
100
AcDbArc
 50
119.9999999999991
 51
240.0000000000009
  0
LINE
  5
9ED
330
1F
100
AcDbEntity
  8
0
100
AcDbLine
 10
1.441776906455054
 20
5.589563293868135
 30
0.0
 11
1.604526906455057
 21
5.68352705017875
 31
0.0
  0
ARC
  5
9EE
330
1F
100
AcDbEntity
  8
0
100
AcDbCircle
 10
1.620151906455057
 20
5.656463756310483
 30
0.0
 40
0.031250000000002
100
AcDbArc
 50
0.0
 51
119.9999999999955
  0
LINE
  5
9EF
330
1F
100
AcDbEntity
  8
0
100
AcDbLine
 10
1.651401906455057
 20
5.656463756310483
 30
0.0
 11
1.651401906455057
 21
5.562499999999869
 31
0.0
  0
LINE
  5
9F0
330
1F
100
AcDbEntity
  8
0
100
AcDbLine
 10
1.651401906455057
 20
5.562499999999869
 30
0.0
 11
1.651401906455057
 21
5.468536243689268
 31
0.0
  0
ARC
  5
9F1
330
1F
100
AcDbEntity
  8
0
100
AcDbCircle
 10
1.620151906455057
 20
5.468536243689268
 30
0.0
 40
0.0312500000000011
100
AcDbArc
 50
240.0000000000029
 51
0.0000000000032569
  0
LINE
  5
9F2
330
1F
100
AcDbEntity
  8
0
  6
Continuous
100
AcDbLine
 10
1.917026906455021
 20
4.53522294982113
 30
0.0
 11
1.754276906455019
 21
4.629186706131744
 31
0.0
  0
ARC
  5
9F3
330
1F
100
AcDbEntity
  8
0
  6
Continuous
100
AcDbCircle
 10
1.769901906455019
 20
4.656250000000011
 30
0.0
 40
0.0312500000000031
100
AcDbArc
 50
119.9999999999991
 51
240.0000000000009
  0
LINE
  5
9F4
330
1F
100
AcDbEntity
  8
0
  6
Continuous
100
AcDbLine
 10
1.754276906455019
 20
4.683313293868277
 30
0.0
 11
1.917026906455021
 21
4.777277050178878
 31
0.0
  0
ARC
  5
9F5
330
1F
100
AcDbEntity
  8
0
  6
Continuous
100
AcDbCircle
 10
1.932651906455021
 20
4.750213756310611
 30
0.0
 40
0.0312500000000018
100
AcDbArc
 50
0.0
 51
119.9999999999948
  0
LINE
  5
9F6
330
1F
100
AcDbEntity
  8
0
  6
Continuous
100
AcDbLine
 10
1.963901906455021
 20
4.750213756310611
 30
0.0
 11
1.963901906455021
 21
4.656249999999996
 31
0.0
  0
LINE
  5
9F7
330
1F
100
AcDbEntity
  8
0
  6
Continuous
100
AcDbLine
 10
1.963901906455021
 20
4.656249999999996
 30
0.0
 11
1.963901906455021
 21
4.562286243689397
 31
0.0
  0
ARC
  5
9F8
330
1F
100
AcDbEntity
  8
0
  6
Continuous
100
AcDbCircle
 10
1.932651906455021
 20
4.562286243689395
 30
0.0
 40
0.0312500000000007
100
AcDbArc
 50
240.0000000000022
 51
0.0000000000032569
  0
LINE
  5
9F9
330
1F
100
AcDbEntity
  8
0
  6
Continuous
100
AcDbLine
 10
1.323276906455064
 20
4.175847949821129
 30
0.0
 11
1.160526906455061
 21
4.269811706131729
 31
0.0
  0
ARC
  5
9FA
330
1F
100
AcDbEntity
  8
0
  6
Continuous
100
AcDbCircle
 10
1.176151906455061
 20
4.296874999999996
 30
0.0
 40
0.0312500000000031
100
AcDbArc
 50
119.9999999999991
 51
240.0000000000009
  0
LINE
  5
9FB
330
1F
100
AcDbEntity
  8
0
  6
Continuous
100
AcDbLine
 10
1.160526906455061
 20
4.323938293868262
 30
0.0
 11
1.323276906455064
 21
4.417902050178877
 31
0.0
  0
ARC
  5
9FC
330
1F
100
AcDbEntity
  8
0
  6
Continuous
100
AcDbCircle
 10
1.338901906455064
 20
4.390838756310612
 30
0.0
 40
0.0312500000000005
100
AcDbArc
 50
359.9999999999968
 51
119.9999999999971
  0
LINE
  5
9FD
330
1F
100
AcDbEntity
  8
0
  6
Continuous
100
AcDbLine
 10
1.370151906455064
 20
4.39083875631061
 30
0.0
 11
1.370151906455064
 21
4.296874999999996
 31
0.0
  0
LINE
  5
9FE
330
1F
100
AcDbEntity
  8
0
  6
Continuous
100
AcDbLine
 10
1.370151906455064
 20
4.296874999999996
 30
0.0
 11
1.370151906455064
 21
4.202911243689395
 31
0.0
  0
ARC
  5
9FF
330
1F
100
AcDbEntity
  8
0
  6
Continuous
100
AcDbCircle
 10
1.338901906455064
 20
4.202911243689393
 30
0.0
 40
0.0312500000000011
100
AcDbArc
 50
240.0000000000029
 51
0.0000000000032569
  0
LINE
  5
A00
330
1F
100
AcDbEntity
  8
0
  6
Continuous
100
AcDbLine
 10
1.011276906455109
 20
4.691472949821115
 30
0.0
 11
0.8485269064551204
 21
4.785436706131716
 31
0.0
  0
ARC
  5
A01
330
1F
100
AcDbEntity
  8
0
  6
Continuous
100
AcDbCircle
 10
0.8641519064551204
 20
4.812499999999982
 30
0.0
 40
0.031250000000003
100
AcDbArc
 50
119.9999999999987
 51
240.0000000000013
  0
LINE
  5
A02
330
1F
100
AcDbEntity
  8
0
  6
Continuous
100
AcDbLine
 10
0.8485269064551204
 20
4.839563293868249
 30
0.0
 11
1.011276906455109
 21
4.933527050178849
 31
0.0
  0
ARC
  5
A03
330
1F
100
AcDbEntity
  8
0
  6
Continuous
100
AcDbCircle
 10
1.026901906455109
 20
4.906463756310586
 30
0.0
 40
0.0312500000000008
100
AcDbArc
 50
359.9999999999968
 51
119.9999999999982
  0
LINE
  5
A04
330
1F
100
AcDbEntity
  8
0
  6
Continuous
100
AcDbLine
 10
1.058151906455109
 20
4.906463756310583
 30
0.0
 11
1.058151906455109
 21
4.812499999999996
 31
0.0
  0
LINE
  5
A05
330
1F
100
AcDbEntity
  8
0
  6
Continuous
100
AcDbLine
 10
1.058151906455109
 20
4.812499999999996
 30
0.0
 11
1.058151906455109
 21
4.718536243689382
 31
0.0
  0
ARC
  5
A06
330
1F
100
AcDbEntity
  8
0
  6
Continuous
100
AcDbCircle
 10
1.026901906455109
 20
4.718536243689382
 30
0.0
 40
0.0312500000000013
100
AcDbArc
 50
240.0000000000048
 51
0.0
  0
LINE
  5
A07
330
1F
100
AcDbEntity
  8
0
100
AcDbLine
 10
1.011276906455102
 20
5.910222949821002
 30
0.0
 11
0.8485269064551133
 21
6.004186706131602
 31
0.0
  0
ARC
  5
A08
330
1F
100
AcDbEntity
  8
0
100
AcDbCircle
 10
0.8641519064551133
 20
6.031249999999869
 30
0.0
 40
0.031250000000003
100
AcDbArc
 50
119.9999999999987
 51
240.0000000000013
  0
LINE
  5
A09
330
1F
100
AcDbEntity
  8
0
100
AcDbLine
 10
0.8485269064551133
 20
6.058313293868135
 30
0.0
 11
1.011276906455102
 21
6.15227705017875
 31
0.0
  0
ARC
  5
A0A
330
1F
100
AcDbEntity
  8
0
100
AcDbCircle
 10
1.026901906455102
 20
6.125213756310483
 30
0.0
 40
0.031250000000002
100
AcDbArc
 50
0.0
 51
119.9999999999955
  0
LINE
  5
A0B
330
1F
100
AcDbEntity
  8
0
100
AcDbLine
 10
1.058151906455102
 20
6.125213756310483
 30
0.0
 11
1.058151906455102
 21
6.031249999999869
 31
0.0
  0
LINE
  5
A0C
330
1F
100
AcDbEntity
  8
0
100
AcDbLine
 10
1.058151906455102
 20
6.031249999999869
 30
0.0
 11
1.058151906455102
 21
5.937286243689268
 31
0.0
  0
ARC
  5
A0D
330
1F
100
AcDbEntity
  8
0
100
AcDbCircle
 10
1.026901906455102
 20
5.937286243689268
 30
0.0
 40
0.0312500000000011
100
AcDbArc
 50
240.0000000000045
 51
0.0
  0
LINE
  5
A0E
330
1F
100
AcDbEntity
  8
0
100
AcDbLine
 10
1.198276906455078
 20
6.886652050178721
 30
0.0
 11
1.035526906455097
 21
6.792688293868135
 31
0.0
  0
ARC
  5
A0F
330
1F
100
AcDbEntity
  8
0
100
AcDbCircle
 10
1.051151906455097
 20
6.765624999999869
 30
0.0
 40
0.0312500000000031
100
AcDbArc
 50
119.9999999999991
 51
240.0000000000009
  0
LINE
  5
A10
330
1F
100
AcDbEntity
  8
0
100
AcDbLine
 10
1.035526906455097
 20
6.738561706131602
 30
0.0
 11
1.198276906455078
 21
6.644597949821002
 31
0.0
  0
ARC
  5
A11
330
1F
100
AcDbEntity
  8
0
100
AcDbCircle
 10
1.213901906455078
 20
6.671661243689268
 30
0.0
 40
0.0312500000000006
100
AcDbArc
 50
240.0000000000025
 51
0.0000000000032569
  0
LINE
  5
A12
330
1F
100
AcDbEntity
  8
0
100
AcDbLine
 10
1.245151906455078
 20
6.671661243689268
 30
0.0
 11
1.245151906455085
 21
6.765624999999869
 31
0.0
  0
LINE
  5
A13
330
1F
100
AcDbEntity
  8
0
100
AcDbLine
 10
1.245151906455085
 20
6.765624999999869
 30
0.0
 11
1.245151906455078
 21
6.859588756310455
 31
0.0
  0
ARC
  5
A14
330
1F
100
AcDbEntity
  8
0
100
AcDbCircle
 10
1.213901906455078
 20
6.859588756310458
 30
0.0
 40
0.0312500000000009
100
AcDbArc
 50
359.9999999999968
 51
119.9999999999975
  0
LINE
  5
A15
330
1F
100
AcDbEntity
  8
0
  6
Continuous
100
AcDbLine
 10
1.011276906455102
 20
7.910222949821129
 30
0.0
 11
0.8485269064551133
 21
8.00418670613173
 31
0.0
  0
ARC
  5
A16
330
1F
100
AcDbEntity
  8
0
  6
Continuous
100
AcDbCircle
 10
0.8641519064551133
 20
8.031249999999996
 30
0.0
 40
0.031250000000003
100
AcDbArc
 50
119.9999999999987
 51
240.0000000000013
  0
LINE
  5
A17
330
1F
100
AcDbEntity
  8
0
  6
Continuous
100
AcDbLine
 10
0.8485269064551133
 20
8.058313293868263
 30
0.0
 11
1.011276906455102
 21
8.152277050178878
 31
0.0
  0
ARC
  5
A18
330
1F
100
AcDbEntity
  8
0
  6
Continuous
100
AcDbCircle
 10
1.026901906455102
 20
8.125213756310611
 30
0.0
 40
0.031250000000002
100
AcDbArc
 50
0.0
 51
119.9999999999955
  0
LINE
  5
A19
330
1F
100
AcDbEntity
  8
0
  6
Continuous
100
AcDbLine
 10
1.058151906455102
 20
8.125213756310611
 30
0.0
 11
1.058151906455102
 21
8.031249999999996
 31
0.0
  0
LINE
  5
A1A
330
1F
100
AcDbEntity
  8
0
  6
Continuous
100
AcDbLine
 10
1.058151906455102
 20
8.031249999999996
 30
0.0
 11
1.058151906455102
 21
7.937286243689396
 31
0.0
  0
ARC
  5
A1B
330
1F
100
AcDbEntity
  8
0
  6
Continuous
100
AcDbCircle
 10
1.026901906455102
 20
7.937286243689396
 30
0.0
 40
0.0312500000000011
100
AcDbArc
 50
240.0000000000045
 51
0.0
  0
LINE
  5
A1C
330
1F
100
AcDbEntity
  8
0
  6
Continuous
100
AcDbLine
 10
1.604526906455057
 20
7.441472949821129
 30
0.0
 11
1.441776906455054
 21
7.53543670613173
 31
0.0
  0
ARC
  5
A1D
330
1F
100
AcDbEntity
  8
0
  6
Continuous
100
AcDbCircle
 10
1.457401906455054
 20
7.562499999999996
 30
0.0
 40
0.0312500000000031
100
AcDbArc
 50
119.9999999999991
 51
240.0000000000009
  0
LINE
  5
A1E
330
1F
100
AcDbEntity
  8
0
  6
Continuous
100
AcDbLine
 10
1.441776906455054
 20
7.589563293868263
 30
0.0
 11
1.604526906455057
 21
7.683527050178878
 31
0.0
  0
ARC
  5
A1F
330
1F
100
AcDbEntity
  8
0
  6
Continuous
100
AcDbCircle
 10
1.620151906455057
 20
7.656463756310611
 30
0.0
 40
0.031250000000002
100
AcDbArc
 50
0.0
 51
119.9999999999955
  0
LINE
  5
A20
330
1F
100
AcDbEntity
  8
0
  6
Continuous
100
AcDbLine
 10
1.651401906455057
 20
7.656463756310611
 30
0.0
 11
1.651401906455057
 21
7.562499999999996
 31
0.0
  0
LINE
  5
A21
330
1F
100
AcDbEntity
  8
0
  6
Continuous
100
AcDbLine
 10
1.651401906455057
 20
7.562499999999996
 30
0.0
 11
1.651401906455057
 21
7.468536243689396
 31
0.0
  0
ARC
  5
A22
330
1F
100
AcDbEntity
  8
0
  6
Continuous
100
AcDbCircle
 10
1.620151906455057
 20
7.468536243689396
 30
0.0
 40
0.0312500000000011
100
AcDbArc
 50
240.0000000000045
 51
0.0
  0
LINE
  5
A23
330
1F
100
AcDbEntity
  8
0
  6
Continuous
100
AcDbLine
 10
1.198276906455078
 20
8.886652050178849
 30
0.0
 11
1.035526906455097
 21
8.792688293868263
 31
0.0
  0
ARC
  5
A24
330
1F
100
AcDbEntity
  8
0
  6
Continuous
100
AcDbCircle
 10
1.051151906455097
 20
8.765624999999996
 30
0.0
 40
0.0312500000000031
100
AcDbArc
 50
119.9999999999991
 51
240.0000000000009
  0
LINE
  5
A25
330
1F
100
AcDbEntity
  8
0
  6
Continuous
100
AcDbLine
 10
1.035526906455097
 20
8.73856170613173
 30
0.0
 11
1.198276906455078
 21
8.644597949821129
 31
0.0
  0
ARC
  5
A26
330
1F
100
AcDbEntity
  8
0
  6
Continuous
100
AcDbCircle
 10
1.213901906455078
 20
8.671661243689396
 30
0.0
 40
0.0312500000000006
100
AcDbArc
 50
240.0000000000025
 51
0.0000000000032569
  0
LINE
  5
A27
330
1F
100
AcDbEntity
  8
0
  6
Continuous
100
AcDbLine
 10
1.245151906455078
 20
8.671661243689396
 30
0.0
 11
1.245151906455085
 21
8.765624999999996
 31
0.0
  0
LINE
  5
A28
330
1F
100
AcDbEntity
  8
0
  6
Continuous
100
AcDbLine
 10
1.245151906455085
 20
8.765624999999996
 30
0.0
 11
1.245151906455078
 21
8.859588756310583
 31
0.0
  0
ARC
  5
A29
330
1F
100
AcDbEntity
  8
0
  6
Continuous
100
AcDbCircle
 10
1.213901906455078
 20
8.859588756310586
 30
0.0
 40
0.0312500000000009
100
AcDbArc
 50
359.9999999999968
 51
119.9999999999975
  0
LINE
  5
A2A
330
1F
100
AcDbEntity
  8
0
100
AcDbLine
 10
9.639398900347246
 20
14.13873062767711
 30
0.0
 11
9.562677814267559
 21
14.06200954195641
 31
0.0
  0
ARC
  5
A2B
330
1F
100
AcDbEntity
  8
0
100
AcDbCircle
 10
9.584774901141584
 20
14.03991245500628
 30
0.0
 40
0.0312499999999965
100
AcDbArc
 50
134.999999901334
 51
224.9999998530408
  0
LINE
  5
A2C
330
1F
100
AcDbEntity
  8
0
100
AcDbLine
 10
9.56267781417283
 20
14.01781536815088
 30
0.0
 11
9.639398899474358
 21
13.94109428236098
 31
0.0
  0
ARC
  5
A2D
330
1F
100
AcDbEntity
  8
0
100
AcDbCircle
 10
9.661495986386438
 20
13.96319136927307
 30
0.0
 40
0.0312500000000028
100
AcDbArc
 50
225.0000000000046
 51
315.0000000661551
  0
LINE
  5
A2E
330
1F
100
AcDbEntity
  8
0
100
AcDbLine
 10
9.683593073324033
 20
13.9410942823865
 30
0.0
 11
9.760314159627825
 21
14.01781536836046
 31
0.0
  0
ARC
  5
A2F
330
1F
100
AcDbEntity
  8
0
100
AcDbCircle
 10
9.738217072715743
 20
14.03991245527254
 30
0.0
 40
0.0312500000000015
100
AcDbArc
 50
315.0000000000023
 51
44.99999990132015
  0
LINE
  5
A30
330
1F
100
AcDbEntity
  8
0
100
AcDbLine
 10
9.760314159665882
 20
14.06200954214656
 30
0.0
 11
9.683593074171412
 21
14.13873062767711
 31
0.0
  0
ARC
  5
A31
330
1F
100
AcDbEntity
  8
0
100
AcDbCircle
 10
9.661495987259329
 20
14.11663354076503
 30
0.0
 40
0.0312500000000053
100
AcDbArc
 50
45.0
 51
135.0
  0
LINE
  5
A32
330
1F
100
AcDbEntity
  8
0
  6
Continuous
100
AcDbLine
 10
17.58493418903196
 20
4.667902050178856
 30
0.0
 11
17.74768418903195
 21
4.573938293868228
 31
0.0
  0
ARC
  5
A33
330
1F
100
AcDbEntity
  8
0
  6
Continuous
100
AcDbCircle
 10
17.73205918903195
 20
4.546874999999962
 30
0.0
 40
0.0312500000000026
100
AcDbArc
 50
299.9999999999973
 51
60.00000000000272
  0
LINE
  5
A34
330
1F
100
AcDbEntity
  8
0
  6
Continuous
100
AcDbLine
 10
17.74768418903195
 20
4.519811706131695
 30
0.0
 11
17.58493418903196
 21
4.425847949821079
 31
0.0
  0
ARC
  5
A35
330
1F
100
AcDbEntity
  8
0
  6
Continuous
100
AcDbCircle
 10
17.56930918903196
 20
4.452911243689345
 30
0.0
 40
0.0312500000000026
100
AcDbArc
 50
180.0
 51
299.9999999999973
  0
LINE
  5
A36
330
1F
100
AcDbEntity
  8
0
  6
Continuous
100
AcDbLine
 10
17.53805918903196
 20
4.452911243689345
 30
0.0
 11
17.53805918903196
 21
4.546874999999976
 31
0.0
  0
LINE
  5
A37
330
1F
100
AcDbEntity
  8
0
  6
Continuous
100
AcDbLine
 10
17.53805918903196
 20
4.546874999999976
 30
0.0
 11
17.53805918903196
 21
4.64083875631059
 31
0.0
  0
ARC
  5
A38
330
1F
100
AcDbEntity
  8
0
  6
Continuous
100
AcDbCircle
 10
17.56930918903196
 20
4.640838756310593
 30
0.0
 40
0.03125
100
AcDbArc
 50
60.00000000000109
 51
180.0000000000032
  0
LINE
  5
A39
330
1F
100
AcDbEntity
  8
0
  6
Continuous
100
AcDbLine
 10
18.20993418903196
 20
4.167902050178841
 30
0.0
 11
18.37268418903197
 21
4.073938293868227
 31
0.0
  0
ARC
  5
A3A
330
1F
100
AcDbEntity
  8
0
  6
Continuous
100
AcDbCircle
 10
18.35705918903197
 20
4.04687499999996
 30
0.0
 40
0.0312500000000026
100
AcDbArc
 50
299.9999999999973
 51
60.00000000000272
  0
LINE
  5
A3B
330
1F
100
AcDbEntity
  8
0
  6
Continuous
100
AcDbLine
 10
18.37268418903197
 20
4.019811706131693
 30
0.0
 11
18.20993418903196
 21
3.925847949821107
 31
0.0
  0
ARC
  5
A3C
330
1F
100
AcDbEntity
  8
0
  6
Continuous
100
AcDbCircle
 10
18.19430918903196
 20
3.952911243689374
 30
0.0
 40
0.0312500000000026
100
AcDbArc
 50
180.0
 51
299.9999999999973
  0
LINE
  5
A3D
330
1F
100
AcDbEntity
  8
0
  6
Continuous
100
AcDbLine
 10
18.16305918903196
 20
3.952911243689374
 30
0.0
 11
18.16305918903196
 21
4.046874999999974
 31
0.0
  0
LINE
  5
A3E
330
1F
100
AcDbEntity
  8
0
  6
Continuous
100
AcDbLine
 10
18.16305918903196
 20
4.046874999999974
 30
0.0
 11
18.16305918903196
 21
4.140838756310575
 31
0.0
  0
ARC
  5
A3F
330
1F
100
AcDbEntity
  8
0
  6
Continuous
100
AcDbCircle
 10
18.19430918903196
 20
4.140838756310576
 30
0.0
 40
0.03125
100
AcDbArc
 50
60.00000000000109
 51
180.0000000000032
  0
LINE
  5
A40
330
1F
100
AcDbEntity
  8
0
  6
Continuous
100
AcDbLine
 10
17.89743418903198
 20
5.167902050178828
 30
0.0
 11
18.06018418903195
 21
5.073938293868242
 31
0.0
  0
ARC
  5
A41
330
1F
100
AcDbEntity
  8
0
  6
Continuous
100
AcDbCircle
 10
18.04455918903195
 20
5.046874999999975
 30
0.0
 40
0.0312500000000026
100
AcDbArc
 50
299.9999999999973
 51
60.00000000000272
  0
LINE
  5
A42
330
1F
100
AcDbEntity
  8
0
  6
Continuous
100
AcDbLine
 10
18.06018418903195
 20
5.019811706131709
 30
0.0
 11
17.89743418903198
 21
4.925847949821108
 31
0.0
  0
ARC
  5
A43
330
1F
100
AcDbEntity
  8
0
  6
Continuous
100
AcDbCircle
 10
17.88180918903198
 20
4.952911243689375
 30
0.0
 40
0.031250000000001
100
AcDbArc
 50
179.9999999999967
 51
299.9999999999989
  0
LINE
  5
A44
330
1F
100
AcDbEntity
  8
0
  6
Continuous
100
AcDbLine
 10
17.85055918903198
 20
4.952911243689375
 30
0.0
 11
17.85055918903196
 21
5.046874999999975
 31
0.0
  0
LINE
  5
A45
330
1F
100
AcDbEntity
  8
0
  6
Continuous
100
AcDbLine
 10
17.85055918903196
 20
5.046874999999975
 30
0.0
 11
17.85055918903198
 21
5.140838756310561
 31
0.0
  0
ARC
  5
A46
330
1F
100
AcDbEntity
  8
0
  6
Continuous
100
AcDbCircle
 10
17.88180918903198
 20
5.140838756310565
 30
0.0
 40
0.03125
100
AcDbArc
 50
60.00000000000109
 51
180.0000000000032
  0
LINE
  5
A47
330
1F
100
AcDbEntity
  8
0
100
AcDbLine
 10
17.59090798770355
 20
6.839777050178743
 30
0.0
 11
17.75365798770353
 21
6.745813293868114
 31
0.0
  0
ARC
  5
A48
330
1F
100
AcDbEntity
  8
0
100
AcDbCircle
 10
17.73803298770353
 20
6.718749999999847
 30
0.0
 40
0.0312500000000026
100
AcDbArc
 50
299.9999999999973
 51
60.00000000000272
  0
LINE
  5
A49
330
1F
100
AcDbEntity
  8
0
100
AcDbLine
 10
17.75365798770353
 20
6.691686706131581
 30
0.0
 11
17.59090798770355
 21
6.597722949820966
 31
0.0
  0
ARC
  5
A4A
330
1F
100
AcDbEntity
  8
0
100
AcDbCircle
 10
17.57528298770355
 20
6.624786243689233
 30
0.0
 40
0.0312500000000026
100
AcDbArc
 50
180.0
 51
299.9999999999973
  0
LINE
  5
A4B
330
1F
100
AcDbEntity
  8
0
100
AcDbLine
 10
17.54403298770355
 20
6.624786243689233
 30
0.0
 11
17.54403298770355
 21
6.718749999999861
 31
0.0
  0
LINE
  5
A4C
330
1F
100
AcDbEntity
  8
0
100
AcDbLine
 10
17.54403298770355
 20
6.718749999999861
 30
0.0
 11
17.54403298770355
 21
6.812713756310476
 31
0.0
  0
ARC
  5
A4D
330
1F
100
AcDbEntity
  8
0
100
AcDbCircle
 10
17.57528298770355
 20
6.81271375631048
 30
0.0
 40
0.03125
100
AcDbArc
 50
60.00000000000109
 51
180.0000000000032
  0
LINE
  5
A4E
330
1F
100
AcDbEntity
  8
0
100
AcDbLine
 10
17.30368418903204
 20
6.386652050178743
 30
0.0
 11
17.46643418903203
 21
6.292688293868114
 31
0.0
  0
ARC
  5
A4F
330
1F
100
AcDbEntity
  8
0
100
AcDbCircle
 10
17.45080918903203
 20
6.265624999999847
 30
0.0
 40
0.0312500000000026
100
AcDbArc
 50
299.9999999999973
 51
60.00000000000272
  0
LINE
  5
A50
330
1F
100
AcDbEntity
  8
0
100
AcDbLine
 10
17.46643418903203
 20
6.238561706131581
 30
0.0
 11
17.30368418903204
 21
6.144597949820966
 31
0.0
  0
ARC
  5
A51
330
1F
100
AcDbEntity
  8
0
100
AcDbCircle
 10
17.28805918903204
 20
6.171661243689233
 30
0.0
 40
0.0312500000000026
100
AcDbArc
 50
180.0
 51
299.9999999999973
  0
LINE
  5
A52
330
1F
100
AcDbEntity
  8
0
100
AcDbLine
 10
17.25680918903204
 20
6.171661243689233
 30
0.0
 11
17.25680918903204
 21
6.265624999999861
 31
0.0
  0
LINE
  5
A53
330
1F
100
AcDbEntity
  8
0
100
AcDbLine
 10
17.25680918903204
 20
6.265624999999861
 30
0.0
 11
17.25680918903204
 21
6.359588756310476
 31
0.0
  0
ARC
  5
A54
330
1F
100
AcDbEntity
  8
0
100
AcDbCircle
 10
17.28805918903204
 20
6.35958875631048
 30
0.0
 40
0.03125
100
AcDbArc
 50
60.00000000000109
 51
180.0000000000032
  0
LINE
  5
A55
330
1F
100
AcDbEntity
  8
0
100
AcDbLine
 10
18.08493418903196
 20
5.886652050178729
 30
0.0
 11
18.24768418903197
 21
5.792688293868114
 31
0.0
  0
ARC
  5
A56
330
1F
100
AcDbEntity
  8
0
100
AcDbCircle
 10
18.23205918903197
 20
5.765624999999847
 30
0.0
 40
0.0312500000000026
100
AcDbArc
 50
299.9999999999973
 51
60.00000000000272
  0
LINE
  5
A57
330
1F
100
AcDbEntity
  8
0
100
AcDbLine
 10
18.24768418903197
 20
5.738561706131581
 30
0.0
 11
18.08493418903196
 21
5.644597949820994
 31
0.0
  0
ARC
  5
A58
330
1F
100
AcDbEntity
  8
0
100
AcDbCircle
 10
18.06930918903196
 20
5.671661243689261
 30
0.0
 40
0.0312500000000026
100
AcDbArc
 50
180.0
 51
299.9999999999973
  0
LINE
  5
A59
330
1F
100
AcDbEntity
  8
0
100
AcDbLine
 10
18.03805918903196
 20
5.671661243689261
 30
0.0
 11
18.03805918903196
 21
5.765624999999861
 31
0.0
  0
LINE
  5
A5A
330
1F
100
AcDbEntity
  8
0
100
AcDbLine
 10
18.03805918903196
 20
5.765624999999861
 30
0.0
 11
18.03805918903196
 21
5.859588756310462
 31
0.0
  0
ARC
  5
A5B
330
1F
100
AcDbEntity
  8
0
100
AcDbCircle
 10
18.06930918903196
 20
5.859588756310465
 30
0.0
 40
0.03125
100
AcDbArc
 50
60.00000000000109
 51
180.0000000000032
  0
LINE
  5
A5C
330
1F
100
AcDbEntity
  8
0
  6
Continuous
100
AcDbLine
 10
17.59090798770355
 20
8.839777050178856
 30
0.0
 11
17.75365798770353
 21
8.745813293868228
 31
0.0
  0
ARC
  5
A5D
330
1F
100
AcDbEntity
  8
0
  6
Continuous
100
AcDbCircle
 10
17.73803298770353
 20
8.718749999999961
 30
0.0
 40
0.0312500000000026
100
AcDbArc
 50
299.9999999999973
 51
60.00000000000272
  0
LINE
  5
A5E
330
1F
100
AcDbEntity
  8
0
  6
Continuous
100
AcDbLine
 10
17.75365798770353
 20
8.691686706131694
 30
0.0
 11
17.59090798770355
 21
8.59772294982108
 31
0.0
  0
ARC
  5
A5F
330
1F
100
AcDbEntity
  8
0
  6
Continuous
100
AcDbCircle
 10
17.57528298770355
 20
8.624786243689346
 30
0.0
 40
0.0312500000000026
100
AcDbArc
 50
180.0
 51
299.9999999999973
  0
LINE
  5
A60
330
1F
100
AcDbEntity
  8
0
  6
Continuous
100
AcDbLine
 10
17.54403298770355
 20
8.624786243689346
 30
0.0
 11
17.54403298770355
 21
8.718749999999975
 31
0.0
  0
LINE
  5
A61
330
1F
100
AcDbEntity
  8
0
  6
Continuous
100
AcDbLine
 10
17.54403298770355
 20
8.718749999999975
 30
0.0
 11
17.54403298770355
 21
8.81271375631059
 31
0.0
  0
ARC
  5
A62
330
1F
100
AcDbEntity
  8
0
  6
Continuous
100
AcDbCircle
 10
17.57528298770355
 20
8.812713756310593
 30
0.0
 40
0.03125
100
AcDbArc
 50
60.00000000000109
 51
180.0000000000032
  0
LINE
  5
A63
330
1F
100
AcDbEntity
  8
0
  6
Continuous
100
AcDbLine
 10
17.30368418903204
 20
8.386652050178856
 30
0.0
 11
17.46643418903203
 21
8.292688293868228
 31
0.0
  0
ARC
  5
A64
330
1F
100
AcDbEntity
  8
0
  6
Continuous
100
AcDbCircle
 10
17.45080918903203
 20
8.265624999999961
 30
0.0
 40
0.0312500000000026
100
AcDbArc
 50
299.9999999999973
 51
60.00000000000272
  0
LINE
  5
A65
330
1F
100
AcDbEntity
  8
0
  6
Continuous
100
AcDbLine
 10
17.46643418903203
 20
8.238561706131694
 30
0.0
 11
17.30368418903204
 21
8.14459794982108
 31
0.0
  0
ARC
  5
A66
330
1F
100
AcDbEntity
  8
0
  6
Continuous
100
AcDbCircle
 10
17.28805918903204
 20
8.171661243689346
 30
0.0
 40
0.0312500000000026
100
AcDbArc
 50
180.0
 51
299.9999999999973
  0
LINE
  5
A67
330
1F
100
AcDbEntity
  8
0
  6
Continuous
100
AcDbLine
 10
17.25680918903204
 20
8.171661243689346
 30
0.0
 11
17.25680918903204
 21
8.265624999999975
 31
0.0
  0
LINE
  5
A68
330
1F
100
AcDbEntity
  8
0
  6
Continuous
100
AcDbLine
 10
17.25680918903204
 20
8.265624999999975
 30
0.0
 11
17.25680918903204
 21
8.35958875631059
 31
0.0
  0
ARC
  5
A69
330
1F
100
AcDbEntity
  8
0
  6
Continuous
100
AcDbCircle
 10
17.28805918903204
 20
8.359588756310593
 30
0.0
 40
0.03125
100
AcDbArc
 50
60.00000000000109
 51
180.0000000000032
  0
LINE
  5
A6A
330
1F
100
AcDbEntity
  8
0
  6
Continuous
100
AcDbLine
 10
18.08493418903197
 20
7.886652050178842
 30
0.0
 11
18.24768418903197
 21
7.792688293868228
 31
0.0
  0
ARC
  5
A6B
330
1F
100
AcDbEntity
  8
0
  6
Continuous
100
AcDbCircle
 10
18.23205918903197
 20
7.765624999999961
 30
0.0
 40
0.0312500000000026
100
AcDbArc
 50
299.9999999999973
 51
60.00000000000272
  0
LINE
  5
A6C
330
1F
100
AcDbEntity
  8
0
  6
Continuous
100
AcDbLine
 10
18.24768418903197
 20
7.738561706131694
 30
0.0
 11
18.08493418903197
 21
7.644597949821108
 31
0.0
  0
ARC
  5
A6D
330
1F
100
AcDbEntity
  8
0
  6
Continuous
100
AcDbCircle
 10
18.06930918903197
 20
7.671661243689375
 30
0.0
 40
0.0312500000000026
100
AcDbArc
 50
180.0
 51
299.9999999999973
  0
LINE
  5
A6E
330
1F
100
AcDbEntity
  8
0
  6
Continuous
100
AcDbLine
 10
18.03805918903197
 20
7.671661243689375
 30
0.0
 11
18.03805918903197
 21
7.765624999999975
 31
0.0
  0
LINE
  5
A6F
330
1F
100
AcDbEntity
  8
0
  6
Continuous
100
AcDbLine
 10
18.03805918903197
 20
7.765624999999975
 30
0.0
 11
18.03805918903197
 21
7.859588756310576
 31
0.0
  0
ARC
  5
A70
330
1F
100
AcDbEntity
  8
0
  6
Continuous
100
AcDbCircle
 10
18.06930918903197
 20
7.859588756310579
 30
0.0
 40
0.03125
100
AcDbArc
 50
60.00000000000109
 51
180.0000000000032
  0
ENDSEC
  0
SECTION
  2
OBJECTS
  0
DICTIONARY
  5
C
330
0
100
AcDbDictionary
281
     1
  3
ACAD_COLOR
350
A79
  3
ACAD_GROUP
350
D
  3
ACAD_LAYOUT
350
1A
  3
ACAD_MATERIAL
350
A78
  3
ACAD_MLINESTYLE
350
17
  3
ACAD_PLOTSETTINGS
350
19
  3
ACAD_PLOTSTYLENAME
350
E
  3
ACAD_TABLESTYLE
350
A7A
  3
ACDBHEADERROUNDTRIPXREC
350
A88
  3
AcDbVariableDictionary
350
1BF
  0
DICTIONARY
  5
A79
102
{ACAD_REACTORS
330
C
102
}
330
C
100
AcDbDictionary
281
     1
  0
DICTIONARY
  5
D
102
{ACAD_REACTORS
330
C
102
}
330
C
100
AcDbDictionary
281
     1
  0
DICTIONARY
  5
1A
102
{ACAD_REACTORS
330
C
102
}
330
C
100
AcDbDictionary
281
     1
  3
Layout1
350
1E
  3
Layout2
350
26
  3
Model
350
22
  0
DICTIONARY
  5
A78
102
{ACAD_REACTORS
330
C
102
}
330
C
100
AcDbDictionary
281
     1
  0
DICTIONARY
  5
17
102
{ACAD_REACTORS
330
C
102
}
330
C
100
AcDbDictionary
281
     1
  3
Standard
350
18
  0
DICTIONARY
  5
19
102
{ACAD_REACTORS
330
C
102
}
330
C
100
AcDbDictionary
281
     1
  0
ACDBDICTIONARYWDFLT
  5
E
102
{ACAD_REACTORS
330
C
102
}
330
C
100
AcDbDictionary
281
     1
  3
Normal
350
F
100
AcDbDictionaryWithDefault
340
F
  0
DICTIONARY
  5
A7A
102
{ACAD_REACTORS
330
C
102
}
330
C
100
AcDbDictionary
281
     1
  3
Standard
350
A7B
  0
DICTIONARY
  5
A88
102
{ACAD_REACTORS
330
C
102
}
330
C
100
AcDbDictionary
281
     1
  3
COLORDICT
350
A89
  3
MATERIALDICT
350
A8A
  0
DICTIONARY
  5
1BF
102
{ACAD_REACTORS
330
C
102
}
330
C
100
AcDbDictionary
281
     1
  3
CTABLESTYLE
350
A86
  3
DIMASSOC
350
1C1
  3
HIDETEXT
350
1C0
  0
LAYOUT
  5
1E
102
{ACAD_REACTORS
330
1A
102
}
102
{ACAD_XDICTIONARY
360
A8B
102
}
330
1A
100
AcDbPlotSettings
  1

  2
X:\Program Files\AutoCAD2002\plotters\DWF ePlot (optimized for plotting).pc3
  4

  6

 40
0.0
 41
0.0
 42
0.0
 43
0.0
 44
0.0
 45
0.0
 46
0.0
 47
0.0
 48
0.0
 49
0.0
140
0.0
141
0.0
142
1.0
143
1.0
 70
   688
 72
     0
 73
     0
 74
     5
  7

 75
    16
147
1.0
148
0.0
149
0.0
100
AcDbLayout
  1
Layout1
 70
     1
 71
     1
 10
0.0
 20
0.0
 11
12.0
 21
9.0
 12
0.0
 22
0.0
 32
0.0
 14
1.000000000000000E+20
 24
1.000000000000000E+20
 34
1.000000000000000E+20
 15
-1.000000000000000E+20
 25
-1.000000000000000E+20
 35
-1.000000000000000E+20
146
0.0
 13
0.0
 23
0.0
 33
0.0
 16
1.0
 26
0.0
 36
0.0
 17
0.0
 27
1.0
 37
0.0
 76
     0
330
1B
  0
LAYOUT
  5
26
102
{ACAD_REACTORS
330
1A
102
}
102
{ACAD_XDICTIONARY
360
A8D
102
}
330
1A
100
AcDbPlotSettings
  1

  2
X:\Program Files\AutoCAD2002\plotters\DWF ePlot (optimized for plotting).pc3
  4

  6

 40
0.0
 41
0.0
 42
0.0
 43
0.0
 44
0.0
 45
0.0
 46
0.0
 47
0.0
 48
0.0
 49
0.0
140
0.0
141
0.0
142
1.0
143
1.0
 70
   688
 72
     0
 73
     0
 74
     5
  7

 75
    16
147
1.0
148
0.0
149
0.0
100
AcDbLayout
  1
Layout2
 70
     1
 71
     2
 10
0.0
 20
0.0
 11
12.0
 21
9.0
 12
0.0
 22
0.0
 32
0.0
 14
0.0
 24
0.0
 34
0.0
 15
0.0
 25
0.0
 35
0.0
146
0.0
 13
0.0
 23
0.0
 33
0.0
 16
1.0
 26
0.0
 36
0.0
 17
0.0
 27
1.0
 37
0.0
 76
     0
330
23
  0
LAYOUT
  5
22
102
{ACAD_REACTORS
330
1A
102
}
102
{ACAD_XDICTIONARY
360
A8F
102
}
330
1A
100
AcDbPlotSettings
  1

  2
X:\Program Files\AutoCAD2002\plotters\DWF ePlot (optimized for plotting).pc3
  4

  6

 40
0.0
 41
0.0
 42
0.0
 43
0.0
 44
0.0
 45
0.0
 46
0.0
 47
0.0
 48
0.0
 49
0.0
140
0.0
141
0.0
142
1.0
143
1.0
 70
  1712
 72
     0
 73
     0
 74
     0
  7

 75
     0
147
1.0
148
0.0
149
0.0
100
AcDbLayout
  1
Model
 70
     1
 71
     0
 10
0.0
 20
0.0
 11
12.0
 21
9.0
 12
0.0
 22
0.0
 32
0.0
 14
0.0
 24
0.0
 34
0.0
 15
0.0
 25
0.0
 35
0.0
146
0.0
 13
0.0
 23
0.0
 33
0.0
 16
1.0
 26
0.0
 36
0.0
 17
0.0
 27
1.0
 37
0.0
 76
     0
330
1F
  0
MLINESTYLE
  5
18
102
{ACAD_REACTORS
330
17
102
}
330
17
100
AcDbMlineStyle
  2
STANDARD
 70
     0
  3

 62
   256
 51
90.0
 52
90.0
 71
     2
 49
0.5
 62
   256
  6
BYLAYER
 49
-0.5
 62
   256
  6
BYLAYER
  0
ACDBPLACEHOLDER
  5
F
102
{ACAD_REACTORS
330
E
102
}
330
E
  0
ACAD_PROXY_OBJECT
  5
A7B
102
{ACAD_REACTORS
330
A7A
102
}
330
A7A
100
AcDbProxyObject
 90
      499
 91
      504
 95
   983063
 70
     0
 93
     1841
310
4214DD185B99185C9928B81E85EB51B8AE3F2E07A17AD46E2B8FC02B5E8DC0F42B1CFD028000000C1008070000C3001FDFF8000000C1003FBFF000000182007F7FE00000030400FEFFC00000060801FDFF8000000C1003FBFF00000018200000000000000681FA0B0000001820100E000186003FBFF000000182007F7FE000
310
00030400FEFFC00000060801FDFF8000000C1003FBFF000000182007F7FE000000304000AD7A3703D0AC73F4160000003040201C00030C007F7FE00000030400FEFFC00000060801FDFF8000000C1003FBFF000000182007F7FE00000030400FEFFC000000608000
340
11
340
11
340
11
 94
        0
  0
XRECORD
  5
A89
102
{ACAD_REACTORS
330
A88
102
}
330
A88
100
AcDbXrecord
340
A79
  0
XRECORD
  5
A8A
102
{ACAD_REACTORS
330
A88
102
}
330
A88
100
AcDbXrecord
340
A78
  0
DICTIONARYVAR
  5
A86
102
{ACAD_REACTORS
330
1BF
102
}
330
1BF
100
DictionaryVariables
280
     0
  1
STANDARD
  0
DICTIONARYVAR
  5
1C1
102
{ACAD_REACTORS
330
1BF
102
}
330
1BF
100
DictionaryVariables
280
     0
  1
2
  0
DICTIONARYVAR
  5
1C0
102
{ACAD_REACTORS
330
1BF
102
}
330
1BF
100
DictionaryVariables
280
     0
  1
1
  0
DICTIONARY
  5
A8B
330
1E
100
AcDbDictionary
280
     1
281
     1
  3
ACAD_XREC_ROUNDTRIP
360
A8C
  0
DICTIONARY
  5
A8D
330
26
100
AcDbDictionary
280
     1
281
     1
  3
ACAD_XREC_ROUNDTRIP
360
A8E
  0
DICTIONARY
  5
A8F
330
22
100
AcDbDictionary
280
     1
281
     1
  3
ACAD_XREC_ROUNDTRIP
360
A90
  0
XRECORD
  5
A8C
102
{ACAD_REACTORS
330
A8B
102
}
330
A8B
100
AcDbXrecord
102
SHADEPLOT
 70
     0
102
SHADEPLOTRESLEVEL
 70
     2
102
SHADEPLOTCUSTOMDPI
 70
   300
  0
XRECORD
  5
A8E
102
{ACAD_REACTORS
330
A8D
102
}
330
A8D
100
AcDbXrecord
102
SHADEPLOT
 70
     0
102
SHADEPLOTRESLEVEL
 70
     2
102
SHADEPLOTCUSTOMDPI
 70
   300
  0
XRECORD
  5
A90
102
{ACAD_REACTORS
330
A8F
102
}
330
A8F
100
AcDbXrecord
102
SHADEPLOT
 70
     0
102
SHADEPLOTRESLEVEL
 70
     2
102
SHADEPLOTCUSTOMDPI
 70
   300
  0
ENDSEC
  0
EOF
