  0
SECTION
  2
HEADER
  9
$ACADVER
  1
AC1015
  9
$ACADMAINTVER
 70
     6
  9
$DWGCODEPAGE
  3
ANSI_1252
  9
$INSBASE
 10
0.0
 20
0.0
 30
0.0
  9
$EXTMIN
 10
0.0301550234723671
 20
-0.0264096307544008
 30
-0.0015258207003583
  9
$EXTMAX
 10
23.37100067787419
 20
12.97016974403729
 30
0.0000000349246037
  9
$LIMMIN
 10
0.0
 20
0.0
  9
$LIMMAX
 10
12.0
 20
9.0
  9
$ORTHOMODE
 70
     1
  9
$REGENMODE
 70
     1
  9
$FILLMODE
 70
     1
  9
$QTEXTMODE
 70
     0
  9
$MIRRTEXT
 70
     1
  9
$LTSCALE
 40
1.0
  9
$ATTMODE
 70
     1
  9
$TEXTSIZE
 40
0.2
  9
$TRACEWID
 40
0.05
  9
$TEXTSTYLE
  7
Standard
  9
$CLAYER
  8
0
  9
$CELTYPE
  6
ByLayer
  9
$CECOLOR
 62
   256
  9
$CELTSCALE
 40
1.0
  9
$DISPSILH
 70
     0
  9
$DIMSCALE
 40
1.0
  9
$DIMASZ
 40
0.18
  9
$DIMEXO
 40
0.0625
  9
$DIMDLI
 40
0.38
  9
$DIMRND
 40
0.0
  9
$DIMDLE
 40
0.0
  9
$DIMEXE
 40
0.18
  9
$DIMTP
 40
0.0
  9
$DIMTM
 40
0.0
  9
$DIMTXT
 40
0.18
  9
$DIMCEN
 40
0.09
  9
$DIMTSZ
 40
0.0
  9
$DIMTOL
 70
     0
  9
$DIMLIM
 70
     0
  9
$DIMTIH
 70
     1
  9
$DIMTOH
 70
     1
  9
$DIMSE1
 70
     0
  9
$DIMSE2
 70
     0
  9
$DIMTAD
 70
     0
  9
$DIMZIN
 70
     0
  9
$DIMBLK
  1

  9
$DIMASO
 70
     1
  9
$DIMSHO
 70
     1
  9
$DIMPOST
  1

  9
$DIMAPOST
  1

  9
$DIMALT
 70
     0
  9
$DIMALTD
 70
     2
  9
$DIMALTF
 40
25.4
  9
$DIMLFAC
 40
1.0
  9
$DIMTOFL
 70
     0
  9
$DIMTVP
 40
0.0
  9
$DIMTIX
 70
     0
  9
$DIMSOXD
 70
     0
  9
$DIMSAH
 70
     0
  9
$DIMBLK1
  1

  9
$DIMBLK2
  1

  9
$DIMSTYLE
  2
Standard
  9
$DIMCLRD
 70
     0
  9
$DIMCLRE
 70
     0
  9
$DIMCLRT
 70
     0
  9
$DIMTFAC
 40
1.0
  9
$DIMGAP
 40
0.09
  9
$DIMJUST
 70
     0
  9
$DIMSD1
 70
     0
  9
$DIMSD2
 70
     0
  9
$DIMTOLJ
 70
     1
  9
$DIMTZIN
 70
     0
  9
$DIMALTZ
 70
     0
  9
$DIMALTTZ
 70
     0
  9
$DIMUPT
 70
     0
  9
$DIMDEC
 70
     4
  9
$DIMTDEC
 70
     4
  9
$DIMALTU
 70
     2
  9
$DIMALTTD
 70
     2
  9
$DIMTXSTY
  7
Standard
  9
$DIMAUNIT
 70
     0
  9
$DIMADEC
 70
     0
  9
$DIMALTRND
 40
0.0
  9
$DIMAZIN
 70
     0
  9
$DIMDSEP
 70
    46
  9
$DIMATFIT
 70
     3
  9
$DIMFRAC
 70
     0
  9
$DIMLDRBLK
  1

  9
$DIMLUNIT
 70
     2
  9
$DIMLWD
 70
    -2
  9
$DIMLWE
 70
    -2
  9
$DIMTMOVE
 70
     0
  9
$LUNITS
 70
     2
  9
$LUPREC
 70
     4
  9
$SKETCHINC
 40
0.1
  9
$FILLETRAD
 40
0.5
  9
$AUNITS
 70
     0
  9
$AUPREC
 70
     0
  9
$MENU
  1
.
  9
$ELEVATION
 40
0.0
  9
$PELEVATION
 40
0.0
  9
$THICKNESS
 40
0.0
  9
$LIMCHECK
 70
     0
  9
$CHAMFERA
 40
0.5
  9
$CHAMFERB
 40
0.5
  9
$CHAMFERC
 40
1.0
  9
$CHAMFERD
 40
0.0
  9
$SKPOLY
 70
     0
  9
$TDCREATE
 40
2453423.550611007
  9
$TDUCREATE
 40
2453423.88394434
  9
$TDUPDATE
 40
2454165.78826875
  9
$TDUUPDATE
 40
2454166.121602084
  9
$TDINDWG
 40
0.0073974421
  9
$TDUSRTIMER
 40
0.0073974421
  9
$USRTIMER
 70
     1
  9
$ANGBASE
 50
0.0
  9
$ANGDIR
 70
     0
  9
$PDMODE
 70
     0
  9
$PDSIZE
 40
0.0
  9
$PLINEWID
 40
0.0
  9
$SPLFRAME
 70
     0
  9
$SPLINETYPE
 70
     6
  9
$SPLINESEGS
 70
     8
  9
$HANDSEED
  5
53F
  9
$SURFTAB1
 70
     6
  9
$SURFTAB2
 70
     6
  9
$SURFTYPE
 70
     6
  9
$SURFU
 70
     6
  9
$SURFV
 70
     6
  9
$UCSBASE
  2

  9
$UCSNAME
  2

  9
$UCSORG
 10
0.0
 20
0.0
 30
0.0
  9
$UCSXDIR
 10
1.0
 20
0.0
 30
0.0
  9
$UCSYDIR
 10
0.0
 20
1.0
 30
0.0
  9
$UCSORTHOREF
  2

  9
$UCSORTHOVIEW
 70
     0
  9
$UCSORGTOP
 10
0.0
 20
0.0
 30
0.0
  9
$UCSORGBOTTOM
 10
0.0
 20
0.0
 30
0.0
  9
$UCSORGLEFT
 10
0.0
 20
0.0
 30
0.0
  9
$UCSORGRIGHT
 10
0.0
 20
0.0
 30
0.0
  9
$UCSORGFRONT
 10
0.0
 20
0.0
 30
0.0
  9
$UCSORGBACK
 10
0.0
 20
0.0
 30
0.0
  9
$PUCSBASE
  2

  9
$PUCSNAME
  2

  9
$PUCSORG
 10
0.0
 20
0.0
 30
0.0
  9
$PUCSXDIR
 10
1.0
 20
0.0
 30
0.0
  9
$PUCSYDIR
 10
0.0
 20
1.0
 30
0.0
  9
$PUCSORTHOREF
  2

  9
$PUCSORTHOVIEW
 70
     0
  9
$PUCSORGTOP
 10
0.0
 20
0.0
 30
0.0
  9
$PUCSORGBOTTOM
 10
0.0
 20
0.0
 30
0.0
  9
$PUCSORGLEFT
 10
0.0
 20
0.0
 30
0.0
  9
$PUCSORGRIGHT
 10
0.0
 20
0.0
 30
0.0
  9
$PUCSORGFRONT
 10
0.0
 20
0.0
 30
0.0
  9
$PUCSORGBACK
 10
0.0
 20
0.0
 30
0.0
  9
$USERI1
 70
     0
  9
$USERI2
 70
     0
  9
$USERI3
 70
     0
  9
$USERI4
 70
     0
  9
$USERI5
 70
     0
  9
$USERR1
 40
0.0
  9
$USERR2
 40
0.0
  9
$USERR3
 40
0.0
  9
$USERR4
 40
0.0
  9
$USERR5
 40
0.0
  9
$WORLDVIEW
 70
     1
  9
$SHADEDGE
 70
     3
  9
$SHADEDIF
 70
    70
  9
$TILEMODE
 70
     1
  9
$MAXACTVP
 70
    64
  9
$PINSBASE
 10
0.0
 20
0.0
 30
0.0
  9
$PLIMCHECK
 70
     0
  9
$PEXTMIN
 10
1.000000000000000E+20
 20
1.000000000000000E+20
 30
1.000000000000000E+20
  9
$PEXTMAX
 10
-1.000000000000000E+20
 20
-1.000000000000000E+20
 30
-1.000000000000000E+20
  9
$PLIMMIN
 10
0.0
 20
0.0
  9
$PLIMMAX
 10
12.0
 20
9.0
  9
$UNITMODE
 70
     0
  9
$VISRETAIN
 70
     1
  9
$PLINEGEN
 70
     0
  9
$PSLTSCALE
 70
     1
  9
$TREEDEPTH
 70
  3020
  9
$CMLSTYLE
  2
Standard
  9
$CMLJUST
 70
     0
  9
$CMLSCALE
 40
1.0
  9
$PROXYGRAPHICS
 70
     1
  9
$MEASUREMENT
 70
     0
  9
$CELWEIGHT
370
    -1
  9
$ENDCAPS
280
     0
  9
$JOINSTYLE
280
     0
  9
$LWDISPLAY
290
     0
  9
$INSUNITS
 70
     1
  9
$HYPERLINKBASE
  1

  9
$STYLESHEET
  1

  9
$XEDIT
290
     1
  9
$CEPSNTYPE
380
     0
  9
$PSTYLEMODE
290
     1
  9
$FINGERPRINTGUID
  2
{ECA10E69-4C5B-4F16-AD25-61A2BC38045A}
  9
$VERSIONGUID
  2
{9E0D57F4-8148-40C8-9D1A-AC8F7E76F7E5}
  9
$EXTNAMES
290
     1
  9
$PSVPSCALE
 40
0.0
  9
$OLESTARTUP
290
     0
  0
ENDSEC
  0
SECTION
  2
CLASSES
  0
CLASS
  1
ACDBDICTIONARYWDFLT
  2
AcDbDictionaryWithDefault
  3
AutoCAD 2000
 90
        0
280
     0
281
     0
  0
CLASS
  1
ACDBPLACEHOLDER
  2
AcDbPlaceHolder
  3
ObjectDBX Classes
 90
        0
280
     0
281
     0
  0
CLASS
  1
LAYOUT
  2
AcDbLayout
  3
ObjectDBX Classes
 90
        0
280
     0
281
     0
  0
CLASS
  1
DICTIONARYVAR
  2
AcDbDictionaryVar
  3
AutoCAD 2000
 90
        0
280
     0
281
     0
  0
CLASS
  1
TABLESTYLE
  2
AcDbTableStyle
  3
ObjectDBX Classes
 90
     2047
280
     1
281
     0
  0
ENDSEC
  0
SECTION
  2
TABLES
  0
TABLE
  2
VPORT
  5
8
330
0
100
AcDbSymbolTable
 70
     2
  0
VPORT
  5
52C
330
8
100
AcDbSymbolTableRecord
100
AcDbViewportTableRecord
  2
*Active
 70
     0
 10
0.0
 20
0.0
 11
1.0
 21
1.0
 12
10.6574769380385
 22
4.848973858280212
 13
0.0
 23
0.0
 14
0.5
 24
0.5
 15
0.5
 25
0.5
 16
0.0
 26
0.0
 36
1.0
 17
0.0
 27
0.0
 37
0.0
 40
21.05391814436294
 41
1.814583333333333
 42
50.0
 43
0.0
 44
0.0
 50
0.0
 51
0.0
 71
     0
 72
   100
 73
     1
 74
     3
 75
     0
 76
     0
 77
     0
 78
     0
281
     0
 65
     1
110
0.0
120
0.0
130
0.0
111
1.0
121
0.0
131
0.0
112
0.0
122
1.0
132
0.0
 79
     0
146
0.0
  0
ENDTAB
  0
TABLE
  2
LTYPE
  5
5
330
0
100
AcDbSymbolTable
 70
     2
  0
LTYPE
  5
14
330
5
100
AcDbSymbolTableRecord
100
AcDbLinetypeTableRecord
  2
ByBlock
 70
     0
  3

 72
    65
 73
     0
 40
0.0
  0
LTYPE
  5
15
330
5
100
AcDbSymbolTableRecord
100
AcDbLinetypeTableRecord
  2
ByLayer
 70
     0
  3

 72
    65
 73
     0
 40
0.0
  0
LTYPE
  5
16
330
5
100
AcDbSymbolTableRecord
100
AcDbLinetypeTableRecord
  2
Continuous
 70
     0
  3
Solid line
 72
    65
 73
     0
 40
0.0
  0
LTYPE
  5
52B
330
5
100
AcDbSymbolTableRecord
100
AcDbLinetypeTableRecord
  2
HIDDEN
 70
     0
  3
Hidden __ __ __ __ __ __ __ __ __ __ __ __ __ _
 72
    65
 73
     2
 40
0.375
 49
0.25
 74
     0
 49
-0.125
 74
     0
  0
ENDTAB
  0
TABLE
  2
LAYER
  5
2
330
0
100
AcDbSymbolTable
 70
     1
  0
LAYER
  5
10
330
2
100
AcDbSymbolTableRecord
100
AcDbLayerTableRecord
  2
0
 70
     0
 62
     7
  6
Continuous
370
    -3
390
F
  0
ENDTAB
  0
TABLE
  2
STYLE
  5
3
330
0
100
AcDbSymbolTable
 70
     2
  0
STYLE
  5
11
330
3
100
AcDbSymbolTableRecord
100
AcDbTextStyleTableRecord
  2
Standard
 70
     0
 40
0.0
 41
1.0
 50
0.0
 71
     0
 42
0.2
  3
txt
  4

  0
STYLE
  5
52A
330
3
100
AcDbSymbolTableRecord
100
AcDbTextStyleTableRecord
  2

 70
     1
 40
0.0
 41
1.0
 50
0.0
 71
     0
 42
0.2
  3
ltypeshp.shx
  4

  0
ENDTAB
  0
TABLE
  2
VIEW
  5
6
330
0
100
AcDbSymbolTable
 70
     0
  0
ENDTAB
  0
TABLE
  2
UCS
  5
7
330
0
100
AcDbSymbolTable
 70
     0
  0
ENDTAB
  0
TABLE
  2
APPID
  5
9
330
0
100
AcDbSymbolTable
 70
     1
  0
APPID
  5
12
330
9
100
AcDbSymbolTableRecord
100
AcDbRegAppTableRecord
  2
ACAD
 70
     0
  0
ENDTAB
  0
TABLE
  2
DIMSTYLE
  5
A
330
0
100
AcDbSymbolTable
 70
     1
100
AcDbDimStyleTable
  0
DIMSTYLE
105
27
330
A
100
AcDbSymbolTableRecord
100
AcDbDimStyleTableRecord
  2
Standard
 70
     0
  3

  4

340
11
  0
ENDTAB
  0
TABLE
  2
BLOCK_RECORD
  5
1
330
0
100
AcDbSymbolTable
 70
     1
  0
BLOCK_RECORD
  5
1F
330
1
100
AcDbSymbolTableRecord
100
AcDbBlockTableRecord
  2
*Model_Space
340
22
  0
BLOCK_RECORD
  5
1B
330
1
100
AcDbSymbolTableRecord
100
AcDbBlockTableRecord
  2
*Paper_Space
340
1E
  0
BLOCK_RECORD
  5
23
330
1
100
AcDbSymbolTableRecord
100
AcDbBlockTableRecord
  2
*Paper_Space0
340
26
  0
ENDTAB
  0
ENDSEC
  0
SECTION
  2
BLOCKS
  0
BLOCK
  5
20
330
1F
100
AcDbEntity
  8
0
100
AcDbBlockBegin
  2
*Model_Space
 70
     0
 10
0.0
 20
0.0
 30
0.0
  3
*Model_Space
  1

  4

  0
ENDBLK
  5
21
330
1F
100
AcDbEntity
  8
0
100
AcDbBlockEnd
  0
BLOCK
  5
1C
330
1B
100
AcDbEntity
 67
     1
  8
0
100
AcDbBlockBegin
  2
*Paper_Space
 70
     0
 10
0.0
 20
0.0
 30
0.0
  3
*Paper_Space
  1

  4

  0
ENDBLK
  5
1D
330
1B
100
AcDbEntity
 67
     1
  8
0
100
AcDbBlockEnd
  0
BLOCK
  5
24
330
23
100
AcDbEntity
  8
0
100
AcDbBlockBegin
  2
*Paper_Space0
 70
     0
 10
0.0
 20
0.0
 30
0.0
  3
*Paper_Space0
  1

  4

  0
ENDBLK
  5
25
330
23
100
AcDbEntity
  8
0
100
AcDbBlockEnd
  0
ENDSEC
  0
SECTION
  2
ENTITIES
  0
LINE
  5
456
330
1F
100
AcDbEntity
  8
0
100
AcDbLine
 10
13.47095596463765
 20
12.88131965227793
 30
0.0
 11
11.53345596463763
 21
12.88131965227793
 31
0.0
  0
LINE
  5
457
330
1F
100
AcDbEntity
  8
0
100
AcDbLine
 10
13.47095596463765
 20
12.94381965227793
 30
0.0
 11
11.53345596463763
 21
12.94381965227793
 31
0.0
  0
LINE
  5
458
330
1F
100
AcDbEntity
  8
0
100
AcDbLine
 10
7.970955964637646
 20
12.88131965227793
 30
0.0
 11
6.033455964637646
 21
12.88131965227793
 31
0.0
  0
LINE
  5
459
330
1F
100
AcDbEntity
  8
0
100
AcDbLine
 10
7.970955964637625
 20
12.94381965227793
 30
0.0
 11
6.033455964637646
 21
12.94381965227793
 31
0.0
  0
LINE
  5
45A
330
1F
100
AcDbEntity
  8
0
100
AcDbLine
 10
6.033455964637646
 20
12.88131965227794
 30
0.0
 11
6.033455964637646
 21
12.94381965227793
 31
0.0
  0
LWPOLYLINE
  5
45B
330
1F
100
AcDbEntity
  8
0
100
AcDbPolyline
 90
        8
 70
     1
 43
0.0
 10
9.733375473641228
 20
11.2715578918931
 10
9.656654387561542
 20
11.1948368061724
 42
0.4142135621262115
 10
9.656654387466812
 20
11.15064263236687
 10
9.733375472768341
 20
11.07392154657697
 42
0.4142135627112589
 10
9.777569646618016
 20
11.07392154660249
 10
9.854290732921808
 20
11.15064263257645
 42
0.4142135618686293
 10
9.854290732959864
 20
11.19483680636255
 10
9.777569647465395
 20
11.2715578918931
 42
0.414213562373095
  0
CIRCLE
  5
45C
330
1F
100
AcDbEntity
  8
0
100
AcDbCircle
 10
9.755472560212862
 20
10.63131965227792
 30
0.0
 40
0.1405
  0
LINE
  5
45D
330
1F
100
AcDbEntity
  8
0
100
AcDbLine
 10
8.632105132369624
 20
12.75631965227792
 30
0.0
 11
10.87883998805612
 21
12.75631965227792
 31
0.0
  0
LINE
  5
45E
330
1F
100
AcDbEntity
  8
0
100
AcDbLine
 10
8.619964689885375
 20
9.256319652277922
 30
0.0
 11
10.88480208857596
 21
9.256319652277929
 31
0.0
  0
LINE
  5
45F
330
1F
100
AcDbEntity
  8
0
100
AcDbLine
 10
8.308194563628874
 20
12.75631965227792
 30
0.0
 11
8.441339988056015
 21
12.75631965227792
 31
0.0
  0
LINE
  5
460
330
1F
100
AcDbEntity
  8
0
100
AcDbLine
 10
8.308194563628874
 20
9.256319652277922
 30
0.0
 11
8.447274550671263
 21
9.256319652277922
 31
0.0
  0
LINE
  5
461
330
1F
100
AcDbEntity
  8
0
100
AcDbLine
 10
8.095955964637646
 20
9.30360033846611
 30
0.0
 11
8.095955964637625
 21
12.81881965227793
 31
0.0
  0
LINE
  5
462
330
1F
100
AcDbEntity
  8
0
100
AcDbLine
 10
8.033455964637646
 20
9.30360033846611
 30
0.0
 11
8.033455964637646
 21
12.81881965227793
 31
0.0
  0
LINE
  5
463
330
1F
100
AcDbEntity
  8
0
100
AcDbLine
 10
8.033455964637646
 20
9.30360033846611
 30
0.0
 11
8.095955964637646
 21
9.30360033846611
 31
0.0
  0
LINE
  5
464
330
1F
100
AcDbEntity
  8
0
100
AcDbLine
 10
8.033455964637646
 20
9.30360033846611
 30
0.0
 11
8.095955964637646
 21
9.30360033846611
 31
0.0
  0
ARC
  5
465
330
1F
100
AcDbEntity
  8
0
100
AcDbCircle
 10
8.308194563628874
 20
9.756319652277922
 30
0.0
 40
0.5
100
AcDbArc
 50
244.8824237621803
 51
269.9999999999999
  0
LINE
  5
466
330
1F
100
AcDbEntity
  8
0
100
AcDbLine
 10
8.308194563628874
 20
9.256319652277922
 30
0.0
 11
8.408455964637618
 21
9.256319652277922
 31
0.0
  0
ARC
  5
467
330
1F
100
AcDbEntity
  8
0
100
AcDbCircle
 10
7.970955964637625
 20
12.81881965227793
 30
0.0
 40
0.125
100
AcDbArc
 50
0.0
 51
90.0
  0
LINE
  5
468
330
1F
100
AcDbEntity
  8
0
100
AcDbLine
 10
8.033455964637646
 20
12.77235033846612
 30
0.0
 11
8.095955964637625
 21
12.77235033846612
 31
0.0
  0
ARC
  5
469
330
1F
100
AcDbEntity
  8
0
100
AcDbCircle
 10
7.970955964637646
 20
12.81881965227793
 30
0.0
 40
0.0625
100
AcDbArc
 50
0.0
 51
90.0
  0
ARC
  5
46A
330
1F
100
AcDbEntity
  8
0
100
AcDbCircle
 10
8.308194563628874
 20
13.25631965227792
 30
0.0
 40
0.5
100
AcDbArc
 50
244.8824237621772
 51
269.9999999999999
  0
ARC
  5
46B
330
1F
100
AcDbEntity
  8
0
100
AcDbCircle
 10
8.533619620278312
 20
9.255908238978568
 30
0.0
 40
0.0863460497437565
100
AcDbArc
 50
0.2729984168420139
 51
179.727001583158
  0
ARC
  5
46C
330
1F
100
AcDbEntity
  8
0
100
AcDbCircle
 10
8.536722560212869
 20
12.75669170818986
 30
0.0
 40
0.0953832977876115
100
AcDbArc
 50
180.2234907792949
 51
359.7765092207051
  0
ARC
  5
46D
330
1F
100
AcDbEntity
  8
0
100
AcDbCircle
 10
11.19621736564637
 20
13.25631965227792
 30
0.0
 40
0.5
100
AcDbArc
 50
270.0
 51
295.1175762378232
  0
ARC
  5
46E
330
1F
100
AcDbEntity
  8
0
100
AcDbCircle
 10
11.19621736564637
 20
9.756319652277922
 30
0.0
 40
0.5
100
AcDbArc
 50
270.0
 51
295.117576237823
  0
ARC
  5
46F
330
1F
100
AcDbEntity
  8
0
100
AcDbCircle
 10
10.97129524861838
 20
9.255608165844675
 30
0.0
 40
0.0864960863107047
100
AcDbArc
 50
0.471300277999912
 51
179.528699721998
  0
LINE
  5
470
330
1F
100
AcDbEntity
  8
0
100
AcDbLine
 10
11.05778840866082
 20
9.256319652277922
 30
0.0
 11
11.19621736564637
 21
9.256319652277922
 31
0.0
  0
LINE
  5
471
330
1F
100
AcDbEntity
  8
0
100
AcDbLine
 10
11.09595596463763
 20
9.256319652277929
 30
0.0
 11
11.19621736564637
 21
9.256319652277922
 31
0.0
  0
ARC
  5
472
330
1F
100
AcDbEntity
  8
0
100
AcDbCircle
 10
10.97422256021288
 20
12.75669170818986
 30
0.0
 40
0.0953832977876115
100
AcDbArc
 50
180.2234907792949
 51
359.7765092207051
  0
LINE
  5
473
330
1F
100
AcDbEntity
  8
0
100
AcDbLine
 10
11.0696051323696
 20
12.75631965227792
 30
0.0
 11
11.19621736564637
 21
12.75631965227792
 31
0.0
  0
LINE
  5
474
330
1F
100
AcDbEntity
  8
0
100
AcDbLine
 10
11.09595596463763
 20
12.75631965227792
 30
0.0
 11
11.19621736564637
 21
12.75631965227792
 31
0.0
  0
LINE
  5
475
330
1F
100
AcDbEntity
  8
0
100
AcDbLine
 10
11.47095596463763
 20
9.303600338466124
 30
0.0
 11
11.47095596463763
 21
12.81881965227793
 31
0.0
  0
LINE
  5
476
330
1F
100
AcDbEntity
  8
0
100
AcDbLine
 10
11.40845596463763
 20
9.303600338466124
 30
0.0
 11
11.40845596463763
 21
12.80360033846613
 31
0.0
  0
LINE
  5
477
330
1F
100
AcDbEntity
  8
0
100
AcDbLine
 10
11.47095596463763
 20
9.303600338466124
 30
0.0
 11
11.40845596463763
 21
9.303600338466124
 31
0.0
  0
LINE
  5
478
330
1F
100
AcDbEntity
  8
0
100
AcDbLine
 10
11.4709559646376
 20
12.77235033846612
 30
0.0
 11
11.40845596463763
 21
12.77235033846612
 31
0.0
  0
ARC
  5
479
330
1F
100
AcDbEntity
  8
0
100
AcDbCircle
 10
11.53345596463763
 20
12.81881965227793
 30
0.0
 40
0.125
100
AcDbArc
 50
90.00000000000007
 51
180.0
  0
LINE
  5
47A
330
1F
100
AcDbEntity
  8
0
100
AcDbLine
 10
11.40845596463763
 20
12.80360033846613
 30
0.0
 11
11.40845596463763
 21
12.81881965227793
 31
0.0
  0
ARC
  5
47B
330
1F
100
AcDbEntity
  8
0
100
AcDbCircle
 10
11.53345596463763
 20
12.81881965227793
 30
0.0
 40
0.0625
100
AcDbArc
 50
90.00000000000007
 51
180.0
  0
LINE
  5
47C
330
1F
100
AcDbEntity
  8
0
100
AcDbLine
 10
13.47095596463765
 20
12.88131965227793
 30
0.0
 11
13.47095596463765
 21
12.94381965227793
 31
0.0
  0
LINE
  5
47D
330
1F
100
AcDbEntity
  8
0
  6
Continuous
100
AcDbLine
 10
11.40845596463761
 20
5.43749999999981
 30
0.0
 11
13.09595596463759
 21
5.437499999999799
 31
0.0
  0
ARC
  5
47E
330
1F
100
AcDbEntity
  8
0
  6
Continuous
100
AcDbCircle
 10
11.78345596463759
 20
2.074484893596377
 30
0.0
 40
1.0
100
AcDbArc
 50
315.0000000000009
 51
0.0000000000024427
  0
LINE
  5
47F
330
1F
100
AcDbEntity
  8
0
  6
Continuous
100
AcDbLine
 10
8.095955964637614
 20
5.437499999999814
 30
0.0
 11
6.408455964637643
 21
5.437499999999806
 31
0.0
  0
LINE
  5
480
330
1F
100
AcDbEntity
  8
0
  6
Continuous
100
AcDbLine
 10
7.013849183451054
 20
1.367378112409845
 30
0.0
 11
8.033455964637614
 21
0.281709394848388
 31
0.0
  0
LINE
  5
481
330
1F
100
AcDbEntity
  8
0
  6
Continuous
100
AcDbLine
 10
6.720955964637671
 20
4.97430046104231
 30
0.0
 11
6.720955964637643
 21
4.34930046104231
 31
0.0
  0
LINE
  5
482
330
1F
100
AcDbEntity
  8
0
  6
Continuous
100
AcDbLine
 10
6.720955964637678
 20
3.224300461042294
 30
0.0
 11
6.720955964637614
 21
2.074484893596424
 31
0.0
  0
ARC
  5
483
330
1F
100
AcDbEntity
  8
0
  6
Continuous
100
AcDbCircle
 10
7.720955964637614
 20
2.074484893596381
 30
0.0
 40
1.0
100
AcDbArc
 50
179.9999999999976
 51
224.999999999999
  0
ARC
  5
484
330
1F
100
AcDbEntity
  8
0
  6
Continuous
100
AcDbCircle
 10
6.595955964637664
 20
3.224300461042301
 30
0.0
 40
0.1250000000000142
100
AcDbArc
 50
0.0
 51
90.00000000000976
  0
ARC
  5
485
330
1F
100
AcDbEntity
  8
0
  6
Continuous
100
AcDbCircle
 10
6.533455964637657
 20
3.474300461042329
 30
0.0
 40
0.1250000000000142
100
AcDbArc
 50
180.0
 51
270.0000000000065
  0
LINE
  5
486
330
1F
100
AcDbEntity
  8
0
  6
Continuous
100
AcDbLine
 10
6.533455964637671
 20
3.349300461042308
 30
0.0
 11
6.595955964637643
 21
3.349300461042308
 31
0.0
  0
CIRCLE
  5
487
330
1F
100
AcDbEntity
  8
0
  6
Continuous
100
AcDbCircle
 10
6.689705964637621
 20
3.937499999999925
 30
0.0
 40
0.0855
  0
ARC
  5
488
330
1F
100
AcDbEntity
  8
0
  6
Continuous
100
AcDbCircle
 10
6.595955964637657
 20
4.349300461042303
 30
0.0
 40
0.1249999999999858
100
AcDbArc
 50
270.0000000000065
 51
0.0000000000065138
  0
LINE
  5
489
330
1F
100
AcDbEntity
  8
0
  6
Continuous
100
AcDbLine
 10
6.408455964637671
 20
4.099300461042308
 30
0.0
 11
6.408455964637643
 21
3.474300461042322
 31
0.0
  0
ARC
  5
48A
330
1F
100
AcDbEntity
  8
0
  6
Continuous
100
AcDbCircle
 10
6.533455964637657
 20
4.099300461042329
 30
0.0
 40
0.1249999999999858
100
AcDbArc
 50
90.00000000000649
 51
180.0000000000065
  0
LINE
  5
48B
330
1F
100
AcDbEntity
  8
0
  6
Continuous
100
AcDbLine
 10
6.595955964637671
 20
4.224300461042308
 30
0.0
 11
6.533455964637643
 21
4.224300461042308
 31
0.0
  0
ARC
  5
48C
330
1F
100
AcDbEntity
  8
0
  6
Continuous
100
AcDbCircle
 10
6.595955964637657
 20
4.974300461042303
 30
0.0
 40
0.1250000000000142
100
AcDbArc
 50
0.0000000000065138
 51
90.00000000000649
  0
ARC
  5
48D
330
1F
100
AcDbEntity
  8
0
  6
Continuous
100
AcDbCircle
 10
6.533455964637657
 20
5.224300461042331
 30
0.0
 40
0.1250000000000142
100
AcDbArc
 50
180.0000000000065
 51
270.0000000000065
  0
LINE
  5
48E
330
1F
100
AcDbEntity
  8
0
  6
Continuous
100
AcDbLine
 10
6.408455964637643
 20
5.437499999999806
 30
0.0
 11
6.408455964637643
 21
5.22430046104231
 31
0.0
  0
LINE
  5
48F
330
1F
100
AcDbEntity
  8
0
  6
Continuous
100
AcDbLine
 10
6.533455964637671
 20
5.09930046104231
 30
0.0
 11
6.595955964637643
 21
5.09930046104231
 31
0.0
  0
ARC
  5
490
330
1F
100
AcDbEntity
  8
0
100
AcDbCircle
 10
11.34595596463761
 20
0.1249999999999893
 30
0.0
 40
0.125
100
AcDbArc
 50
270.0
 51
0.0
  0
ARC
  5
491
330
1F
100
AcDbEntity
  8
0
100
AcDbCircle
 10
11.34595596463761
 20
0.1249999999999965
 30
0.0
 40
0.0625
100
AcDbArc
 50
270.0000000000002
 51
0.0
  0
ARC
  5
492
330
1F
100
AcDbEntity
  8
0
100
AcDbCircle
 10
8.158455964637614
 20
0.1249999999999947
 30
0.0
 40
0.125
100
AcDbArc
 50
180.0
 51
269.9999999999999
  0
ARC
  5
493
330
1F
100
AcDbEntity
  8
0
100
AcDbCircle
 10
8.158455964637614
 20
0.1250000000000018
 30
0.0
 40
0.0625
100
AcDbArc
 50
180.0
 51
269.9999999999998
  0
LINE
  5
494
330
1F
100
AcDbEntity
  8
0
100
AcDbLine
 10
11.34595596463761
 20
0.0624999999999964
 30
0.0
 11
8.158455964637614
 21
0.0625000000000018
 31
0.0
  0
LINE
  5
495
330
1F
100
AcDbEntity
  8
0
100
AcDbLine
 10
11.34595596463761
 20
-0.0000000000000107
 30
0.0
 11
8.158455964637614
 21
-0.0000000000000053
 31
0.0
  0
LINE
  5
496
330
1F
100
AcDbEntity
  8
0
100
AcDbLine
 10
8.033455964637614
 20
0.1249999999999947
 30
0.0
 11
8.033455964637614
 21
5.437499999999814
 31
0.0
  0
LINE
  5
497
330
1F
100
AcDbEntity
  8
0
100
AcDbLine
 10
8.095955964637614
 20
0.1250000000000018
 30
0.0
 11
8.095955964637614
 21
5.437499999999814
 31
0.0
  0
CIRCLE
  5
498
330
1F
100
AcDbEntity
  8
0
  6
Continuous
100
AcDbCircle
 10
7.595955964637629
 20
1.141624999999845
 30
0.0
 40
0.0855
  0
CIRCLE
  5
499
330
1F
100
AcDbEntity
  8
0
  6
Continuous
100
AcDbCircle
 10
7.127205964637629
 20
1.641624999999845
 30
0.0
 40
0.0855
  0
CIRCLE
  5
49A
330
1F
100
AcDbEntity
  8
0
  6
Continuous
100
AcDbCircle
 10
7.595955964637629
 20
2.141624999999845
 30
0.0
 40
0.0855
  0
CIRCLE
  5
49B
330
1F
100
AcDbEntity
  8
0
  6
Continuous
100
AcDbCircle
 10
7.127205964637629
 20
2.641624999999845
 30
0.0
 40
0.0855
  0
CIRCLE
  5
49C
330
1F
100
AcDbEntity
  8
0
  6
Continuous
100
AcDbCircle
 10
7.595955964637629
 20
3.141624999999845
 30
0.0
 40
0.0855
  0
CIRCLE
  5
49D
330
1F
100
AcDbEntity
  8
0
  6
Continuous
100
AcDbCircle
 10
7.127205964637629
 20
3.641624999999845
 30
0.0
 40
0.0855
  0
CIRCLE
  5
49E
330
1F
100
AcDbEntity
  8
0
  6
Continuous
100
AcDbCircle
 10
7.595955964637629
 20
4.140624999999869
 30
0.0
 40
0.0855
  0
LINE
  5
49F
330
1F
100
AcDbEntity
  8
0
  6
Continuous
100
AcDbLine
 10
8.033455964637611
 20
3.257247136470987
 30
0.0
 11
7.874489016909298
 21
3.355163492968519
 31
0.0
  0
ARC
  5
4A0
330
1F
100
AcDbEntity
  8
0
  6
Continuous
100
AcDbCircle
 10
8.095955964637629
 20
2.641624999999845
 30
0.0
 40
0.1875
100
AcDbArc
 50
109.4712206344954
 51
250.5287793655046
  0
LINE
  5
4A1
330
1F
100
AcDbEntity
  8
0
  6
Continuous
100
AcDbLine
 10
8.033455964637611
 20
3.555252863528736
 30
0.0
 11
7.874489016909298
 21
3.457336507031219
 31
0.0
  0
ARC
  5
4A2
330
1F
100
AcDbEntity
  8
0
  6
Continuous
100
AcDbCircle
 10
7.905955964637595
 20
3.406249999999869
 30
0.0
 40
0.06
100
AcDbArc
 50
121.6311662755239
 51
238.368833724476
  0
CIRCLE
  5
4A3
330
1F
100
AcDbEntity
  8
0
  6
Continuous
100
AcDbCircle
 10
7.127205964637629
 20
4.641624999999847
 30
0.0
 40
0.0855
  0
CIRCLE
  5
4A4
330
1F
100
AcDbEntity
  8
0
  6
Continuous
100
AcDbCircle
 10
7.595955964637629
 20
5.14062499999987
 30
0.0
 40
0.0855
  0
LINE
  5
4A5
330
1F
100
AcDbEntity
  8
0
  6
Continuous
100
AcDbLine
 10
8.033455964637611
 20
5.055252863528734
 30
0.0
 11
7.874489016909298
 21
4.95733650703122
 31
0.0
  0
LINE
  5
4A6
330
1F
100
AcDbEntity
  8
0
  6
Continuous
100
AcDbLine
 10
8.033455964637611
 20
4.757247136470985
 30
0.0
 11
7.874489016909298
 21
4.85516349296852
 31
0.0
  0
ARC
  5
4A7
330
1F
100
AcDbEntity
  8
0
  6
Continuous
100
AcDbCircle
 10
7.905955964637595
 20
4.90624999999987
 30
0.0
 40
0.06
100
AcDbArc
 50
121.6311662755239
 51
238.368833724476
  0
LINE
  5
4A8
330
1F
100
AcDbEntity
  8
0
100
AcDbLine
 10
11.47095596463761
 20
0.1249999999999893
 30
0.0
 11
11.47095596463761
 21
5.437499999999806
 31
0.0
  0
LINE
  5
4A9
330
1F
100
AcDbEntity
  8
0
100
AcDbLine
 10
11.40845596463761
 20
0.1249999999999965
 30
0.0
 11
11.40845596463761
 21
5.43749999999981
 31
0.0
  0
CIRCLE
  5
4AA
330
1F
100
AcDbEntity
  8
0
  6
Continuous
100
AcDbCircle
 10
11.9084559646376
 20
2.14162499999984
 30
0.0
 40
0.0855
  0
CIRCLE
  5
4AB
330
1F
100
AcDbEntity
  8
0
  6
Continuous
100
AcDbCircle
 10
11.9084559646376
 20
1.14162499999984
 30
0.0
 40
0.0855
  0
LINE
  5
4AC
330
1F
100
AcDbEntity
  8
0
  6
Continuous
100
AcDbLine
 10
12.49056274582415
 20
1.367378112409842
 30
0.0
 11
11.47095596463761
 21
0.2817093948483844
 31
0.0
  0
CIRCLE
  5
4AD
330
1F
100
AcDbEntity
  8
0
  6
Continuous
100
AcDbCircle
 10
12.3772059646376
 20
1.64162499999984
 30
0.0
 40
0.0855
  0
CIRCLE
  5
4AE
330
1F
100
AcDbEntity
  8
0
  6
Continuous
100
AcDbCircle
 10
11.9084559646376
 20
3.14162499999984
 30
0.0
 40
0.0855
  0
CIRCLE
  5
4AF
330
1F
100
AcDbEntity
  8
0
  6
Continuous
100
AcDbCircle
 10
11.9084559646376
 20
4.140624999999863
 30
0.0
 40
0.0855
  0
LINE
  5
4B0
330
1F
100
AcDbEntity
  8
0
  6
Continuous
100
AcDbLine
 10
11.47095596463762
 20
3.257247136470982
 30
0.0
 11
11.62992291236593
 21
3.355163492968513
 31
0.0
  0
ARC
  5
4B1
330
1F
100
AcDbEntity
  8
0
  6
Continuous
100
AcDbCircle
 10
11.4084559646376
 20
2.64162499999984
 30
0.0
 40
0.1875
100
AcDbArc
 50
289.4712206344954
 51
70.52877936550463
  0
LINE
  5
4B2
330
1F
100
AcDbEntity
  8
0
  6
Continuous
100
AcDbLine
 10
11.47095596463762
 20
3.555252863528731
 30
0.0
 11
11.62992291236593
 21
3.457336507031213
 31
0.0
  0
ARC
  5
4B3
330
1F
100
AcDbEntity
  8
0
  6
Continuous
100
AcDbCircle
 10
11.59845596463763
 20
3.406249999999863
 30
0.0
 40
0.06
100
AcDbArc
 50
301.631166275524
 51
58.36883372447606
  0
CIRCLE
  5
4B4
330
1F
100
AcDbEntity
  8
0
  6
Continuous
100
AcDbCircle
 10
12.3772059646376
 20
2.64162499999984
 30
0.0
 40
0.0855
  0
CIRCLE
  5
4B5
330
1F
100
AcDbEntity
  8
0
  6
Continuous
100
AcDbCircle
 10
12.3772059646376
 20
3.64162499999984
 30
0.0
 40
0.0855
  0
CIRCLE
  5
4B6
330
1F
100
AcDbEntity
  8
0
  6
Continuous
100
AcDbCircle
 10
11.9084559646376
 20
5.140624999999863
 30
0.0
 40
0.0855
  0
LINE
  5
4B7
330
1F
100
AcDbEntity
  8
0
  6
Continuous
100
AcDbLine
 10
11.47095596463762
 20
5.055252863528731
 30
0.0
 11
11.62992291236593
 21
4.957336507031213
 31
0.0
  0
LINE
  5
4B8
330
1F
100
AcDbEntity
  8
0
  6
Continuous
100
AcDbLine
 10
11.47095596463762
 20
4.757247136470982
 30
0.0
 11
11.62992291236593
 21
4.855163492968513
 31
0.0
  0
ARC
  5
4B9
330
1F
100
AcDbEntity
  8
0
  6
Continuous
100
AcDbCircle
 10
11.59845596463763
 20
4.906249999999863
 30
0.0
 40
0.06
100
AcDbArc
 50
301.631166275524
 51
58.36883372447606
  0
CIRCLE
  5
4BA
330
1F
100
AcDbEntity
  8
0
  6
Continuous
100
AcDbCircle
 10
12.3772059646376
 20
4.64162499999984
 30
0.0
 40
0.0855
  0
LINE
  5
4BB
330
1F
100
AcDbEntity
  8
0
  6
Continuous
100
AcDbLine
 10
12.78345596463756
 20
4.974300461042303
 30
0.0
 11
12.78345596463759
 21
4.349300461042303
 31
0.0
  0
LINE
  5
4BC
330
1F
100
AcDbEntity
  8
0
  6
Continuous
100
AcDbLine
 10
12.78345596463755
 20
3.224300461042288
 30
0.0
 11
12.78345596463759
 21
2.074484893596415
 31
0.0
  0
ARC
  5
4BD
330
1F
100
AcDbEntity
  8
0
  6
Continuous
100
AcDbCircle
 10
12.90845596463757
 20
3.224300461042295
 30
0.0
 40
0.1250000000000142
100
AcDbArc
 50
89.99999999999022
 51
180.0
  0
ARC
  5
4BE
330
1F
100
AcDbEntity
  8
0
  6
Continuous
100
AcDbCircle
 10
12.97095596463757
 20
3.474300461042324
 30
0.0
 40
0.1250000000000142
100
AcDbArc
 50
269.9999999999935
 51
0.0
  0
LINE
  5
4BF
330
1F
100
AcDbEntity
  8
0
  6
Continuous
100
AcDbLine
 10
12.97095596463756
 20
3.349300461042303
 30
0.0
 11
12.90845596463759
 21
3.349300461042303
 31
0.0
  0
ARC
  5
4C0
330
1F
100
AcDbEntity
  8
0
  6
Continuous
100
AcDbCircle
 10
12.97095596463757
 20
4.099300461042324
 30
0.0
 40
0.1249999999999858
100
AcDbArc
 50
359.9999999999934
 51
89.99999999999349
  0
CIRCLE
  5
4C1
330
1F
100
AcDbEntity
  8
0
  6
Continuous
100
AcDbCircle
 10
12.81470596463761
 20
3.93749999999992
 30
0.0
 40
0.0855
  0
ARC
  5
4C2
330
1F
100
AcDbEntity
  8
0
  6
Continuous
100
AcDbCircle
 10
12.90845596463757
 20
4.349300461042295
 30
0.0
 40
0.1249999999999858
100
AcDbArc
 50
179.9999999999935
 51
269.9999999999935
  0
LINE
  5
4C3
330
1F
100
AcDbEntity
  8
0
  6
Continuous
100
AcDbLine
 10
12.90845596463756
 20
4.224300461042303
 30
0.0
 11
12.97095596463759
 21
4.224300461042303
 31
0.0
  0
LINE
  5
4C4
330
1F
100
AcDbEntity
  8
0
  6
Continuous
100
AcDbLine
 10
13.09595596463756
 20
4.099300461042303
 30
0.0
 11
13.09595596463759
 21
3.474300461042317
 31
0.0
  0
ARC
  5
4C5
330
1F
100
AcDbEntity
  8
0
  6
Continuous
100
AcDbCircle
 10
12.97095596463757
 20
5.224300461042324
 30
0.0
 40
0.1250000000000142
100
AcDbArc
 50
269.9999999999935
 51
359.9999999999934
  0
ARC
  5
4C6
330
1F
100
AcDbEntity
  8
0
  6
Continuous
100
AcDbCircle
 10
12.90845596463757
 20
4.974300461042295
 30
0.0
 40
0.1250000000000142
100
AcDbArc
 50
89.99999999999349
 51
179.9999999999935
  0
LINE
  5
4C7
330
1F
100
AcDbEntity
  8
0
  6
Continuous
100
AcDbLine
 10
12.97095596463756
 20
5.099300461042303
 30
0.0
 11
12.90845596463759
 21
5.099300461042303
 31
0.0
  0
LINE
  5
4C8
330
1F
100
AcDbEntity
  8
0
  6
Continuous
100
AcDbLine
 10
13.09595596463759
 20
5.437499999999799
 30
0.0
 11
13.09595596463759
 21
5.224300461042303
 31
0.0
  0
LINE
  5
4C9
330
1F
100
AcDbEntity
  8
0
  6
Continuous
100
AcDbLine
 10
1.842655023472432
 20
5.437499999999817
 30
0.0
 11
0.0301550234724033
 21
5.437499999999817
 31
0.0
  0
CIRCLE
  5
4CA
330
1F
100
AcDbEntity
  8
0
  6
Continuous
100
AcDbCircle
 10
1.280155023472425
 20
1.359374999999979
 30
0.0
 40
0.0855
  0
LINE
  5
4CB
330
1F
100
AcDbEntity
  8
0
  6
HIDDEN
100
AcDbLine
 10
3.625934368183749
 20
0.0624999999999787
 30
0.0
 11
0.1571843681837493
 21
0.0625
 31
0.0
  0
LINE
  5
4CC
330
1F
100
AcDbEntity
  8
0
100
AcDbLine
 10
3.716958858528507
 20
-0.0000000000000213
 30
0.0
 11
0.1571843681837493
 21
0.0
 31
0.0
  0
LWPOLYLINE
  5
4CD
330
1F
100
AcDbEntity
  8
0
  6
Continuous
100
AcDbPolyline
 90
        7
 70
     1
 43
0.0
 10
1.318780023472428
 20
4.238347949821119
 10
1.156030023472425
 20
4.332311706131721
 42
-0.5773502691896388
 10
1.156030023472425
 20
4.386438293868254
 10
1.318780023472428
 20
4.480402050178869
 42
-0.5773502691896191
 10
1.365655023472428
 20
4.453338756310602
 10
1.365655023472428
 20
4.359374999999988
 10
1.365655023472428
 20
4.265411243689385
 42
-0.5773502691896191
  0
ARC
  5
4CE
330
1F
100
AcDbEntity
  8
0
  6
Continuous
100
AcDbCircle
 10
-0.282344976527483
 20
-0.1758567811866634
 30
0.0
 40
0.4999999999999437
100
AcDbArc
 50
28.47097865576721
 51
51.31781254652739
  0
LINE
  5
4CF
330
1F
100
AcDbEntity
  8
0
100
AcDbLine
 10
0.1571843681837493
 20
0.0625
 30
0.0
 11
0.1571843681837493
 21
0.0
 31
0.0
  0
LINE
  5
4D0
330
1F
100
AcDbEntity
  8
0
  6
Continuous
100
AcDbLine
 10
0.0301550234724033
 20
0.2144555937132555
 30
0.0
 11
0.0301550234724033
 21
5.437499999999817
 31
0.0
  0
LINE
  5
4D1
330
1F
100
AcDbEntity
  8
0
100
AcDbLine
 10
0.0794650543719371
 20
5.437499999999817
 30
0.0
 11
0.0794650543719442
 21
0.1692424821282597
 31
0.0
  0
CIRCLE
  5
4D2
330
1F
100
AcDbEntity
  8
0
  6
Continuous
100
AcDbCircle
 10
0.9681550234724767
 20
1.859374999999979
 30
0.0
 40
0.0855
  0
LINE
  5
4D3
330
1F
100
AcDbEntity
  8
0
  6
Continuous
100
AcDbLine
 10
0.0794650543719513
 20
3.249122719822832
 30
0.0
 11
0.2516219712007199
 21
3.355163492968529
 31
0.0
  0
ARC
  5
4D4
330
1F
100
AcDbEntity
  8
0
  6
Continuous
100
AcDbCircle
 10
0.0301550234724175
 20
2.641624999999856
 30
0.0
 40
0.1875
100
AcDbArc
 50
285.247364245756
 51
74.75263575424388
  0
ARC
  5
4D5
330
1F
100
AcDbEntity
  8
0
  6
Continuous
100
AcDbCircle
 10
0.2201550234724294
 20
3.406249999999879
 30
0.0
 40
0.06
100
AcDbArc
 50
301.631166275524
 51
58.36883372447569
  0
LINE
  5
4D6
330
1F
100
AcDbEntity
  8
0
  6
Continuous
100
AcDbLine
 10
0.0794650543719513
 20
3.563377280176914
 30
0.0
 11
0.2516219712007199
 21
3.457336507031229
 31
0.0
  0
CIRCLE
  5
4D7
330
1F
100
AcDbEntity
  8
0
  6
Continuous
100
AcDbCircle
 10
0.9681550234724767
 20
3.359374999999979
 30
0.0
 40
0.0855
  0
ARC
  5
4D8
330
1F
100
AcDbEntity
  8
0
  6
Continuous
100
AcDbCircle
 10
0.2201550234724294
 20
4.906249999999881
 30
0.0
 40
0.06
100
AcDbArc
 50
301.631166275524
 51
58.36883372447569
  0
LINE
  5
4D9
330
1F
100
AcDbEntity
  8
0
  6
Continuous
100
AcDbLine
 10
0.0794650543719513
 20
5.063377280176914
 30
0.0
 11
0.2516219712007199
 21
4.957336507031231
 31
0.0
  0
LINE
  5
4DA
330
1F
100
AcDbEntity
  8
0
  6
Continuous
100
AcDbLine
 10
0.0794650543719371
 20
4.749122719822831
 30
0.0
 11
0.2516219712007199
 21
4.855163492968531
 31
0.0
  0
LWPOLYLINE
  5
4DB
330
1F
100
AcDbEntity
  8
0
  6
Continuous
100
AcDbPolyline
 90
        7
 70
     1
 43
0.0
 10
1.006780023472473
 20
4.753972949821106
 10
0.8440300234724845
 20
4.847936706131707
 42
-0.5773502691896388
 10
0.8440300234724845
 20
4.90206329386824
 10
1.006780023472473
 20
4.99602705017884
 42
-0.5773502691896408
 10
1.053655023472473
 20
4.968963756310574
 10
1.053655023472473
 20
4.874999999999988
 10
1.053655023472473
 20
4.781036243689373
 42
-0.5773502691896069
  0
ARC
  5
4DC
330
1F
100
AcDbEntity
  8
0
  6
Continuous
100
AcDbCircle
 10
3.123905023472517
 20
-0.1758567811866669
 30
0.0
 40
0.4999999999999432
100
AcDbArc
 50
20.592160113719
 51
45.00000000000468
  0
LINE
  5
4DD
330
1F
100
AcDbEntity
  8
0
100
AcDbLine
 10
3.563434368183749
 20
0.0624999999999787
 30
0.0
 11
3.654458858528507
 21
0.0624999999999787
 31
0.0
  0
LINE
  5
4DE
330
1F
100
AcDbEntity
  8
0
100
AcDbLine
 10
3.654458858528507
 20
-0.0000000000000213
 30
0.0
 11
3.654458858528507
 21
0.0624999999999787
 31
0.0
  0
LINE
  5
4DF
330
1F
100
AcDbEntity
  8
0
  6
Continuous
100
AcDbLine
 10
2.155155023472432
 20
4.34930046104232
 30
0.0
 11
2.15515502347246
 21
4.97430046104232
 31
0.0
  0
LINE
  5
4E0
330
1F
100
AcDbEntity
  8
0
  6
Continuous
100
AcDbLine
 10
3.477458414065723
 20
0.1776966094065955
 30
0.0
 11
2.448048242285857
 21
1.267554790360864
 31
0.0
  0
CIRCLE
  5
4E1
330
1F
100
AcDbEntity
  8
0
  6
Continuous
100
AcDbCircle
 10
1.561405023472418
 20
2.359374999999979
 30
0.0
 40
0.0855
  0
LINE
  5
4E2
330
1F
100
AcDbEntity
  8
0
  6
Continuous
100
AcDbLine
 10
2.155155023472425
 20
1.974661571547429
 30
0.0
 11
2.15515502347246
 21
3.224300461042304
 31
0.0
  0
CIRCLE
  5
4E3
330
1F
100
AcDbEntity
  8
0
  6
Continuous
100
AcDbCircle
 10
1.754242966449802
 20
1.265624999999979
 30
0.0
 40
0.0855
  0
ARC
  5
4E4
330
1F
100
AcDbEntity
  8
0
  6
Continuous
100
AcDbCircle
 10
3.155155023472418
 20
1.974661571547401
 30
0.0
 40
1.000000000000003
100
AcDbArc
 50
179.9999999999976
 51
224.999999999999
  0
LINE
  5
4E5
330
1F
100
AcDbEntity
  8
0
  6
Continuous
100
AcDbLine
 10
1.967655023472432
 20
4.224300461042319
 30
0.0
 11
2.03015502347246
 21
4.224300461042319
 31
0.0
  0
LINE
  5
4E6
330
1F
100
AcDbEntity
  8
0
  6
Continuous
100
AcDbLine
 10
2.030155023472432
 20
3.349300461042319
 30
0.0
 11
1.96765502347246
 21
3.349300461042319
 31
0.0
  0
ARC
  5
4E7
330
1F
100
AcDbEntity
  8
0
  6
Continuous
100
AcDbCircle
 10
1.967655023472446
 20
3.47430046104234
 30
0.0
 40
0.1250000000000142
100
AcDbArc
 50
180.0
 51
270.0000000000065
  0
CIRCLE
  5
4E8
330
1F
100
AcDbEntity
  8
0
  6
Continuous
100
AcDbCircle
 10
1.873905023472403
 20
2.734374999999979
 30
0.0
 40
0.0855
  0
CIRCLE
  5
4E9
330
1F
100
AcDbEntity
  8
0
  6
Continuous
100
AcDbCircle
 10
1.561405023472418
 20
3.859374999999979
 30
0.0
 40
0.0855
  0
LINE
  5
4EA
330
1F
100
AcDbEntity
  8
0
  6
Continuous
100
AcDbLine
 10
1.842655023472432
 20
3.474300461042333
 30
0.0
 11
1.84265502347246
 21
4.099300461042319
 31
0.0
  0
ARC
  5
4EB
330
1F
100
AcDbEntity
  8
0
  6
Continuous
100
AcDbCircle
 10
1.967655023472446
 20
4.09930046104234
 30
0.0
 40
0.1249999999999858
100
AcDbArc
 50
90.00000000000649
 51
180.0000000000067
  0
ARC
  5
4EC
330
1F
100
AcDbEntity
  8
0
  6
Continuous
100
AcDbCircle
 10
2.030155023472446
 20
3.224300461042311
 30
0.0
 40
0.1250000000000142
100
AcDbArc
 50
0.0
 51
90.00000000000649
  0
ARC
  5
4ED
330
1F
100
AcDbEntity
  8
0
  6
Continuous
100
AcDbCircle
 10
2.030155023472446
 20
4.349300461042313
 30
0.0
 40
0.1249999999999858
100
AcDbArc
 50
270.0000000000065
 51
0.0000000000065138
  0
LINE
  5
4EE
330
1F
100
AcDbEntity
  8
0
  6
Continuous
100
AcDbLine
 10
2.030155023472432
 20
5.09930046104232
 30
0.0
 11
1.96765502347246
 21
5.09930046104232
 31
0.0
  0
LWPOLYLINE
  5
4EF
330
1F
100
AcDbEntity
  8
0
  6
Continuous
100
AcDbPolyline
 90
        7
 70
     1
 43
0.0
 10
1.912530023472385
 20
4.597722949821121
 10
1.749780023472383
 20
4.691686706131735
 42
-0.5773502691896388
 10
1.749780023472383
 20
4.745813293868268
 10
1.912530023472385
 20
4.839777050178869
 42
-0.577350269189602
 10
1.959405023472385
 20
4.812713756310602
 10
1.959405023472385
 20
4.718749999999988
 10
1.959405023472385
 20
4.624786243689387
 42
-0.577350269189636
  0
ARC
  5
4F0
330
1F
100
AcDbEntity
  8
0
  6
Continuous
100
AcDbCircle
 10
1.967655023472446
 20
5.224300461042342
 30
0.0
 40
0.1250000000000142
100
AcDbArc
 50
180.0000000000067
 51
270.0000000000065
  0
LINE
  5
4F1
330
1F
100
AcDbEntity
  8
0
  6
Continuous
100
AcDbLine
 10
1.842655023472432
 20
5.22430046104232
 30
0.0
 11
1.842655023472432
 21
5.437499999999817
 31
0.0
  0
ARC
  5
4F2
330
1F
100
AcDbEntity
  8
0
  6
Continuous
100
AcDbCircle
 10
2.030155023472446
 20
4.974300461042313
 30
0.0
 40
0.1250000000000142
100
AcDbArc
 50
0.0000000000065138
 51
90.00000000000649
  0
LINE
  5
4F3
330
1F
100
AcDbEntity
  8
0
100
AcDbLine
 10
16.19354182198148
 20
0.0000000000000036
 30
0.0
 11
19.69354182198148
 21
0.0
 31
0.0
  0
LINE
  5
4F4
330
1F
100
AcDbEntity
  8
0
  6
HIDDEN
100
AcDbLine
 10
16.22206631232623
 20
0.0625000000000036
 30
0.0
 11
19.69354182198148
 21
0.0625
 31
0.0
  0
LINE
  5
4F5
330
1F
100
AcDbEntity
  8
0
  6
Continuous
100
AcDbLine
 10
16.37054226644426
 20
0.177696609406599
 30
0.0
 11
17.40267794787938
 21
1.268547658092123
 31
0.0
  0
ARC
  5
4F6
330
1F
100
AcDbEntity
  8
0
  6
Continuous
100
AcDbCircle
 10
16.72409565703745
 20
-0.1758567811866634
 30
0.0
 40
0.4999999999999432
100
AcDbArc
 50
134.9999999999953
 51
159.4078398862809
  0
LINE
  5
4F7
330
1F
100
AcDbEntity
  8
0
100
AcDbLine
 10
16.19354182198148
 20
0.0000000000000036
 30
0.0
 11
16.19354182198148
 21
0.0625000000000036
 31
0.0
  0
LINE
  5
4F8
330
1F
100
AcDbEntity
  8
0
100
AcDbLine
 10
16.28456631232623
 20
0.0625000000000036
 30
0.0
 11
16.19354182198148
 21
0.0625000000000036
 31
0.0
  0
ARC
  5
4F9
330
1F
100
AcDbEntity
  8
0
  6
Continuous
100
AcDbCircle
 10
20.13307116669272
 20
-0.1758567811866634
 30
0.0
 40
0.4999999999999437
100
AcDbArc
 50
128.6821874534726
 51
151.5290213442328
  0
LINE
  5
4FA
330
1F
100
AcDbEntity
  8
0
100
AcDbLine
 10
19.69354182198148
 20
0.0625
 30
0.0
 11
19.69354182198148
 21
0.0
 31
0.0
  0
LINE
  5
4FB
330
1F
100
AcDbEntity
  8
0
  6
Continuous
100
AcDbLine
 10
17.6955711666928
 20
4.34930046104232
 30
0.0
 11
17.69557116669277
 21
4.97430046104232
 31
0.0
  0
LINE
  5
4FC
330
1F
100
AcDbEntity
  8
0
  6
Continuous
100
AcDbLine
 10
19.82057116669283
 20
0.2144555937132555
 30
0.0
 11
19.82057116669283
 21
5.437499999999817
 31
0.0
  0
LINE
  5
4FD
330
1F
100
AcDbEntity
  8
0
100
AcDbLine
 10
19.7712611357933
 20
5.437499999999817
 30
0.0
 11
19.77126113579329
 21
0.1692424821282597
 31
0.0
  0
CIRCLE
  5
4FE
330
1F
100
AcDbEntity
  8
0
  6
Continuous
100
AcDbCircle
 10
18.57057116669279
 20
3.609374999999993
 30
0.0
 40
0.0855
  0
CIRCLE
  5
4FF
330
1F
100
AcDbEntity
  8
0
  6
Continuous
100
AcDbCircle
 10
18.57057116669279
 20
2.109375000000046
 30
0.0
 40
0.0855
  0
LINE
  5
500
330
1F
100
AcDbEntity
  8
0
  6
Continuous
100
AcDbLine
 10
17.69557116669281
 20
1.975654439278689
 30
0.0
 11
17.69557116669277
 21
3.224300461042304
 31
0.0
  0
CIRCLE
  5
501
330
1F
100
AcDbEntity
  8
0
  6
Continuous
100
AcDbCircle
 10
17.82057116669279
 20
0.8750000000000604
 30
0.0
 40
0.0855
  0
ARC
  5
502
330
1F
100
AcDbEntity
  8
0
  6
Continuous
100
AcDbCircle
 10
16.69557116669282
 20
1.97565443927866
 30
0.0
 40
1.000000000000003
100
AcDbArc
 50
315.0000000000009
 51
0.0000000000024427
  0
CIRCLE
  5
503
330
1F
100
AcDbEntity
  8
0
  6
Continuous
100
AcDbCircle
 10
18.25807116669279
 20
1.60937500000006
 30
0.0
 40
0.0855
  0
ARC
  5
504
330
1F
100
AcDbEntity
  8
0
  6
Continuous
100
AcDbCircle
 10
17.88307116669279
 20
4.09930046104234
 30
0.0
 40
0.1249999999999858
100
AcDbArc
 50
359.9999999999934
 51
89.99999999999349
  0
ARC
  5
505
330
1F
100
AcDbEntity
  8
0
  6
Continuous
100
AcDbCircle
 10
17.88307116669279
 20
3.47430046104234
 30
0.0
 40
0.1250000000000142
100
AcDbArc
 50
269.9999999999935
 51
0.0
  0
ARC
  5
506
330
1F
100
AcDbEntity
  8
0
  6
Continuous
100
AcDbCircle
 10
17.82057116669279
 20
3.224300461042311
 30
0.0
 40
0.1250000000000142
100
AcDbArc
 50
89.99999999999349
 51
180.0
  0
LINE
  5
507
330
1F
100
AcDbEntity
  8
0
  6
Continuous
100
AcDbLine
 10
17.8205711666928
 20
3.349300461042319
 30
0.0
 11
17.88307116669277
 21
3.349300461042319
 31
0.0
  0
ARC
  5
508
330
1F
100
AcDbEntity
  8
0
  6
Continuous
100
AcDbCircle
 10
17.82057116669279
 20
4.349300461042313
 30
0.0
 40
0.1249999999999858
100
AcDbArc
 50
179.9999999999935
 51
269.9999999999935
  0
LINE
  5
509
330
1F
100
AcDbEntity
  8
0
  6
Continuous
100
AcDbLine
 10
17.8830711666928
 20
4.224300461042319
 30
0.0
 11
17.82057116669277
 21
4.224300461042319
 31
0.0
  0
CIRCLE
  5
50A
330
1F
100
AcDbEntity
  8
0
  6
Continuous
100
AcDbCircle
 10
18.25807116669279
 20
3.109375000000007
 30
0.0
 40
0.0855
  0
LINE
  5
50B
330
1F
100
AcDbEntity
  8
0
  6
Continuous
100
AcDbLine
 10
18.0080711666928
 20
3.474300461042333
 30
0.0
 11
18.00807116669277
 21
4.099300461042319
 31
0.0
  0
CIRCLE
  5
50C
330
1F
100
AcDbEntity
  8
0
  6
Continuous
100
AcDbCircle
 10
18.88307116669277
 20
1.10937500000006
 30
0.0
 40
0.0855
  0
CIRCLE
  5
50D
330
1F
100
AcDbEntity
  8
0
  6
Continuous
100
AcDbCircle
 10
18.88307116669277
 20
2.609375000000007
 30
0.0
 40
0.0855
  0
LWPOLYLINE
  5
50E
330
1F
100
AcDbEntity
  8
0
  6
Continuous
100
AcDbPolyline
 90
        7
 70
     1
 43
0.0
 10
18.84444616669278
 20
4.230402050178853
 10
19.00719616669278
 20
4.136438293868238
 42
-0.5773502691896388
 10
19.00719616669278
 20
4.082311706131705
 10
18.84444616669278
 20
3.988347949821119
 42
-0.5773502691895971
 10
18.79757116669278
 20
4.015411243689385
 10
18.79757116669278
 20
4.109374999999986
 10
18.79757116669278
 20
4.203338756310586
 42
-0.5773502691896308
  0
LINE
  5
50F
330
1F
100
AcDbEntity
  8
0
  6
Continuous
100
AcDbLine
 10
19.77126113579328
 20
3.249122719822832
 30
0.0
 11
19.59910421896451
 21
3.355163492968529
 31
0.0
  0
ARC
  5
510
330
1F
100
AcDbEntity
  8
0
  6
Continuous
100
AcDbCircle
 10
19.82057116669282
 20
2.641624999999856
 30
0.0
 40
0.1875
100
AcDbArc
 50
105.2473642457561
 51
254.7526357542439
  0
LINE
  5
511
330
1F
100
AcDbEntity
  8
0
  6
Continuous
100
AcDbLine
 10
19.77126113579328
 20
3.563377280176914
 30
0.0
 11
19.59910421896451
 21
3.457336507031229
 31
0.0
  0
ARC
  5
512
330
1F
100
AcDbEntity
  8
0
  6
Continuous
100
AcDbCircle
 10
19.6305711666928
 20
3.406249999999879
 30
0.0
 40
0.06
100
AcDbArc
 50
121.6311662755243
 51
238.368833724476
  0
LWPOLYLINE
  5
513
330
1F
100
AcDbEntity
  8
0
  6
Continuous
100
AcDbPolyline
 90
        7
 70
     1
 43
0.0
 10
18.53194616669279
 20
5.23040205017884
 10
18.69469616669277
 20
5.136438293868254
 42
-0.5773502691896388
 10
18.69469616669277
 20
5.082311706131721
 10
18.53194616669279
 20
4.988347949821121
 42
-0.577350269189624
 10
18.48507116669279
 20
5.015411243689387
 10
18.48507116669278
 20
5.109374999999988
 10
18.48507116669279
 20
5.203338756310574
 42
-0.5773502691896237
  0
LINE
  5
514
330
1F
100
AcDbEntity
  8
0
  6
Continuous
100
AcDbLine
 10
18.0080711666928
 20
5.437499999999817
 30
0.0
 11
19.82057116669283
 21
5.437499999999817
 31
0.0
  0
ARC
  5
515
330
1F
100
AcDbEntity
  8
0
  6
Continuous
100
AcDbCircle
 10
17.88307116669279
 20
5.224300461042342
 30
0.0
 40
0.1250000000000142
100
AcDbArc
 50
269.9999999999935
 51
359.9999999999934
  0
ARC
  5
516
330
1F
100
AcDbEntity
  8
0
  6
Continuous
100
AcDbCircle
 10
17.82057116669279
 20
4.974300461042313
 30
0.0
 40
0.1250000000000142
100
AcDbArc
 50
89.99999999999349
 51
179.9999999999935
  0
LINE
  5
517
330
1F
100
AcDbEntity
  8
0
  6
Continuous
100
AcDbLine
 10
17.8205711666928
 20
5.09930046104232
 30
0.0
 11
17.88307116669277
 21
5.09930046104232
 31
0.0
  0
LWPOLYLINE
  5
518
330
1F
100
AcDbEntity
  8
0
  6
Continuous
100
AcDbPolyline
 90
        7
 70
     1
 43
0.0
 10
18.21944616669278
 20
4.730402050178869
 10
18.38219616669277
 20
4.63643829386824
 42
-0.5773502691896388
 10
18.38219616669277
 20
4.582311706131707
 10
18.21944616669278
 20
4.488347949821092
 42
-0.5773502691896069
 10
18.17257116669278
 20
4.515411243689359
 10
18.17257116669278
 20
4.609374999999988
 10
18.17257116669278
 20
4.703338756310602
 42
-0.5773502691896409
  0
LINE
  5
519
330
1F
100
AcDbEntity
  8
0
  6
Continuous
100
AcDbLine
 10
18.0080711666928
 20
5.22430046104232
 30
0.0
 11
18.0080711666928
 21
5.437499999999817
 31
0.0
  0
LINE
  5
51A
330
1F
100
AcDbEntity
  8
0
  6
Continuous
100
AcDbLine
 10
19.7712611357933
 20
4.749122719822831
 30
0.0
 11
19.59910421896451
 21
4.855163492968531
 31
0.0
  0
LINE
  5
51B
330
1F
100
AcDbEntity
  8
0
  6
Continuous
100
AcDbLine
 10
19.77126113579328
 20
5.063377280176914
 30
0.0
 11
19.59910421896451
 21
4.957336507031231
 31
0.0
  0
ARC
  5
51C
330
1F
100
AcDbEntity
  8
0
  6
Continuous
100
AcDbCircle
 10
19.6305711666928
 20
4.906249999999881
 30
0.0
 40
0.06
100
AcDbArc
 50
121.6311662755243
 51
238.368833724476
  0
ENDSEC
  0
SECTION
  2
OBJECTS
  0
DICTIONARY
  5
C
330
0
100
AcDbDictionary
281
     1
  3
ACAD_COLOR
350
524
  3
ACAD_GROUP
350
D
  3
ACAD_LAYOUT
350
1A
  3
ACAD_MATERIAL
350
523
  3
ACAD_MLINESTYLE
350
17
  3
ACAD_PLOTSETTINGS
350
19
  3
ACAD_PLOTSTYLENAME
350
E
  3
ACAD_TABLESTYLE
350
525
  3
ACDBHEADERROUNDTRIPXREC
350
536
  3
AcDbVariableDictionary
350
C0
  0
DICTIONARY
  5
524
102
{ACAD_REACTORS
330
C
102
}
330
C
100
AcDbDictionary
281
     1
  0
DICTIONARY
  5
D
102
{ACAD_REACTORS
330
C
102
}
330
C
100
AcDbDictionary
281
     1
  0
DICTIONARY
  5
1A
102
{ACAD_REACTORS
330
C
102
}
330
C
100
AcDbDictionary
281
     1
  3
Layout1
350
1E
  3
Layout2
350
26
  3
Model
350
22
  0
DICTIONARY
  5
523
102
{ACAD_REACTORS
330
C
102
}
330
C
100
AcDbDictionary
281
     1
  0
DICTIONARY
  5
17
102
{ACAD_REACTORS
330
C
102
}
330
C
100
AcDbDictionary
281
     1
  3
Standard
350
18
  0
DICTIONARY
  5
19
102
{ACAD_REACTORS
330
C
102
}
330
C
100
AcDbDictionary
281
     1
  0
ACDBDICTIONARYWDFLT
  5
E
102
{ACAD_REACTORS
330
C
102
}
330
C
100
AcDbDictionary
281
     1
  3
Normal
350
F
100
AcDbDictionaryWithDefault
340
F
  0
DICTIONARY
  5
525
102
{ACAD_REACTORS
330
C
102
}
330
C
100
AcDbDictionary
281
     1
  3
Standard
350
526
  0
DICTIONARY
  5
536
102
{ACAD_REACTORS
330
C
102
}
330
C
100
AcDbDictionary
281
     1
  3
COLORDICT
350
537
  3
MATERIALDICT
350
538
  0
DICTIONARY
  5
C0
102
{ACAD_REACTORS
330
C
102
}
330
C
100
AcDbDictionary
281
     1
  3
CTABLESTYLE
350
534
  3
DIMASSOC
350
C2
  3
HIDETEXT
350
C1
  0
LAYOUT
  5
1E
102
{ACAD_REACTORS
330
1A
102
}
102
{ACAD_XDICTIONARY
360
539
102
}
330
1A
100
AcDbPlotSettings
  1

  2
X:\Program Files\AutoCAD2002\plotters\DWF ePlot (optimized for plotting).pc3
  4

  6

 40
0.0
 41
0.0
 42
0.0
 43
0.0
 44
0.0
 45
0.0
 46
0.0
 47
0.0
 48
0.0
 49
0.0
140
0.0
141
0.0
142
1.0
143
1.0
 70
   688
 72
     0
 73
     0
 74
     5
  7

 75
    16
147
1.0
148
0.0
149
0.0
100
AcDbLayout
  1
Layout1
 70
     1
 71
     1
 10
0.0
 20
0.0
 11
12.0
 21
9.0
 12
0.0
 22
0.0
 32
0.0
 14
1.000000000000000E+20
 24
1.000000000000000E+20
 34
1.000000000000000E+20
 15
-1.000000000000000E+20
 25
-1.000000000000000E+20
 35
-1.000000000000000E+20
146
0.0
 13
0.0
 23
0.0
 33
0.0
 16
1.0
 26
0.0
 36
0.0
 17
0.0
 27
1.0
 37
0.0
 76
     0
330
1B
  0
LAYOUT
  5
26
102
{ACAD_REACTORS
330
1A
102
}
102
{ACAD_XDICTIONARY
360
53B
102
}
330
1A
100
AcDbPlotSettings
  1

  2
X:\Program Files\AutoCAD2002\plotters\DWF ePlot (optimized for plotting).pc3
  4

  6

 40
0.0
 41
0.0
 42
0.0
 43
0.0
 44
0.0
 45
0.0
 46
0.0
 47
0.0
 48
0.0
 49
0.0
140
0.0
141
0.0
142
1.0
143
1.0
 70
   688
 72
     0
 73
     0
 74
     5
  7

 75
    16
147
1.0
148
0.0
149
0.0
100
AcDbLayout
  1
Layout2
 70
     1
 71
     2
 10
0.0
 20
0.0
 11
12.0
 21
9.0
 12
0.0
 22
0.0
 32
0.0
 14
0.0
 24
0.0
 34
0.0
 15
0.0
 25
0.0
 35
0.0
146
0.0
 13
0.0
 23
0.0
 33
0.0
 16
1.0
 26
0.0
 36
0.0
 17
0.0
 27
1.0
 37
0.0
 76
     0
330
23
  0
LAYOUT
  5
22
102
{ACAD_REACTORS
330
1A
102
}
102
{ACAD_XDICTIONARY
360
53D
102
}
330
1A
100
AcDbPlotSettings
  1

  2
X:\Program Files\AutoCAD2002\plotters\DWF ePlot (optimized for plotting).pc3
  4

  6

 40
0.0
 41
0.0
 42
0.0
 43
0.0
 44
0.0
 45
0.0
 46
0.0
 47
0.0
 48
0.0
 49
0.0
140
0.0
141
0.0
142
1.0
143
1.0
 70
  1712
 72
     0
 73
     0
 74
     0
  7

 75
     0
147
1.0
148
0.0
149
0.0
100
AcDbLayout
  1
Model
 70
     1
 71
     0
 10
0.0
 20
0.0
 11
12.0
 21
9.0
 12
0.0
 22
0.0
 32
0.0
 14
0.0
 24
0.0
 34
0.0
 15
0.0
 25
0.0
 35
0.0
146
0.0
 13
0.0
 23
0.0
 33
0.0
 16
1.0
 26
0.0
 36
0.0
 17
0.0
 27
1.0
 37
0.0
 76
     0
330
1F
  0
MLINESTYLE
  5
18
102
{ACAD_REACTORS
330
17
102
}
330
17
100
AcDbMlineStyle
  2
STANDARD
 70
     0
  3

 62
   256
 51
90.0
 52
90.0
 71
     2
 49
0.5
 62
   256
  6
BYLAYER
 49
-0.5
 62
   256
  6
BYLAYER
  0
ACDBPLACEHOLDER
  5
F
102
{ACAD_REACTORS
330
E
102
}
330
E
  0
ACAD_PROXY_OBJECT
  5
526
102
{ACAD_REACTORS
330
525
102
}
330
525
100
AcDbProxyObject
 90
      499
 91
      504
 95
   983063
 70
     0
 93
     1841
310
4214DD185B99185C9928B81E85EB51B8AE3F2E07A17AD46E2B8FC02B5E8DC0F42B1CFD028000000C1008070000C3001FDFF8000000C1003FBFF000000182007F7FE00000030400FEFFC00000060801FDFF8000000C1003FBFF00000018200000000000000681FA0B0000001820100E000186003FBFF000000182007F7FE000
310
00030400FEFFC00000060801FDFF8000000C1003FBFF000000182007F7FE000000304000AD7A3703D0AC73F4160000003040201C00030C007F7FE00000030400FEFFC00000060801FDFF8000000C1003FBFF000000182007F7FE00000030400FEFFC000000608000
340
11
340
11
340
11
 94
        0
  0
XRECORD
  5
537
102
{ACAD_REACTORS
330
536
102
}
330
536
100
AcDbXrecord
340
524
  0
XRECORD
  5
538
102
{ACAD_REACTORS
330
536
102
}
330
536
100
AcDbXrecord
340
523
  0
DICTIONARYVAR
  5
534
102
{ACAD_REACTORS
330
C0
102
}
330
C0
100
DictionaryVariables
280
     0
  1
STANDARD
  0
DICTIONARYVAR
  5
C2
102
{ACAD_REACTORS
330
C0
102
}
330
C0
100
DictionaryVariables
280
     0
  1
2
  0
DICTIONARYVAR
  5
C1
102
{ACAD_REACTORS
330
C0
102
}
330
C0
100
DictionaryVariables
280
     0
  1
1
  0
DICTIONARY
  5
539
330
1E
100
AcDbDictionary
280
     1
281
     1
  3
ACAD_XREC_ROUNDTRIP
360
53A
  0
DICTIONARY
  5
53B
330
26
100
AcDbDictionary
280
     1
281
     1
  3
ACAD_XREC_ROUNDTRIP
360
53C
  0
DICTIONARY
  5
53D
330
22
100
AcDbDictionary
280
     1
281
     1
  3
ACAD_XREC_ROUNDTRIP
360
53E
  0
XRECORD
  5
53A
102
{ACAD_REACTORS
330
539
102
}
330
539
100
AcDbXrecord
102
SHADEPLOT
 70
     0
102
SHADEPLOTRESLEVEL
 70
     2
102
SHADEPLOTCUSTOMDPI
 70
   300
  0
XRECORD
  5
53C
102
{ACAD_REACTORS
330
53B
102
}
330
53B
100
AcDbXrecord
102
SHADEPLOT
 70
     0
102
SHADEPLOTRESLEVEL
 70
     2
102
SHADEPLOTCUSTOMDPI
 70
   300
  0
XRECORD
  5
53E
102
{ACAD_REACTORS
330
53D
102
}
330
53D
100
AcDbXrecord
102
SHADEPLOT
 70
     0
102
SHADEPLOTRESLEVEL
 70
     2
102
SHADEPLOTCUSTOMDPI
 70
   300
  0
ENDSEC
  0
EOF
