  0
SECTION
  2
HEADER
  9
$ACADVER
  1
AC1015
  9
$ACADMAINTVER
 70
     6
  9
$DWGCODEPAGE
  3
ANSI_1252
  9
$INSBASE
 10
0.0
 20
0.0
 30
0.0
  9
$EXTMIN
 10
0.3110096977332546
 20
0.1490208949940453
 30
-0.0000000000000091
  9
$EXTMAX
 10
16.48817812091322
 20
12.03620403325048
 30
0.000000000000007
  9
$LIMMIN
 10
0.0
 20
0.0
  9
$LIMMAX
 10
12.0
 20
9.0
  9
$ORTHOMODE
 70
     1
  9
$REGENMODE
 70
     1
  9
$FILLMODE
 70
     1
  9
$QTEXTMODE
 70
     0
  9
$MIRRTEXT
 70
     1
  9
$LTSCALE
 40
1.0
  9
$ATTMODE
 70
     1
  9
$TEXTSIZE
 40
0.2
  9
$TRACEWID
 40
0.05
  9
$TEXTSTYLE
  7
Standard
  9
$CLAYER
  8
0
  9
$CELTYPE
  6
ByLayer
  9
$CECOLOR
 62
   256
  9
$CELTSCALE
 40
1.0
  9
$DISPSILH
 70
     0
  9
$DIMSCALE
 40
1.0
  9
$DIMASZ
 40
0.18
  9
$DIMEXO
 40
0.0625
  9
$DIMDLI
 40
0.38
  9
$DIMRND
 40
0.0
  9
$DIMDLE
 40
0.0
  9
$DIMEXE
 40
0.18
  9
$DIMTP
 40
0.0
  9
$DIMTM
 40
0.0
  9
$DIMTXT
 40
0.18
  9
$DIMCEN
 40
0.09
  9
$DIMTSZ
 40
0.0
  9
$DIMTOL
 70
     0
  9
$DIMLIM
 70
     0
  9
$DIMTIH
 70
     1
  9
$DIMTOH
 70
     1
  9
$DIMSE1
 70
     0
  9
$DIMSE2
 70
     0
  9
$DIMTAD
 70
     0
  9
$DIMZIN
 70
     0
  9
$DIMBLK
  1

  9
$DIMASO
 70
     1
  9
$DIMSHO
 70
     1
  9
$DIMPOST
  1

  9
$DIMAPOST
  1

  9
$DIMALT
 70
     0
  9
$DIMALTD
 70
     2
  9
$DIMALTF
 40
25.4
  9
$DIMLFAC
 40
1.0
  9
$DIMTOFL
 70
     0
  9
$DIMTVP
 40
0.0
  9
$DIMTIX
 70
     0
  9
$DIMSOXD
 70
     0
  9
$DIMSAH
 70
     0
  9
$DIMBLK1
  1

  9
$DIMBLK2
  1

  9
$DIMSTYLE
  2
Standard
  9
$DIMCLRD
 70
     0
  9
$DIMCLRE
 70
     0
  9
$DIMCLRT
 70
     0
  9
$DIMTFAC
 40
1.0
  9
$DIMGAP
 40
0.09
  9
$DIMJUST
 70
     0
  9
$DIMSD1
 70
     0
  9
$DIMSD2
 70
     0
  9
$DIMTOLJ
 70
     1
  9
$DIMTZIN
 70
     0
  9
$DIMALTZ
 70
     0
  9
$DIMALTTZ
 70
     0
  9
$DIMUPT
 70
     0
  9
$DIMDEC
 70
     4
  9
$DIMTDEC
 70
     4
  9
$DIMALTU
 70
     2
  9
$DIMALTTD
 70
     2
  9
$DIMTXSTY
  7
Standard
  9
$DIMAUNIT
 70
     0
  9
$DIMADEC
 70
     0
  9
$DIMALTRND
 40
0.0
  9
$DIMAZIN
 70
     0
  9
$DIMDSEP
 70
    46
  9
$DIMATFIT
 70
     3
  9
$DIMFRAC
 70
     0
  9
$DIMLDRBLK
  1

  9
$DIMLUNIT
 70
     2
  9
$DIMLWD
 70
    -2
  9
$DIMLWE
 70
    -2
  9
$DIMTMOVE
 70
     0
  9
$LUNITS
 70
     2
  9
$LUPREC
 70
     4
  9
$SKETCHINC
 40
0.1
  9
$FILLETRAD
 40
0.5
  9
$AUNITS
 70
     0
  9
$AUPREC
 70
     0
  9
$MENU
  1
.
  9
$ELEVATION
 40
0.0
  9
$PELEVATION
 40
0.0
  9
$THICKNESS
 40
0.0
  9
$LIMCHECK
 70
     0
  9
$CHAMFERA
 40
0.5
  9
$CHAMFERB
 40
0.5
  9
$CHAMFERC
 40
1.0
  9
$CHAMFERD
 40
0.0
  9
$SKPOLY
 70
     0
  9
$TDCREATE
 40
2453420.559099167
  9
$TDUCREATE
 40
2453420.8924325
  9
$TDUPDATE
 40
2454165.786590868
  9
$TDUUPDATE
 40
2454166.119924201
  9
$TDINDWG
 40
0.1484333333
  9
$TDUSRTIMER
 40
0.1484333333
  9
$USRTIMER
 70
     1
  9
$ANGBASE
 50
0.0
  9
$ANGDIR
 70
     0
  9
$PDMODE
 70
     0
  9
$PDSIZE
 40
0.0
  9
$PLINEWID
 40
0.0
  9
$SPLFRAME
 70
     0
  9
$SPLINETYPE
 70
     6
  9
$SPLINESEGS
 70
     8
  9
$HANDSEED
  5
386
  9
$SURFTAB1
 70
     6
  9
$SURFTAB2
 70
     6
  9
$SURFTYPE
 70
     6
  9
$SURFU
 70
     6
  9
$SURFV
 70
     6
  9
$UCSBASE
  2

  9
$UCSNAME
  2

  9
$UCSORG
 10
0.0
 20
0.0
 30
0.0
  9
$UCSXDIR
 10
1.0
 20
0.0
 30
0.0
  9
$UCSYDIR
 10
0.0
 20
1.0
 30
0.0
  9
$UCSORTHOREF
  2

  9
$UCSORTHOVIEW
 70
     0
  9
$UCSORGTOP
 10
0.0
 20
0.0
 30
0.0
  9
$UCSORGBOTTOM
 10
0.0
 20
0.0
 30
0.0
  9
$UCSORGLEFT
 10
0.0
 20
0.0
 30
0.0
  9
$UCSORGRIGHT
 10
0.0
 20
0.0
 30
0.0
  9
$UCSORGFRONT
 10
0.0
 20
0.0
 30
0.0
  9
$UCSORGBACK
 10
0.0
 20
0.0
 30
0.0
  9
$PUCSBASE
  2

  9
$PUCSNAME
  2

  9
$PUCSORG
 10
0.0
 20
0.0
 30
0.0
  9
$PUCSXDIR
 10
1.0
 20
0.0
 30
0.0
  9
$PUCSYDIR
 10
0.0
 20
1.0
 30
0.0
  9
$PUCSORTHOREF
  2

  9
$PUCSORTHOVIEW
 70
     0
  9
$PUCSORGTOP
 10
0.0
 20
0.0
 30
0.0
  9
$PUCSORGBOTTOM
 10
0.0
 20
0.0
 30
0.0
  9
$PUCSORGLEFT
 10
0.0
 20
0.0
 30
0.0
  9
$PUCSORGRIGHT
 10
0.0
 20
0.0
 30
0.0
  9
$PUCSORGFRONT
 10
0.0
 20
0.0
 30
0.0
  9
$PUCSORGBACK
 10
0.0
 20
0.0
 30
0.0
  9
$USERI1
 70
     0
  9
$USERI2
 70
     0
  9
$USERI3
 70
     0
  9
$USERI4
 70
     0
  9
$USERI5
 70
     0
  9
$USERR1
 40
0.0
  9
$USERR2
 40
0.0
  9
$USERR3
 40
0.0
  9
$USERR4
 40
0.0
  9
$USERR5
 40
0.0
  9
$WORLDVIEW
 70
     1
  9
$SHADEDGE
 70
     3
  9
$SHADEDIF
 70
    70
  9
$TILEMODE
 70
     1
  9
$MAXACTVP
 70
    64
  9
$PINSBASE
 10
0.0
 20
0.0
 30
0.0
  9
$PLIMCHECK
 70
     0
  9
$PEXTMIN
 10
1.000000000000000E+20
 20
1.000000000000000E+20
 30
1.000000000000000E+20
  9
$PEXTMAX
 10
-1.000000000000000E+20
 20
-1.000000000000000E+20
 30
-1.000000000000000E+20
  9
$PLIMMIN
 10
0.0
 20
0.0
  9
$PLIMMAX
 10
12.0
 20
9.0
  9
$UNITMODE
 70
     0
  9
$VISRETAIN
 70
     1
  9
$PLINEGEN
 70
     0
  9
$PSLTSCALE
 70
     1
  9
$TREEDEPTH
 70
  3020
  9
$CMLSTYLE
  2
Standard
  9
$CMLJUST
 70
     0
  9
$CMLSCALE
 40
1.0
  9
$PROXYGRAPHICS
 70
     1
  9
$MEASUREMENT
 70
     0
  9
$CELWEIGHT
370
    -1
  9
$ENDCAPS
280
     0
  9
$JOINSTYLE
280
     0
  9
$LWDISPLAY
290
     0
  9
$INSUNITS
 70
     1
  9
$HYPERLINKBASE
  1

  9
$STYLESHEET
  1

  9
$XEDIT
290
     1
  9
$CEPSNTYPE
380
     0
  9
$PSTYLEMODE
290
     1
  9
$FINGERPRINTGUID
  2
{EC68BE3A-3147-4A5B-AE38-20E2D0E3D53F}
  9
$VERSIONGUID
  2
{E3D847C1-9458-41FA-B245-ECA53384D046}
  9
$EXTNAMES
290
     1
  9
$PSVPSCALE
 40
0.0
  9
$OLESTARTUP
290
     0
  0
ENDSEC
  0
SECTION
  2
CLASSES
  0
CLASS
  1
ACDBDICTIONARYWDFLT
  2
AcDbDictionaryWithDefault
  3
AutoCAD 2000
 90
        0
280
     0
281
     0
  0
CLASS
  1
ACDBPLACEHOLDER
  2
AcDbPlaceHolder
  3
ObjectDBX Classes
 90
        0
280
     0
281
     0
  0
CLASS
  1
LAYOUT
  2
AcDbLayout
  3
ObjectDBX Classes
 90
        0
280
     0
281
     0
  0
CLASS
  1
DICTIONARYVAR
  2
AcDbDictionaryVar
  3
AutoCAD 2000
 90
        0
280
     0
281
     0
  0
CLASS
  1
TABLESTYLE
  2
AcDbTableStyle
  3
ObjectDBX Classes
 90
     2047
280
     1
281
     0
  0
ENDSEC
  0
SECTION
  2
TABLES
  0
TABLE
  2
VPORT
  5
8
330
0
100
AcDbSymbolTable
 70
     3
  0
VPORT
  5
373
330
8
100
AcDbSymbolTableRecord
100
AcDbViewportTableRecord
  2
*Active
 70
     0
 10
0.0
 20
0.0
 11
1.0
 21
1.0
 12
8.244089060456613
 22
6.018102016625239
 13
0.0
 23
0.0
 14
0.5
 24
0.5
 15
0.5
 25
0.5
 16
0.0
 26
0.0
 36
1.0
 17
0.0
 27
0.0
 37
0.0
 40
12.186343792501
 41
1.814583333333333
 42
50.0
 43
0.0
 44
0.0
 50
0.0
 51
0.0
 71
     0
 72
   100
 73
     1
 74
     3
 75
     0
 76
     0
 77
     0
 78
     0
281
     0
 65
     1
110
0.0
120
0.0
130
0.0
111
1.0
121
0.0
131
0.0
112
0.0
122
1.0
132
0.0
 79
     0
146
0.0
  0
ENDTAB
  0
TABLE
  2
LTYPE
  5
5
330
0
100
AcDbSymbolTable
 70
     2
  0
LTYPE
  5
14
330
5
100
AcDbSymbolTableRecord
100
AcDbLinetypeTableRecord
  2
ByBlock
 70
     0
  3

 72
    65
 73
     0
 40
0.0
  0
LTYPE
  5
15
330
5
100
AcDbSymbolTableRecord
100
AcDbLinetypeTableRecord
  2
ByLayer
 70
     0
  3

 72
    65
 73
     0
 40
0.0
  0
LTYPE
  5
16
330
5
100
AcDbSymbolTableRecord
100
AcDbLinetypeTableRecord
  2
Continuous
 70
     0
  3
Solid line
 72
    65
 73
     0
 40
0.0
  0
LTYPE
  5
368
330
5
100
AcDbSymbolTableRecord
100
AcDbLinetypeTableRecord
  2
HIDDEN
 70
     0
  3
Hidden __ __ __ __ __ __ __ __ __ __ __ __ __ _
 72
    65
 73
     2
 40
0.375
 49
0.25
 74
     0
 49
-0.125
 74
     0
  0
ENDTAB
  0
TABLE
  2
LAYER
  5
2
330
0
100
AcDbSymbolTable
 70
     1
  0
LAYER
  5
10
330
2
100
AcDbSymbolTableRecord
100
AcDbLayerTableRecord
  2
0
 70
     0
 62
     7
  6
Continuous
370
    -3
390
F
  0
ENDTAB
  0
TABLE
  2
STYLE
  5
3
330
0
100
AcDbSymbolTable
 70
     2
  0
STYLE
  5
11
330
3
100
AcDbSymbolTableRecord
100
AcDbTextStyleTableRecord
  2
Standard
 70
     0
 40
0.0
 41
1.0
 50
0.0
 71
     0
 42
0.2
  3
txt
  4

  0
STYLE
  5
367
330
3
100
AcDbSymbolTableRecord
100
AcDbTextStyleTableRecord
  2

 70
     1
 40
0.0
 41
1.0
 50
0.0
 71
     0
 42
0.2
  3
ltypeshp.shx
  4

  0
ENDTAB
  0
TABLE
  2
VIEW
  5
6
330
0
100
AcDbSymbolTable
 70
     0
  0
ENDTAB
  0
TABLE
  2
UCS
  5
7
330
0
100
AcDbSymbolTable
 70
     0
  0
ENDTAB
  0
TABLE
  2
APPID
  5
9
330
0
100
AcDbSymbolTable
 70
     1
  0
APPID
  5
12
330
9
100
AcDbSymbolTableRecord
100
AcDbRegAppTableRecord
  2
ACAD
 70
     0
  0
ENDTAB
  0
TABLE
  2
DIMSTYLE
  5
A
330
0
100
AcDbSymbolTable
 70
     1
100
AcDbDimStyleTable
  0
DIMSTYLE
105
27
330
A
100
AcDbSymbolTableRecord
100
AcDbDimStyleTableRecord
  2
Standard
 70
     0
  3

  4

340
11
  0
ENDTAB
  0
TABLE
  2
BLOCK_RECORD
  5
1
330
0
100
AcDbSymbolTable
 70
     1
  0
BLOCK_RECORD
  5
1F
330
1
100
AcDbSymbolTableRecord
100
AcDbBlockTableRecord
  2
*Model_Space
340
22
  0
BLOCK_RECORD
  5
1B
330
1
100
AcDbSymbolTableRecord
100
AcDbBlockTableRecord
  2
*Paper_Space
340
1E
  0
BLOCK_RECORD
  5
23
330
1
100
AcDbSymbolTableRecord
100
AcDbBlockTableRecord
  2
*Paper_Space0
340
26
  0
ENDTAB
  0
ENDSEC
  0
SECTION
  2
BLOCKS
  0
BLOCK
  5
20
330
1F
100
AcDbEntity
  8
0
100
AcDbBlockBegin
  2
*Model_Space
 70
     0
 10
0.0
 20
0.0
 30
0.0
  3
*Model_Space
  1

  4

  0
ENDBLK
  5
21
330
1F
100
AcDbEntity
  8
0
100
AcDbBlockEnd
  0
BLOCK
  5
1C
330
1B
100
AcDbEntity
 67
     1
  8
0
100
AcDbBlockBegin
  2
*Paper_Space
 70
     0
 10
0.0
 20
0.0
 30
0.0
  3
*Paper_Space
  1

  4

  0
ENDBLK
  5
1D
330
1B
100
AcDbEntity
 67
     1
  8
0
100
AcDbBlockEnd
  0
BLOCK
  5
24
330
23
100
AcDbEntity
  8
0
100
AcDbBlockBegin
  2
*Paper_Space0
 70
     0
 10
0.0
 20
0.0
 30
0.0
  3
*Paper_Space0
  1

  4

  0
ENDBLK
  5
25
330
23
100
AcDbEntity
  8
0
100
AcDbBlockEnd
  0
ENDSEC
  0
SECTION
  2
ENTITIES
  0
ARC
  5
28F
330
1F
100
AcDbEntity
  8
0
  6
Continuous
100
AcDbCircle
 10
10.69088989197195
 20
4.480988993308172
 30
0.0
 40
0.1249999999999858
100
AcDbArc
 50
179.9999999999935
 51
269.9999999999935
  0
ARC
  5
290
330
1F
100
AcDbEntity
  8
0
  6
Continuous
100
AcDbCircle
 10
5.789949724914983
 20
4.480988993308172
 30
0.0
 40
0.1249999999999858
100
AcDbArc
 50
270.0000000000065
 51
0.0000000000065138
  0
ARC
  5
291
330
1F
100
AcDbEntity
  8
0
  6
Continuous
100
AcDbCircle
 10
2.312499999999929
 20
4.525157242228977
 30
0.0
 40
0.1249999999999858
100
AcDbArc
 50
270.0000000000065
 51
0.0000000000065138
  0
LWPOLYLINE
  5
292
330
1F
100
AcDbEntity
  8
0
  6
Continuous
100
AcDbPolyline
 90
        7
 70
     1
 43
0.0
 10
1.601124999999911
 20
4.414204731007782
 10
1.438374999999908
 20
4.508168487318384
 42
-0.5773502691896388
 10
1.438374999999908
 20
4.562295075054918
 10
1.601124999999911
 20
4.656258831365532
 42
-0.5773502691896191
 10
1.647999999999911
 20
4.629195537497266
 10
1.647999999999911
 20
4.535231781186651
 10
1.647999999999911
 20
4.441268024876049
 42
-0.5773502691896191
  0
LINE
  5
293
330
1F
100
AcDbEntity
  8
0
100
AcDbLine
 10
0.3618100308994201
 20
5.61335678118648
 30
0.0
 11
0.3618100308994272
 21
0.345099263314923
 31
0.0
  0
LINE
  5
294
330
1F
100
AcDbEntity
  8
0
  6
Continuous
100
AcDbLine
 10
0.3124999999998863
 20
0.3903123748999189
 30
0.0
 11
0.3124999999998863
 21
5.61335678118648
 31
0.0
  0
LINE
  5
295
330
1F
100
AcDbEntity
  8
0
100
AcDbLine
 10
9.052919808443456
 20
0.3008567811866669
 30
0.0
 11
9.052919808443456
 21
5.61335678118648
 31
0.0
  0
LINE
  5
296
330
1F
100
AcDbEntity
  8
0
100
AcDbLine
 10
9.115419808443456
 20
0.3008567811866598
 30
0.0
 11
9.115419808443456
 21
5.613356781186477
 31
0.0
  0
LINE
  5
297
330
1F
100
AcDbEntity
  8
0
100
AcDbLine
 10
7.427919808443477
 20
0.3008567811866687
 30
0.0
 11
7.427919808443477
 21
5.61335678118648
 31
0.0
  0
LINE
  5
298
330
1F
100
AcDbEntity
  8
0
100
AcDbLine
 10
7.365419808443477
 20
0.3008567811866616
 30
0.0
 11
7.365419808443477
 21
5.61335678118648
 31
0.0
  0
ARC
  5
299
330
1F
100
AcDbEntity
  8
0
  6
Continuous
100
AcDbCircle
 10
3.437499999999901
 20
2.150518352734064
 30
0.0
 40
1.000000000000003
100
AcDbArc
 50
179.9999999999976
 51
224.999999999999
  0
LINE
  5
29A
330
1F
100
AcDbEntity
  8
0
100
AcDbLine
 10
3.93680383505599
 20
0.1758567811866421
 30
0.0
 11
0.4395293447112323
 21
0.1758567811866634
 31
0.0
  0
LINE
  5
29B
330
1F
100
AcDbEntity
  8
0
  6
HIDDEN
100
AcDbLine
 10
3.908279344711231
 20
0.2383567811866421
 30
0.0
 11
0.4395293447112323
 21
0.2383567811866634
 31
0.0
  0
CIRCLE
  5
29C
330
1F
100
AcDbEntity
  8
0
  6
Continuous
100
AcDbCircle
 10
1.25049999999996
 20
2.035231781186642
 30
0.0
 40
0.0855
  0
LINE
  5
29D
330
1F
100
AcDbEntity
  8
0
100
AcDbLine
 10
0.4395293447112323
 20
0.2383567811866634
 30
0.0
 11
0.4395293447112323
 21
0.1758567811866634
 31
0.0
  0
ARC
  5
29E
330
1F
100
AcDbEntity
  8
0
  6
Continuous
100
AcDbCircle
 10
0.0
 20
0.0
 30
0.0
 40
0.4999999999999437
100
AcDbArc
 50
28.47097865576721
 51
51.31781254652738
  0
CIRCLE
  5
29F
330
1F
100
AcDbEntity
  8
0
  6
Continuous
100
AcDbCircle
 10
1.562499999999908
 20
1.535231781186642
 30
0.0
 40
0.0855
  0
CIRCLE
  5
2A0
330
1F
100
AcDbEntity
  8
0
  6
Continuous
100
AcDbCircle
 10
2.036587942977285
 20
1.441481781186642
 30
0.0
 40
0.0855
  0
LINE
  5
2A1
330
1F
100
AcDbEntity
  8
0
  6
Continuous
100
AcDbLine
 10
0.3618100308994343
 20
3.424979501009496
 30
0.0
 11
0.533966947728203
 21
3.531020274155193
 31
0.0
  0
LINE
  5
2A2
330
1F
100
AcDbEntity
  8
0
  6
Continuous
100
AcDbLine
 10
0.3618100308994343
 20
3.739234061363577
 30
0.0
 11
0.533966947728203
 21
3.633193288217893
 31
0.0
  0
ARC
  5
2A3
330
1F
100
AcDbEntity
  8
0
  6
Continuous
100
AcDbCircle
 10
0.3124999999999005
 20
2.817481781186519
 30
0.0
 40
0.1875
100
AcDbArc
 50
285.2473642457561
 51
74.7526357542439
  0
LINE
  5
2A4
330
1F
100
AcDbEntity
  8
0
  6
Continuous
100
AcDbLine
 10
2.437499999999909
 20
2.150518352734093
 30
0.0
 11
2.437499999999943
 21
3.400157242228968
 31
0.0
  0
CIRCLE
  5
2A5
330
1F
100
AcDbEntity
  8
0
  6
Continuous
100
AcDbCircle
 10
1.843749999999901
 20
2.535231781186642
 30
0.0
 40
0.0855
  0
CIRCLE
  5
2A6
330
1F
100
AcDbEntity
  8
0
  6
Continuous
100
AcDbCircle
 10
2.156249999999886
 20
2.910231781186642
 30
0.0
 40
0.0855
  0
ARC
  5
2A7
330
1F
100
AcDbEntity
  8
0
  6
Continuous
100
AcDbCircle
 10
0.5024999999999125
 20
3.582106781186543
 30
0.0
 40
0.06
100
AcDbArc
 50
301.631166275524
 51
58.36883372447566
  0
CIRCLE
  5
2A8
330
1F
100
AcDbEntity
  8
0
  6
Continuous
100
AcDbCircle
 10
1.25049999999996
 20
3.535231781186642
 30
0.0
 40
0.0855
  0
LINE
  5
2A9
330
1F
100
AcDbEntity
  8
0
  6
Continuous
100
AcDbLine
 10
2.124999999999915
 20
3.650157242228996
 30
0.0
 11
2.124999999999943
 21
4.275157242228982
 31
0.0
  0
ARC
  5
2AA
330
1F
100
AcDbEntity
  8
0
  6
Continuous
100
AcDbCircle
 10
2.249999999999929
 20
3.650157242229003
 30
0.0
 40
0.1250000000000142
100
AcDbArc
 50
180.0
 51
270.0000000000065
  0
LINE
  5
2AB
330
1F
100
AcDbEntity
  8
0
  6
Continuous
100
AcDbLine
 10
2.312499999999915
 20
3.525157242228982
 30
0.0
 11
2.249999999999943
 21
3.525157242228982
 31
0.0
  0
ARC
  5
2AC
330
1F
100
AcDbEntity
  8
0
  6
Continuous
100
AcDbCircle
 10
2.312499999999929
 20
3.400157242228975
 30
0.0
 40
0.1250000000000142
100
AcDbArc
 50
0.0
 51
90.00000000000649
  0
ARC
  5
2AD
330
1F
100
AcDbEntity
  8
0
  6
Continuous
100
AcDbCircle
 10
2.249999999999929
 20
4.275157242229003
 30
0.0
 40
0.1249999999999858
100
AcDbArc
 50
90.00000000000649
 51
180.0000000000067
  0
CIRCLE
  5
2AE
330
1F
100
AcDbEntity
  8
0
  6
Continuous
100
AcDbCircle
 10
1.843749999999901
 20
4.035231781186642
 30
0.0
 40
0.0855
  0
LINE
  5
2AF
330
1F
100
AcDbEntity
  8
0
  6
Continuous
100
AcDbLine
 10
2.249999999999915
 20
4.400157242228982
 30
0.0
 11
2.312499999999943
 21
4.400157242228982
 31
0.0
  0
LINE
  5
2B0
330
1F
100
AcDbEntity
  8
0
  6
Continuous
100
AcDbLine
 10
3.759803390593206
 20
0.3535533905932589
 30
0.0
 11
2.730393218813338
 21
1.443411571547527
 31
0.0
  0
ARC
  5
2B1
330
1F
100
AcDbEntity
  8
0
  6
Continuous
100
AcDbCircle
 10
3.40625
 20
-0.0000000000000036
 30
0.0
 40
0.4999999999999432
100
AcDbArc
 50
20.592160113719
 51
45.00000000000465
  0
LINE
  5
2B2
330
1F
100
AcDbEntity
  8
0
100
AcDbLine
 10
3.845779344711232
 20
0.2383567811866421
 30
0.0
 11
3.93680383505599
 21
0.2383567811866421
 31
0.0
  0
LINE
  5
2B3
330
1F
100
AcDbEntity
  8
0
100
AcDbLine
 10
3.93680383505599
 20
0.1758567811866421
 30
0.0
 11
3.93680383505599
 21
0.2383567811866421
 31
0.0
  0
ARC
  5
2B4
330
1F
100
AcDbEntity
  8
0
100
AcDbCircle
 10
8.990419808443456
 20
0.3008567811866598
 30
0.0
 40
0.125
100
AcDbArc
 50
270.0000000000001
 51
0.0
  0
ARC
  5
2B5
330
1F
100
AcDbEntity
  8
0
  6
Continuous
100
AcDbCircle
 10
6.914949724914944
 20
2.250341674783048
 30
0.0
 40
1.0
100
AcDbArc
 50
179.9999999999976
 51
224.999999999999
  0
LINE
  5
2B6
330
1F
100
AcDbEntity
  8
0
  6
Continuous
100
AcDbLine
 10
6.207842943728384
 20
1.543234893596512
 30
0.0
 11
7.365419808443477
 21
0.4575661760350549
 31
0.0
  0
CIRCLE
  5
2B7
330
1F
100
AcDbEntity
  8
0
  6
Continuous
100
AcDbCircle
 10
6.865419808443491
 20
1.317481781186512
 30
0.0
 40
0.0855
  0
CIRCLE
  5
2B8
330
1F
100
AcDbEntity
  8
0
  6
Continuous
100
AcDbCircle
 10
6.396669808443491
 20
1.817481781186512
 30
0.0
 40
0.0855
  0
LINE
  5
2B9
330
1F
100
AcDbEntity
  8
0
100
AcDbLine
 10
8.990419808443456
 20
0.1758567811866598
 30
0.0
 11
7.490419808443477
 21
0.1758567811866616
 31
0.0
  0
LINE
  5
2BA
330
1F
100
AcDbEntity
  8
0
100
AcDbLine
 10
8.990419808443456
 20
0.2383567811866669
 30
0.0
 11
7.490419808443477
 21
0.2383567811866687
 31
0.0
  0
ARC
  5
2BB
330
1F
100
AcDbEntity
  8
0
100
AcDbCircle
 10
7.490419808443477
 20
0.3008567811866616
 30
0.0
 40
0.125
100
AcDbArc
 50
180.0
 51
269.9999999999999
  0
ARC
  5
2BC
330
1F
100
AcDbEntity
  8
0
100
AcDbCircle
 10
7.490419808443477
 20
0.3008567811866687
 30
0.0
 40
0.0625
100
AcDbArc
 50
180.0
 51
269.9999999999998
  0
ARC
  5
2BD
330
1F
100
AcDbEntity
  8
0
100
AcDbCircle
 10
8.990419808443456
 20
0.3008567811866669
 30
0.0
 40
0.0625
100
AcDbArc
 50
270.0000000000002
 51
0.0
  0
CIRCLE
  5
2BE
330
1F
100
AcDbEntity
  8
0
  6
Continuous
100
AcDbCircle
 10
6.865419808443491
 20
2.317481781186512
 30
0.0
 40
0.0855
  0
CIRCLE
  5
2BF
330
1F
100
AcDbEntity
  8
0
  6
Continuous
100
AcDbCircle
 10
6.865419808443491
 20
3.317481781186512
 30
0.0
 40
0.0855
  0
CIRCLE
  5
2C0
330
1F
100
AcDbEntity
  8
0
  6
Continuous
100
AcDbCircle
 10
6.865419808443491
 20
4.316481781186536
 30
0.0
 40
0.0855
  0
LINE
  5
2C1
330
1F
100
AcDbEntity
  8
0
  6
Continuous
100
AcDbLine
 10
5.914949724915005
 20
3.355988993308163
 30
0.0
 11
5.914949724914944
 21
2.25034167478309
 31
0.0
  0
CIRCLE
  5
2C2
330
1F
100
AcDbEntity
  8
0
  6
Continuous
100
AcDbCircle
 10
6.396669808443491
 20
2.817481781186512
 30
0.0
 40
0.0855
  0
ARC
  5
2C3
330
1F
100
AcDbEntity
  8
0
  6
Continuous
100
AcDbCircle
 10
5.727449724914983
 20
4.230988993308198
 30
0.0
 40
0.1249999999999858
100
AcDbArc
 50
90.00000000000649
 51
180.0000000000065
  0
ARC
  5
2C4
330
1F
100
AcDbEntity
  8
0
  6
Continuous
100
AcDbCircle
 10
5.727449724914983
 20
3.605988993308198
 30
0.0
 40
0.1250000000000142
100
AcDbArc
 50
180.0
 51
270.0000000000065
  0
LINE
  5
2C5
330
1F
100
AcDbEntity
  8
0
  6
Continuous
100
AcDbLine
 10
5.602449724914997
 20
4.230988993308177
 30
0.0
 11
5.602449724914969
 21
3.605988993308191
 31
0.0
  0
CIRCLE
  5
2C6
330
1F
100
AcDbEntity
  8
0
  6
Continuous
100
AcDbCircle
 10
6.396669808443491
 20
3.817481781186512
 30
0.0
 40
0.0855
  0
LINE
  5
2C7
330
1F
100
AcDbEntity
  8
0
  6
Continuous
100
AcDbLine
 10
5.727449724914997
 20
3.480988993308177
 30
0.0
 11
5.789949724914969
 21
3.480988993308177
 31
0.0
  0
ARC
  5
2C8
330
1F
100
AcDbEntity
  8
0
  6
Continuous
100
AcDbCircle
 10
5.78994972491499
 20
3.35598899330817
 30
0.0
 40
0.1250000000000142
100
AcDbArc
 50
0.0
 51
90.00000000000976
  0
LINE
  5
2C9
330
1F
100
AcDbEntity
  8
0
  6
Continuous
100
AcDbLine
 10
5.789949724914997
 20
4.355988993308177
 30
0.0
 11
5.727449724914969
 21
4.355988993308177
 31
0.0
  0
CIRCLE
  5
2CA
330
1F
100
AcDbEntity
  8
0
  6
Continuous
100
AcDbCircle
 10
5.883699724914948
 20
4.113618680990154
 30
0.0
 40
0.0855
  0
ARC
  5
2CB
330
1F
100
AcDbEntity
  8
0
  6
Continuous
100
AcDbCircle
 10
7.427919808443491
 20
2.817481781186512
 30
0.0
 40
0.1875
100
AcDbArc
 50
109.4712206344954
 51
250.5287793655046
  0
ARC
  5
2CC
330
1F
100
AcDbEntity
  8
0
  6
Continuous
100
AcDbCircle
 10
7.237919808443458
 20
3.613356781186536
 30
0.0
 40
0.06
100
AcDbArc
 50
121.631166275524
 51
238.368833724476
  0
LINE
  5
2CD
330
1F
100
AcDbEntity
  8
0
  6
Continuous
100
AcDbLine
 10
7.365419808443473
 20
3.762359644715403
 30
0.0
 11
7.20645286071516
 21
3.664443288217886
 31
0.0
  0
LINE
  5
2CE
330
1F
100
AcDbEntity
  8
0
  6
Continuous
100
AcDbLine
 10
7.365419808443473
 20
3.464353917657654
 30
0.0
 11
7.20645286071516
 21
3.562270274155186
 31
0.0
  0
ARC
  5
2CF
330
1F
100
AcDbEntity
  8
0
  6
Continuous
100
AcDbCircle
 10
9.565889891971988
 20
2.250341674783048
 30
0.0
 40
1.0
100
AcDbArc
 50
315.000000000001
 51
0.0000000000024427
  0
LINE
  5
2D0
330
1F
100
AcDbEntity
  8
0
  6
Continuous
100
AcDbLine
 10
10.27299667315855
 20
1.543234893596512
 30
0.0
 11
9.115419808443456
 21
0.4575661760350549
 31
0.0
  0
CIRCLE
  5
2D1
330
1F
100
AcDbEntity
  8
0
  6
Continuous
100
AcDbCircle
 10
9.615419808443441
 20
1.317481781186512
 30
0.0
 40
0.0855
  0
CIRCLE
  5
2D2
330
1F
100
AcDbEntity
  8
0
  6
Continuous
100
AcDbCircle
 10
10.08416980844344
 20
1.817481781186512
 30
0.0
 40
0.0855
  0
LINE
  5
2D3
330
1F
100
AcDbEntity
  8
0
  6
Continuous
100
AcDbLine
 10
10.56588989197193
 20
3.355988993308163
 30
0.0
 11
10.56588989197199
 21
2.25034167478309
 31
0.0
  0
CIRCLE
  5
2D4
330
1F
100
AcDbEntity
  8
0
  6
Continuous
100
AcDbCircle
 10
9.615419808443441
 20
2.317481781186512
 30
0.0
 40
0.0855
  0
ARC
  5
2D5
330
1F
100
AcDbEntity
  8
0
  6
Continuous
100
AcDbCircle
 10
9.052919808443441
 20
2.81748178118651
 30
0.0
 40
0.1875
100
AcDbArc
 50
289.4712206344954
 51
70.52877936550463
  0
CIRCLE
  5
2D6
330
1F
100
AcDbEntity
  8
0
  6
Continuous
100
AcDbCircle
 10
10.08416980844344
 20
2.817481781186512
 30
0.0
 40
0.0855
  0
CIRCLE
  5
2D7
330
1F
100
AcDbEntity
  8
0
  6
Continuous
100
AcDbCircle
 10
10.08416980844344
 20
3.817481781186512
 30
0.0
 40
0.0855
  0
CIRCLE
  5
2D8
330
1F
100
AcDbEntity
  8
0
  6
Continuous
100
AcDbCircle
 10
9.615419808443441
 20
3.317481781186512
 30
0.0
 40
0.0855
  0
ARC
  5
2D9
330
1F
100
AcDbEntity
  8
0
  6
Continuous
100
AcDbCircle
 10
9.242919808443475
 20
3.613356781186534
 30
0.0
 40
0.06
100
AcDbArc
 50
301.631166275524
 51
58.36883372447602
  0
LINE
  5
2DA
330
1F
100
AcDbEntity
  8
0
  6
Continuous
100
AcDbLine
 10
9.115419808443459
 20
3.762359644715401
 30
0.0
 11
9.274386756171772
 21
3.664443288217884
 31
0.0
  0
LINE
  5
2DB
330
1F
100
AcDbEntity
  8
0
  6
Continuous
100
AcDbLine
 10
9.115419808443459
 20
3.464353917657652
 30
0.0
 11
9.274386756171772
 21
3.562270274155184
 31
0.0
  0
CIRCLE
  5
2DC
330
1F
100
AcDbEntity
  8
0
  6
Continuous
100
AcDbCircle
 10
9.615419808443441
 20
4.316481781186536
 30
0.0
 40
0.0855
  0
LINE
  5
2DD
330
1F
100
AcDbEntity
  8
0
  6
Continuous
100
AcDbLine
 10
10.87838989197194
 20
4.230988993308177
 30
0.0
 11
10.87838989197196
 21
3.605988993308191
 31
0.0
  0
LINE
  5
2DE
330
1F
100
AcDbEntity
  8
0
  6
Continuous
100
AcDbLine
 10
10.75338989197194
 20
3.480988993308177
 30
0.0
 11
10.69088989197196
 21
3.480988993308177
 31
0.0
  0
ARC
  5
2DF
330
1F
100
AcDbEntity
  8
0
  6
Continuous
100
AcDbCircle
 10
10.69088989197194
 20
3.35598899330817
 30
0.0
 40
0.1250000000000142
100
AcDbArc
 50
89.99999999999025
 51
180.0
  0
ARC
  5
2E0
330
1F
100
AcDbEntity
  8
0
  6
Continuous
100
AcDbCircle
 10
10.75338989197195
 20
3.605988993308198
 30
0.0
 40
0.1250000000000142
100
AcDbArc
 50
269.9999999999935
 51
0.0
  0
LINE
  5
2E1
330
1F
100
AcDbEntity
  8
0
  6
Continuous
100
AcDbLine
 10
10.69088989197194
 20
4.355988993308177
 30
0.0
 11
10.75338989197196
 21
4.355988993308177
 31
0.0
  0
CIRCLE
  5
2E2
330
1F
100
AcDbEntity
  8
0
  6
Continuous
100
AcDbCircle
 10
10.59713989197199
 20
4.113618680990154
 30
0.0
 40
0.0855
  0
ARC
  5
2E3
330
1F
100
AcDbEntity
  8
0
  6
Continuous
100
AcDbCircle
 10
10.75338989197195
 20
4.230988993308198
 30
0.0
 40
0.1249999999999858
100
AcDbArc
 50
359.9999999999934
 51
89.99999999999351
  0
LINE
  5
2E4
330
1F
100
AcDbEntity
  8
0
  6
Continuous
100
AcDbLine
 10
0.3618100308994201
 20
4.924979501009494
 30
0.0
 11
0.533966947728203
 21
5.031020274155194
 31
0.0
  0
LINE
  5
2E5
330
1F
100
AcDbEntity
  8
0
  6
Continuous
100
AcDbLine
 10
0.3618100308994343
 20
5.239234061363577
 30
0.0
 11
0.533966947728203
 21
5.133193288217894
 31
0.0
  0
LINE
  5
2E6
330
1F
100
AcDbEntity
  8
0
  6
Continuous
100
AcDbLine
 10
2.124999999999915
 20
5.61335678118648
 30
0.0
 11
0.3124999999998863
 21
5.61335678118648
 31
0.0
  0
LWPOLYLINE
  5
2E7
330
1F
100
AcDbEntity
  8
0
  6
Continuous
100
AcDbPolyline
 90
        7
 70
     1
 43
0.0
 10
1.289124999999956
 20
4.92982973100777
 10
1.126374999999968
 20
5.02379348731837
 42
-0.5773502691896388
 10
1.126374999999968
 20
5.077920075054903
 10
1.289124999999956
 20
5.171883831365504
 42
-0.5773502691896408
 10
1.335999999999956
 20
5.144820537497237
 10
1.335999999999956
 20
5.050856781186651
 10
1.335999999999956
 20
4.956893024876036
 42
-0.5773502691896069
  0
ARC
  5
2E8
330
1F
100
AcDbEntity
  8
0
  6
Continuous
100
AcDbCircle
 10
0.5024999999999125
 20
5.082106781186544
 30
0.0
 40
0.06
100
AcDbArc
 50
301.631166275524
 51
58.36883372447566
  0
LINE
  5
2E9
330
1F
100
AcDbEntity
  8
0
  6
Continuous
100
AcDbLine
 10
2.437499999999915
 20
4.525157242228984
 30
0.0
 11
2.437499999999943
 21
5.150157242228984
 31
0.0
  0
LWPOLYLINE
  5
2EA
330
1F
100
AcDbEntity
  8
0
  6
Continuous
100
AcDbPolyline
 90
        7
 70
     1
 43
0.0
 10
2.194874999999868
 20
4.773579731007784
 10
2.032124999999866
 20
4.867543487318399
 42
-0.5773502691896388
 10
2.032124999999866
 20
4.921670075054932
 10
2.194874999999868
 20
5.015633831365532
 42
-0.577350269189602
 10
2.241749999999868
 20
4.988570537497266
 10
2.241749999999868
 20
4.894606781186651
 10
2.241749999999868
 20
4.800643024876051
 42
-0.577350269189636
  0
ARC
  5
2EB
330
1F
100
AcDbEntity
  8
0
  6
Continuous
100
AcDbCircle
 10
2.249999999999929
 20
5.400157242229005
 30
0.0
 40
0.1250000000000142
100
AcDbArc
 50
180.0000000000067
 51
270.0000000000065
  0
LINE
  5
2EC
330
1F
100
AcDbEntity
  8
0
  6
Continuous
100
AcDbLine
 10
2.124999999999915
 20
5.400157242228984
 30
0.0
 11
2.124999999999915
 21
5.61335678118648
 31
0.0
  0
LINE
  5
2ED
330
1F
100
AcDbEntity
  8
0
  6
Continuous
100
AcDbLine
 10
2.312499999999915
 20
5.275157242228984
 30
0.0
 11
2.249999999999943
 21
5.275157242228984
 31
0.0
  0
ARC
  5
2EE
330
1F
100
AcDbEntity
  8
0
  6
Continuous
100
AcDbCircle
 10
2.312499999999929
 20
5.150157242228977
 30
0.0
 40
0.1250000000000142
100
AcDbArc
 50
0.0000000000065138
 51
90.00000000000649
  0
LINE
  5
2EF
330
1F
100
AcDbEntity
  8
0
100
AcDbLine
 10
9.115419808443448
 20
8.370050764855511
 30
0.0
 11
9.115419808443448
 21
11.88527007866732
 31
0.0
  0
LINE
  5
2F0
330
1F
100
AcDbEntity
  8
0
100
AcDbLine
 10
9.052919808443448
 20
8.370050764855511
 30
0.0
 11
9.052919808443448
 21
11.88527007866732
 31
0.0
  0
LINE
  5
2F1
330
1F
100
AcDbEntity
  8
0
100
AcDbLine
 10
7.427919808443477
 20
8.370050764855497
 30
0.0
 11
7.427919808443456
 21
11.88527007866732
 31
0.0
  0
LINE
  5
2F2
330
1F
100
AcDbEntity
  8
0
100
AcDbLine
 10
7.365419808443477
 20
8.370050764855497
 30
0.0
 11
7.365419808443477
 21
11.88527007866732
 31
0.0
  0
LINE
  5
2F3
330
1F
100
AcDbEntity
  8
0
  6
Continuous
100
AcDbLine
 10
9.052919808443456
 20
5.61335678118648
 30
0.0
 11
10.87838989197196
 21
5.613356781186473
 31
0.0
  0
LINE
  5
2F4
330
1F
100
AcDbEntity
  8
0
100
AcDbLine
 10
9.115419808443448
 20
8.370050764855511
 30
0.0
 11
9.052919808443448
 21
8.370050764855511
 31
0.0
  0
LINE
  5
2F5
330
1F
100
AcDbEntity
  8
0
  6
Continuous
100
AcDbLine
 10
7.427919808443477
 20
5.61335678118648
 30
0.0
 11
5.602449724914969
 21
5.613356781186473
 31
0.0
  0
CIRCLE
  5
2F6
330
1F
100
AcDbEntity
  8
0
  6
Continuous
100
AcDbCircle
 10
6.865419808443491
 20
5.316481781186537
 30
0.0
 40
0.0855
  0
ARC
  5
2F7
330
1F
100
AcDbEntity
  8
0
  6
Continuous
100
AcDbCircle
 10
5.727449724914983
 20
5.3559889933082
 30
0.0
 40
0.1250000000000142
100
AcDbArc
 50
180.0000000000065
 51
270.0000000000065
  0
LINE
  5
2F8
330
1F
100
AcDbEntity
  8
0
  6
Continuous
100
AcDbLine
 10
5.602449724914969
 20
5.613356781186477
 30
0.0
 11
5.602449724914969
 21
5.355988993308179
 31
0.0
  0
LINE
  5
2F9
330
1F
100
AcDbEntity
  8
0
  6
Continuous
100
AcDbLine
 10
5.914949724914997
 20
5.105988993308179
 30
0.0
 11
5.914949724914969
 21
4.480988993308179
 31
0.0
  0
CIRCLE
  5
2FA
330
1F
100
AcDbEntity
  8
0
  6
Continuous
100
AcDbCircle
 10
6.396669808443491
 20
4.817481781186514
 30
0.0
 40
0.0855
  0
LINE
  5
2FB
330
1F
100
AcDbEntity
  8
0
  6
Continuous
100
AcDbLine
 10
5.727449724914997
 20
5.230988993308179
 30
0.0
 11
5.789949724914969
 21
5.230988993308179
 31
0.0
  0
ARC
  5
2FC
330
1F
100
AcDbEntity
  8
0
  6
Continuous
100
AcDbCircle
 10
5.789949724914983
 20
5.105988993308172
 30
0.0
 40
0.1250000000000142
100
AcDbArc
 50
0.0000000000065138
 51
90.00000000000649
  0
ARC
  5
2FD
330
1F
100
AcDbEntity
  8
0
  6
Continuous
100
AcDbCircle
 10
7.237919808443458
 20
5.113356781186537
 30
0.0
 40
0.06
100
AcDbArc
 50
121.631166275524
 51
238.368833724476
  0
LINE
  5
2FE
330
1F
100
AcDbEntity
  8
0
  6
Continuous
100
AcDbLine
 10
7.365419808443473
 20
4.964353917657652
 30
0.0
 11
7.20645286071516
 21
5.062270274155187
 31
0.0
  0
LINE
  5
2FF
330
1F
100
AcDbEntity
  8
0
  6
Continuous
100
AcDbLine
 10
7.365419808443473
 20
5.262359644715401
 30
0.0
 11
7.20645286071516
 21
5.164443288217887
 31
0.0
  0
ARC
  5
300
330
1F
100
AcDbEntity
  8
0
100
AcDbCircle
 10
7.865583464084143
 20
8.322358665367956
 30
0.0
 40
0.0863460497437565
100
AcDbArc
 50
0.2729984168420139
 51
179.727001583158
  0
LINE
  5
301
330
1F
100
AcDbEntity
  8
0
100
AcDbLine
 10
7.365419808443477
 20
8.370050764855497
 30
0.0
 11
7.427919808443477
 21
8.370050764855497
 31
0.0
  0
LINE
  5
302
330
1F
100
AcDbEntity
  8
0
100
AcDbLine
 10
7.365419808443477
 20
8.370050764855497
 30
0.0
 11
7.427919808443477
 21
8.370050764855497
 31
0.0
  0
LINE
  5
303
330
1F
100
AcDbEntity
  8
0
100
AcDbLine
 10
7.640158407434704
 20
8.322770078667309
 30
0.0
 11
7.779238394477094
 21
8.322770078667309
 31
0.0
  0
LINE
  5
304
330
1F
100
AcDbEntity
  8
0
100
AcDbLine
 10
7.640158407434704
 20
8.322770078667309
 30
0.0
 11
7.740419808443448
 21
8.322770078667309
 31
0.0
  0
ARC
  5
305
330
1F
100
AcDbEntity
  8
0
100
AcDbCircle
 10
7.640158407434704
 20
8.822770078667309
 30
0.0
 40
0.5
100
AcDbArc
 50
244.8824237621803
 51
269.9999999999999
  0
LINE
  5
306
330
1F
100
AcDbEntity
  8
0
100
AcDbLine
 10
7.951928533691191
 20
8.322770078667309
 30
0.0
 11
8.529265932381684
 21
8.322770078667309
 31
0.0
  0
LINE
  5
307
330
1F
100
AcDbEntity
  8
0
100
AcDbLine
 10
8.740419808443448
 20
8.322770078667316
 30
0.0
 11
8.840681209452196
 21
8.322770078667309
 31
0.0
  0
ARC
  5
308
330
1F
100
AcDbEntity
  8
0
100
AcDbCircle
 10
8.840681209452196
 20
8.822770078667309
 30
0.0
 40
0.5
100
AcDbArc
 50
270.0
 51
295.117576237823
  0
ARC
  5
309
330
1F
100
AcDbEntity
  8
0
100
AcDbCircle
 10
8.615759092424206
 20
8.322058592234063
 30
0.0
 40
0.0864960863107047
100
AcDbArc
 50
0.4713002779999121
 51
179.528699721998
  0
LINE
  5
30A
330
1F
100
AcDbEntity
  8
0
100
AcDbLine
 10
8.702252252466639
 20
8.322770078667309
 30
0.0
 11
8.840681209452196
 21
8.322770078667309
 31
0.0
  0
ARC
  5
30B
330
1F
100
AcDbEntity
  8
0
  6
Continuous
100
AcDbCircle
 10
9.242919808443475
 20
5.113356781186534
 30
0.0
 40
0.06
100
AcDbArc
 50
301.631166275524
 51
58.36883372447602
  0
LINE
  5
30C
330
1F
100
AcDbEntity
  8
0
  6
Continuous
100
AcDbLine
 10
9.115419808443459
 20
4.964353917657652
 30
0.0
 11
9.274386756171772
 21
5.062270274155184
 31
0.0
  0
CIRCLE
  5
30D
330
1F
100
AcDbEntity
  8
0
  6
Continuous
100
AcDbCircle
 10
10.08416980844344
 20
4.817481781186514
 30
0.0
 40
0.0855
  0
CIRCLE
  5
30E
330
1F
100
AcDbEntity
  8
0
  6
Continuous
100
AcDbCircle
 10
9.615419808443441
 20
5.316481781186537
 30
0.0
 40
0.0855
  0
LINE
  5
30F
330
1F
100
AcDbEntity
  8
0
  6
Continuous
100
AcDbLine
 10
9.115419808443459
 20
5.262359644715401
 30
0.0
 11
9.274386756171772
 21
5.164443288217884
 31
0.0
  0
LINE
  5
310
330
1F
100
AcDbEntity
  8
0
  6
Continuous
100
AcDbLine
 10
10.56588989197194
 20
5.105988993308179
 30
0.0
 11
10.56588989197196
 21
4.480988993308179
 31
0.0
  0
LINE
  5
311
330
1F
100
AcDbEntity
  8
0
  6
Continuous
100
AcDbLine
 10
10.75338989197194
 20
5.230988993308179
 30
0.0
 11
10.69088989197196
 21
5.230988993308179
 31
0.0
  0
ARC
  5
312
330
1F
100
AcDbEntity
  8
0
  6
Continuous
100
AcDbCircle
 10
10.69088989197195
 20
5.105988993308172
 30
0.0
 40
0.1250000000000142
100
AcDbArc
 50
89.99999999999351
 51
179.9999999999935
  0
ARC
  5
313
330
1F
100
AcDbEntity
  8
0
  6
Continuous
100
AcDbCircle
 10
10.75338989197195
 20
5.3559889933082
 30
0.0
 40
0.1250000000000142
100
AcDbArc
 50
269.9999999999935
 51
359.9999999999934
  0
LINE
  5
314
330
1F
100
AcDbEntity
  8
0
  6
Continuous
100
AcDbLine
 10
10.87838989197196
 20
5.613356781186477
 30
0.0
 11
10.87838989197196
 21
5.355988993308179
 31
0.0
  0
LINE
  5
315
330
1F
100
AcDbEntity
  8
0
100
AcDbLine
 10
9.115419808443427
 20
11.83880076485551
 30
0.0
 11
9.052919808443448
 21
11.83880076485551
 31
0.0
  0
ARC
  5
316
330
1F
100
AcDbEntity
  8
0
100
AcDbCircle
 10
9.177919808443448
 20
11.88527007866732
 30
0.0
 40
0.125
100
AcDbArc
 50
90.00000000000007
 51
180.0
  0
ARC
  5
317
330
1F
100
AcDbEntity
  8
0
100
AcDbCircle
 10
8.6186864040187
 20
11.82314213457925
 30
0.0
 40
0.0953832977876115
100
AcDbArc
 50
180.2234907792949
 51
359.7765092207051
  0
ARC
  5
318
330
1F
100
AcDbEntity
  8
0
100
AcDbCircle
 10
7.8686864040187
 20
11.82314213457925
 30
0.0
 40
0.0953832977876115
100
AcDbArc
 50
180.2234907792949
 51
359.7765092207051
  0
CIRCLE
  5
319
330
1F
100
AcDbEntity
  8
0
100
AcDbCircle
 10
8.243686404018703
 20
9.697770078667302
 30
0.0
 40
0.1405
  0
LWPOLYLINE
  5
31A
330
1F
100
AcDbEntity
  8
0
100
AcDbPolyline
 90
        8
 70
     1
 43
0.0
 10
8.221589317447069
 20
10.40050831828249
 10
8.144868231367383
 20
10.32378723256179
 42
0.4142135621262115
 10
8.144868231272653
 20
10.27959305875626
 10
8.221589316574182
 20
10.20287197296636
 42
0.4142135627112589
 10
8.265783490423857
 20
10.20287197299188
 10
8.342504576727649
 20
10.27959305896584
 42
0.4142135618686293
 10
8.342504576765705
 20
10.32378723275194
 10
8.265783491271236
 20
10.40050831828249
 42
0.414213562373095
  0
LINE
  5
31B
330
1F
100
AcDbEntity
  8
0
100
AcDbLine
 10
7.302919808443456
 20
12.01027007866732
 30
0.0
 11
5.602449724915005
 21
12.01027007866733
 31
0.0
  0
LINE
  5
31C
330
1F
100
AcDbEntity
  8
0
100
AcDbLine
 10
7.302919808443477
 20
11.94777007866732
 30
0.0
 11
5.602449724915005
 21
11.94777007866732
 31
0.0
  0
LINE
  5
31D
330
1F
100
AcDbEntity
  8
0
100
AcDbLine
 10
5.602449724915005
 20
11.94777007866733
 30
0.0
 11
5.602449724915005
 21
12.01027007866732
 31
0.0
  0
LINE
  5
31E
330
1F
100
AcDbEntity
  8
0
100
AcDbLine
 10
7.365419808443498
 20
11.8388007648555
 30
0.0
 11
7.427919808443477
 21
11.8388007648555
 31
0.0
  0
ARC
  5
31F
330
1F
100
AcDbEntity
  8
0
100
AcDbCircle
 10
7.302919808443456
 20
11.88527007866732
 30
0.0
 40
0.125
100
AcDbArc
 50
0.0
 51
90.0
  0
ARC
  5
320
330
1F
100
AcDbEntity
  8
0
100
AcDbCircle
 10
7.302919808443477
 20
11.88527007866732
 30
0.0
 40
0.0625
100
AcDbArc
 50
0.0
 51
90.0
  0
LINE
  5
321
330
1F
100
AcDbEntity
  8
0
100
AcDbLine
 10
7.640158407434704
 20
11.82277007866731
 30
0.0
 11
7.773303831861846
 21
11.82277007866731
 31
0.0
  0
ARC
  5
322
330
1F
100
AcDbEntity
  8
0
100
AcDbCircle
 10
7.640158407434704
 20
12.32277007866731
 30
0.0
 40
0.5
100
AcDbArc
 50
244.8824237621772
 51
269.9999999999999
  0
LINE
  5
323
330
1F
100
AcDbEntity
  8
0
100
AcDbLine
 10
7.964068976175483
 20
11.82277007866731
 30
0.0
 11
8.523303831861981
 21
11.82277007866731
 31
0.0
  0
ARC
  5
324
330
1F
100
AcDbEntity
  8
0
100
AcDbCircle
 10
8.840681209452193
 20
12.32277007866731
 30
0.0
 40
0.5
100
AcDbArc
 50
270.0
 51
295.1175762378232
  0
LINE
  5
325
330
1F
100
AcDbEntity
  8
0
100
AcDbLine
 10
8.740419808443448
 20
11.82277007866731
 30
0.0
 11
8.840681209452193
 21
11.82277007866731
 31
0.0
  0
LINE
  5
326
330
1F
100
AcDbEntity
  8
0
100
AcDbLine
 10
9.052919808443448
 20
11.87005076485551
 30
0.0
 11
9.052919808443448
 21
11.88527007866732
 31
0.0
  0
LINE
  5
327
330
1F
100
AcDbEntity
  8
0
100
AcDbLine
 10
8.714068976175419
 20
11.82277007866731
 30
0.0
 11
8.840681209452193
 21
11.82277007866731
 31
0.0
  0
LINE
  5
328
330
1F
100
AcDbEntity
  8
0
100
AcDbLine
 10
10.87838989197196
 20
12.01027007866732
 30
0.0
 11
9.177919808443448
 21
12.01027007866732
 31
0.0
  0
LINE
  5
329
330
1F
100
AcDbEntity
  8
0
100
AcDbLine
 10
10.87838989197196
 20
11.94777007866732
 30
0.0
 11
9.177919808443448
 21
11.94777007866732
 31
0.0
  0
ARC
  5
32A
330
1F
100
AcDbEntity
  8
0
100
AcDbCircle
 10
9.177919808443448
 20
11.88527007866732
 30
0.0
 40
0.0625
100
AcDbArc
 50
90.00000000000007
 51
180.0
  0
LINE
  5
32B
330
1F
100
AcDbEntity
  8
0
100
AcDbLine
 10
10.87838989197196
 20
11.94777007866732
 30
0.0
 11
10.87838989197196
 21
12.01027007866732
 31
0.0
  0
ARC
  5
32C
330
1F
100
AcDbEntity
  8
0
  6
Continuous
100
AcDbCircle
 10
14.48772574364391
 20
4.525157242228977
 30
0.0
 40
0.1249999999999858
100
AcDbArc
 50
179.9999999999935
 51
269.9999999999935
  0
LINE
  5
32D
330
1F
100
AcDbEntity
  8
0
100
AcDbLine
 10
16.43841571274442
 20
5.61335678118648
 30
0.0
 11
16.43841571274441
 21
0.345099263314923
 31
0.0
  0
LINE
  5
32E
330
1F
100
AcDbEntity
  8
0
  6
Continuous
100
AcDbLine
 10
16.48772574364395
 20
0.3903123748999189
 30
0.0
 11
16.48772574364395
 21
5.61335678118648
 31
0.0
  0
ARC
  5
32F
330
1F
100
AcDbEntity
  8
0
  6
Continuous
100
AcDbCircle
 10
13.36272574364394
 20
2.151511220465324
 30
0.0
 40
1.000000000000003
100
AcDbArc
 50
315.000000000001
 51
0.0000000000024427
  0
LINE
  5
330
330
1F
100
AcDbEntity
  8
0
  6
HIDDEN
100
AcDbLine
 10
12.88922088927735
 20
0.2383567811866669
 30
0.0
 11
16.3606963989326
 21
0.2383567811866634
 31
0.0
  0
LINE
  5
331
330
1F
100
AcDbEntity
  8
0
100
AcDbLine
 10
12.7981963989326
 20
0.1758567811866669
 30
0.0
 11
16.3606963989326
 21
0.1758567811866634
 31
0.0
  0
LINE
  5
332
330
1F
100
AcDbEntity
  8
0
  6
Continuous
100
AcDbLine
 10
13.03769684339538
 20
0.3535533905932624
 30
0.0
 11
14.0698325248305
 21
1.444404439278786
 31
0.0
  0
ARC
  5
333
330
1F
100
AcDbEntity
  8
0
  6
Continuous
100
AcDbCircle
 10
13.39125023398857
 20
0.0
 30
0.0
 40
0.4999999999999432
100
AcDbArc
 50
134.9999999999952
 51
159.4078398862809
  0
LINE
  5
334
330
1F
100
AcDbEntity
  8
0
100
AcDbLine
 10
12.8606963989326
 20
0.1758567811866669
 30
0.0
 11
12.8606963989326
 21
0.2383567811866669
 31
0.0
  0
LINE
  5
335
330
1F
100
AcDbEntity
  8
0
100
AcDbLine
 10
12.95172088927735
 20
0.2383567811866669
 30
0.0
 11
12.8606963989326
 21
0.2383567811866669
 31
0.0
  0
ARC
  5
336
330
1F
100
AcDbEntity
  8
0
  6
Continuous
100
AcDbCircle
 10
16.80022574364384
 20
0.0
 30
0.0
 40
0.4999999999999437
100
AcDbArc
 50
128.6821874534726
 51
151.5290213442328
  0
LINE
  5
337
330
1F
100
AcDbEntity
  8
0
100
AcDbLine
 10
16.3606963989326
 20
0.2383567811866634
 30
0.0
 11
16.3606963989326
 21
0.1758567811866634
 31
0.0
  0
CIRCLE
  5
338
330
1F
100
AcDbEntity
  8
0
  6
Continuous
100
AcDbCircle
 10
14.6106963989326
 20
1.050856781186724
 30
0.0
 40
0.0855
  0
CIRCLE
  5
339
330
1F
100
AcDbEntity
  8
0
  6
Continuous
100
AcDbCircle
 10
14.92522574364391
 20
1.785231781186724
 30
0.0
 40
0.0855
  0
CIRCLE
  5
33A
330
1F
100
AcDbEntity
  8
0
  6
Continuous
100
AcDbCircle
 10
15.55022574364389
 20
1.285231781186724
 30
0.0
 40
0.0855
  0
CIRCLE
  5
33B
330
1F
100
AcDbEntity
  8
0
  6
Continuous
100
AcDbCircle
 10
14.92522574364391
 20
3.285231781186671
 30
0.0
 40
0.0855
  0
LINE
  5
33C
330
1F
100
AcDbEntity
  8
0
  6
Continuous
100
AcDbLine
 10
14.36272574364393
 20
2.151511220465352
 30
0.0
 11
14.36272574364389
 21
3.400157242228968
 31
0.0
  0
CIRCLE
  5
33D
330
1F
100
AcDbEntity
  8
0
  6
Continuous
100
AcDbCircle
 10
15.23772574364391
 20
2.28523178118671
 30
0.0
 40
0.0855
  0
CIRCLE
  5
33E
330
1F
100
AcDbEntity
  8
0
  6
Continuous
100
AcDbCircle
 10
15.55022574364389
 20
2.785231781186671
 30
0.0
 40
0.0855
  0
ARC
  5
33F
330
1F
100
AcDbEntity
  8
0
  6
Continuous
100
AcDbCircle
 10
16.48772574364394
 20
2.817481781186519
 30
0.0
 40
0.1875
100
AcDbArc
 50
105.2473642457561
 51
254.7526357542439
  0
CIRCLE
  5
340
330
1F
100
AcDbEntity
  8
0
  6
Continuous
100
AcDbCircle
 10
15.23772574364391
 20
3.785231781186656
 30
0.0
 40
0.0855
  0
LINE
  5
341
330
1F
100
AcDbEntity
  8
0
  6
Continuous
100
AcDbLine
 10
14.67522574364392
 20
3.650157242228996
 30
0.0
 11
14.67522574364389
 21
4.275157242228982
 31
0.0
  0
LINE
  5
342
330
1F
100
AcDbEntity
  8
0
  6
Continuous
100
AcDbLine
 10
14.48772574364392
 20
3.525157242228982
 30
0.0
 11
14.55022574364389
 21
3.525157242228982
 31
0.0
  0
ARC
  5
343
330
1F
100
AcDbEntity
  8
0
  6
Continuous
100
AcDbCircle
 10
14.55022574364391
 20
3.650157242229003
 30
0.0
 40
0.1250000000000142
100
AcDbArc
 50
269.9999999999935
 51
0.0
  0
ARC
  5
344
330
1F
100
AcDbEntity
  8
0
  6
Continuous
100
AcDbCircle
 10
14.48772574364391
 20
3.400157242228975
 30
0.0
 40
0.1250000000000142
100
AcDbArc
 50
89.99999999999351
 51
180.0
  0
ARC
  5
345
330
1F
100
AcDbEntity
  8
0
  6
Continuous
100
AcDbCircle
 10
14.55022574364391
 20
4.275157242229003
 30
0.0
 40
0.1249999999999858
100
AcDbArc
 50
359.9999999999934
 51
89.99999999999351
  0
LINE
  5
346
330
1F
100
AcDbEntity
  8
0
  6
Continuous
100
AcDbLine
 10
14.55022574364392
 20
4.400157242228982
 30
0.0
 11
14.48772574364389
 21
4.400157242228982
 31
0.0
  0
LINE
  5
347
330
1F
100
AcDbEntity
  8
0
  6
Continuous
100
AcDbLine
 10
16.4384157127444
 20
3.770484061363577
 30
0.0
 11
16.26625879591563
 21
3.664443288217893
 31
0.0
  0
ARC
  5
348
330
1F
100
AcDbEntity
  8
0
  6
Continuous
100
AcDbCircle
 10
16.29772574364392
 20
3.613356781186543
 30
0.0
 40
0.06
100
AcDbArc
 50
121.6311662755243
 51
238.368833724476
  0
LINE
  5
349
330
1F
100
AcDbEntity
  8
0
  6
Continuous
100
AcDbLine
 10
16.4384157127444
 20
3.456229501009496
 30
0.0
 11
16.26625879591563
 21
3.562270274155193
 31
0.0
  0
LWPOLYLINE
  5
34A
330
1F
100
AcDbEntity
  8
0
  6
Continuous
100
AcDbPolyline
 90
        7
 70
     1
 43
0.0
 10
15.5116007436439
 20
4.406258831365516
 10
15.6743507436439
 20
4.312295075054902
 42
-0.5773502691896388
 10
15.6743507436439
 20
4.258168487318368
 10
15.5116007436439
 20
4.164204731007782
 42
-0.5773502691895971
 10
15.4647257436439
 20
4.191268024876049
 10
15.4647257436439
 20
4.285231781186649
 10
15.4647257436439
 20
4.37919553749725
 42
-0.5773502691896308
  0
LINE
  5
34B
330
1F
100
AcDbEntity
  8
0
  6
Continuous
100
AcDbLine
 10
14.67522574364392
 20
5.61335678118648
 30
0.0
 11
16.48772574364395
 21
5.61335678118648
 31
0.0
  0
LWPOLYLINE
  5
34C
330
1F
100
AcDbEntity
  8
0
  6
Continuous
100
AcDbPolyline
 90
        7
 70
     1
 43
0.0
 10
15.19910074364391
 20
5.406258831365504
 10
15.36185074364389
 20
5.312295075054918
 42
-0.5773502691896388
 10
15.36185074364389
 20
5.258168487318384
 10
15.19910074364391
 20
5.164204731007784
 42
-0.577350269189624
 10
15.15222574364391
 20
5.191268024876051
 10
15.1522257436439
 20
5.285231781186651
 10
15.15222574364391
 20
5.379195537497237
 42
-0.5773502691896237
  0
LINE
  5
34D
330
1F
100
AcDbEntity
  8
0
  6
Continuous
100
AcDbLine
 10
14.36272574364392
 20
4.525157242228984
 30
0.0
 11
14.36272574364389
 21
5.150157242228984
 31
0.0
  0
LWPOLYLINE
  5
34E
330
1F
100
AcDbEntity
  8
0
  6
Continuous
100
AcDbPolyline
 90
        7
 70
     1
 43
0.0
 10
14.8866007436439
 20
4.906258831365532
 10
15.04935074364389
 20
4.812295075054903
 42
-0.5773502691896388
 10
15.04935074364389
 20
4.75816848731837
 10
14.8866007436439
 20
4.664204731007756
 42
-0.5773502691896069
 10
14.8397257436439
 20
4.691268024876022
 10
14.8397257436439
 20
4.785231781186651
 10
14.8397257436439
 20
4.879195537497266
 42
-0.5773502691896409
  0
LINE
  5
34F
330
1F
100
AcDbEntity
  8
0
  6
Continuous
100
AcDbLine
 10
14.67522574364392
 20
5.400157242228984
 30
0.0
 11
14.67522574364392
 21
5.61335678118648
 31
0.0
  0
ARC
  5
350
330
1F
100
AcDbEntity
  8
0
  6
Continuous
100
AcDbCircle
 10
14.48772574364391
 20
5.150157242228977
 30
0.0
 40
0.1250000000000142
100
AcDbArc
 50
89.99999999999351
 51
179.9999999999935
  0
LINE
  5
351
330
1F
100
AcDbEntity
  8
0
  6
Continuous
100
AcDbLine
 10
14.48772574364392
 20
5.275157242228984
 30
0.0
 11
14.55022574364389
 21
5.275157242228984
 31
0.0
  0
ARC
  5
352
330
1F
100
AcDbEntity
  8
0
  6
Continuous
100
AcDbCircle
 10
14.55022574364391
 20
5.400157242229005
 30
0.0
 40
0.1250000000000142
100
AcDbArc
 50
269.9999999999935
 51
359.9999999999934
  0
ARC
  5
353
330
1F
100
AcDbEntity
  8
0
  6
Continuous
100
AcDbCircle
 10
16.29772574364392
 20
5.113356781186544
 30
0.0
 40
0.06
100
AcDbArc
 50
121.6311662755243
 51
238.368833724476
  0
LINE
  5
354
330
1F
100
AcDbEntity
  8
0
  6
Continuous
100
AcDbLine
 10
16.43841571274442
 20
4.956229501009494
 30
0.0
 11
16.26625879591563
 21
5.062270274155194
 31
0.0
  0
LINE
  5
355
330
1F
100
AcDbEntity
  8
0
  6
Continuous
100
AcDbLine
 10
16.4384157127444
 20
5.270484061363577
 30
0.0
 11
16.26625879591563
 21
5.164443288217894
 31
0.0
  0
ENDSEC
  0
SECTION
  2
OBJECTS
  0
DICTIONARY
  5
C
330
0
100
AcDbDictionary
281
     1
  3
ACAD_COLOR
350
361
  3
ACAD_GROUP
350
D
  3
ACAD_LAYOUT
350
1A
  3
ACAD_MATERIAL
350
360
  3
ACAD_MLINESTYLE
350
17
  3
ACAD_PLOTSETTINGS
350
19
  3
ACAD_PLOTSTYLENAME
350
E
  3
ACAD_TABLESTYLE
350
362
  3
ACDBHEADERROUNDTRIPXREC
350
37D
  3
AcDbVariableDictionary
350
1BF
  0
DICTIONARY
  5
361
102
{ACAD_REACTORS
330
C
102
}
330
C
100
AcDbDictionary
281
     1
  0
DICTIONARY
  5
D
102
{ACAD_REACTORS
330
C
102
}
330
C
100
AcDbDictionary
281
     1
  0
DICTIONARY
  5
1A
102
{ACAD_REACTORS
330
C
102
}
330
C
100
AcDbDictionary
281
     1
  3
Layout1
350
1E
  3
Layout2
350
26
  3
Model
350
22
  0
DICTIONARY
  5
360
102
{ACAD_REACTORS
330
C
102
}
330
C
100
AcDbDictionary
281
     1
  0
DICTIONARY
  5
17
102
{ACAD_REACTORS
330
C
102
}
330
C
100
AcDbDictionary
281
     1
  3
Standard
350
18
  0
DICTIONARY
  5
19
102
{ACAD_REACTORS
330
C
102
}
330
C
100
AcDbDictionary
281
     1
  0
ACDBDICTIONARYWDFLT
  5
E
102
{ACAD_REACTORS
330
C
102
}
330
C
100
AcDbDictionary
281
     1
  3
Normal
350
F
100
AcDbDictionaryWithDefault
340
F
  0
DICTIONARY
  5
362
102
{ACAD_REACTORS
330
C
102
}
330
C
100
AcDbDictionary
281
     1
  3
Standard
350
363
  0
DICTIONARY
  5
37D
102
{ACAD_REACTORS
330
C
102
}
330
C
100
AcDbDictionary
281
     1
  3
COLORDICT
350
37E
  3
MATERIALDICT
350
37F
  0
DICTIONARY
  5
1BF
102
{ACAD_REACTORS
330
C
102
}
330
C
100
AcDbDictionary
281
     1
  3
CTABLESTYLE
350
37B
  3
DIMASSOC
350
1C1
  3
HIDETEXT
350
1C0
  0
LAYOUT
  5
1E
102
{ACAD_REACTORS
330
1A
102
}
102
{ACAD_XDICTIONARY
360
380
102
}
330
1A
100
AcDbPlotSettings
  1

  2
X:\Program Files\AutoCAD2002\plotters\DWF ePlot (optimized for plotting).pc3
  4

  6

 40
0.0
 41
0.0
 42
0.0
 43
0.0
 44
0.0
 45
0.0
 46
0.0
 47
0.0
 48
0.0
 49
0.0
140
0.0
141
0.0
142
1.0
143
1.0
 70
   688
 72
     0
 73
     0
 74
     5
  7

 75
    16
147
1.0
148
0.0
149
0.0
100
AcDbLayout
  1
Layout1
 70
     1
 71
     1
 10
0.0
 20
0.0
 11
12.0
 21
9.0
 12
0.0
 22
0.0
 32
0.0
 14
1.000000000000000E+20
 24
1.000000000000000E+20
 34
1.000000000000000E+20
 15
-1.000000000000000E+20
 25
-1.000000000000000E+20
 35
-1.000000000000000E+20
146
0.0
 13
0.0
 23
0.0
 33
0.0
 16
1.0
 26
0.0
 36
0.0
 17
0.0
 27
1.0
 37
0.0
 76
     0
330
1B
  0
LAYOUT
  5
26
102
{ACAD_REACTORS
330
1A
102
}
102
{ACAD_XDICTIONARY
360
382
102
}
330
1A
100
AcDbPlotSettings
  1

  2
X:\Program Files\AutoCAD2002\plotters\DWF ePlot (optimized for plotting).pc3
  4

  6

 40
0.0
 41
0.0
 42
0.0
 43
0.0
 44
0.0
 45
0.0
 46
0.0
 47
0.0
 48
0.0
 49
0.0
140
0.0
141
0.0
142
1.0
143
1.0
 70
   688
 72
     0
 73
     0
 74
     5
  7

 75
    16
147
1.0
148
0.0
149
0.0
100
AcDbLayout
  1
Layout2
 70
     1
 71
     2
 10
0.0
 20
0.0
 11
12.0
 21
9.0
 12
0.0
 22
0.0
 32
0.0
 14
0.0
 24
0.0
 34
0.0
 15
0.0
 25
0.0
 35
0.0
146
0.0
 13
0.0
 23
0.0
 33
0.0
 16
1.0
 26
0.0
 36
0.0
 17
0.0
 27
1.0
 37
0.0
 76
     0
330
23
  0
LAYOUT
  5
22
102
{ACAD_REACTORS
330
1A
102
}
102
{ACAD_XDICTIONARY
360
384
102
}
330
1A
100
AcDbPlotSettings
  1

  2
X:\Program Files\AutoCAD2002\plotters\DWF ePlot (optimized for plotting).pc3
  4

  6

 40
0.0
 41
0.0
 42
0.0
 43
0.0
 44
0.0
 45
0.0
 46
0.0
 47
0.0
 48
0.0
 49
0.0
140
0.0
141
0.0
142
1.0
143
1.0
 70
  1712
 72
     0
 73
     0
 74
     0
  7

 75
     0
147
1.0
148
0.0
149
0.0
100
AcDbLayout
  1
Model
 70
     1
 71
     0
 10
0.0
 20
0.0
 11
12.0
 21
9.0
 12
0.0
 22
0.0
 32
0.0
 14
0.0
 24
0.0
 34
0.0
 15
0.0
 25
0.0
 35
0.0
146
0.0
 13
0.0
 23
0.0
 33
0.0
 16
1.0
 26
0.0
 36
0.0
 17
0.0
 27
1.0
 37
0.0
 76
     0
330
1F
  0
MLINESTYLE
  5
18
102
{ACAD_REACTORS
330
17
102
}
330
17
100
AcDbMlineStyle
  2
STANDARD
 70
     0
  3

 62
   256
 51
90.0
 52
90.0
 71
     2
 49
0.5
 62
   256
  6
BYLAYER
 49
-0.5
 62
   256
  6
BYLAYER
  0
ACDBPLACEHOLDER
  5
F
102
{ACAD_REACTORS
330
E
102
}
330
E
  0
ACAD_PROXY_OBJECT
  5
363
102
{ACAD_REACTORS
330
362
102
}
330
362
100
AcDbProxyObject
 90
      499
 91
      504
 95
   983063
 70
     0
 93
     1841
310
4214DD185B99185C9928B81E85EB51B8AE3F2E07A17AD46E2B8FC02B5E8DC0F42B1CFD028000000C1008070000C3001FDFF8000000C1003FBFF000000182007F7FE00000030400FEFFC00000060801FDFF8000000C1003FBFF00000018200000000000000681FA0B0000001820100E000186003FBFF000000182007F7FE000
310
00030400FEFFC00000060801FDFF8000000C1003FBFF000000182007F7FE000000304000AD7A3703D0AC73F4160000003040201C00030C007F7FE00000030400FEFFC00000060801FDFF8000000C1003FBFF000000182007F7FE00000030400FEFFC000000608000
340
11
340
11
340
11
 94
        0
  0
XRECORD
  5
37E
102
{ACAD_REACTORS
330
37D
102
}
330
37D
100
AcDbXrecord
340
361
  0
XRECORD
  5
37F
102
{ACAD_REACTORS
330
37D
102
}
330
37D
100
AcDbXrecord
340
360
  0
DICTIONARYVAR
  5
37B
102
{ACAD_REACTORS
330
1BF
102
}
330
1BF
100
DictionaryVariables
280
     0
  1
STANDARD
  0
DICTIONARYVAR
  5
1C1
102
{ACAD_REACTORS
330
1BF
102
}
330
1BF
100
DictionaryVariables
280
     0
  1
2
  0
DICTIONARYVAR
  5
1C0
102
{ACAD_REACTORS
330
1BF
102
}
330
1BF
100
DictionaryVariables
280
     0
  1
1
  0
DICTIONARY
  5
380
330
1E
100
AcDbDictionary
280
     1
281
     1
  3
ACAD_XREC_ROUNDTRIP
360
381
  0
DICTIONARY
  5
382
330
26
100
AcDbDictionary
280
     1
281
     1
  3
ACAD_XREC_ROUNDTRIP
360
383
  0
DICTIONARY
  5
384
330
22
100
AcDbDictionary
280
     1
281
     1
  3
ACAD_XREC_ROUNDTRIP
360
385
  0
XRECORD
  5
381
102
{ACAD_REACTORS
330
380
102
}
330
380
100
AcDbXrecord
102
SHADEPLOT
 70
     0
102
SHADEPLOTRESLEVEL
 70
     2
102
SHADEPLOTCUSTOMDPI
 70
   300
  0
XRECORD
  5
383
102
{ACAD_REACTORS
330
382
102
}
330
382
100
AcDbXrecord
102
SHADEPLOT
 70
     0
102
SHADEPLOTRESLEVEL
 70
     2
102
SHADEPLOTCUSTOMDPI
 70
   300
  0
XRECORD
  5
385
102
{ACAD_REACTORS
330
384
102
}
330
384
100
AcDbXrecord
102
SHADEPLOT
 70
     0
102
SHADEPLOTRESLEVEL
 70
     2
102
SHADEPLOTCUSTOMDPI
 70
   300
  0
ENDSEC
  0
EOF
