  0
SECTION
  2
HEADER
  9
$ACADVER
  1
AC1015
  9
$ACADMAINTVER
 70
     6
  9
$DWGCODEPAGE
  3
ANSI_1252
  9
$INSBASE
 10
0.0
 20
0.0
 30
0.0
  9
$EXTMIN
 10
-2.562388807029869
 20
-0.0265301593545288
 30
-0.0000000000112498
  9
$EXTMAX
 10
20.81135775710783
 20
13.75947686483694
 30
0.0000000000002956
  9
$LIMMIN
 10
0.0
 20
0.0
  9
$LIMMAX
 10
12.0
 20
9.0
  9
$ORTHOMODE
 70
     1
  9
$REGENMODE
 70
     1
  9
$FILLMODE
 70
     1
  9
$QTEXTMODE
 70
     0
  9
$MIRRTEXT
 70
     1
  9
$LTSCALE
 40
1.0
  9
$ATTMODE
 70
     1
  9
$TEXTSIZE
 40
0.2
  9
$TRACEWID
 40
0.05
  9
$TEXTSTYLE
  7
Standard
  9
$CLAYER
  8
0
  9
$CELTYPE
  6
ByLayer
  9
$CECOLOR
 62
   256
  9
$CELTSCALE
 40
1.0
  9
$DISPSILH
 70
     0
  9
$DIMSCALE
 40
1.0
  9
$DIMASZ
 40
0.18
  9
$DIMEXO
 40
0.0625
  9
$DIMDLI
 40
0.38
  9
$DIMRND
 40
0.0
  9
$DIMDLE
 40
0.0
  9
$DIMEXE
 40
0.18
  9
$DIMTP
 40
0.0
  9
$DIMTM
 40
0.0
  9
$DIMTXT
 40
0.18
  9
$DIMCEN
 40
0.09
  9
$DIMTSZ
 40
0.0
  9
$DIMTOL
 70
     0
  9
$DIMLIM
 70
     0
  9
$DIMTIH
 70
     1
  9
$DIMTOH
 70
     1
  9
$DIMSE1
 70
     0
  9
$DIMSE2
 70
     0
  9
$DIMTAD
 70
     0
  9
$DIMZIN
 70
     0
  9
$DIMBLK
  1

  9
$DIMASO
 70
     1
  9
$DIMSHO
 70
     1
  9
$DIMPOST
  1

  9
$DIMAPOST
  1

  9
$DIMALT
 70
     0
  9
$DIMALTD
 70
     2
  9
$DIMALTF
 40
25.4
  9
$DIMLFAC
 40
1.0
  9
$DIMTOFL
 70
     0
  9
$DIMTVP
 40
0.0
  9
$DIMTIX
 70
     0
  9
$DIMSOXD
 70
     0
  9
$DIMSAH
 70
     0
  9
$DIMBLK1
  1

  9
$DIMBLK2
  1

  9
$DIMSTYLE
  2
Standard
  9
$DIMCLRD
 70
     0
  9
$DIMCLRE
 70
     0
  9
$DIMCLRT
 70
     0
  9
$DIMTFAC
 40
1.0
  9
$DIMGAP
 40
0.09
  9
$DIMJUST
 70
     0
  9
$DIMSD1
 70
     0
  9
$DIMSD2
 70
     0
  9
$DIMTOLJ
 70
     1
  9
$DIMTZIN
 70
     0
  9
$DIMALTZ
 70
     0
  9
$DIMALTTZ
 70
     0
  9
$DIMUPT
 70
     0
  9
$DIMDEC
 70
     4
  9
$DIMTDEC
 70
     4
  9
$DIMALTU
 70
     2
  9
$DIMALTTD
 70
     2
  9
$DIMTXSTY
  7
Standard
  9
$DIMAUNIT
 70
     0
  9
$DIMADEC
 70
     0
  9
$DIMALTRND
 40
0.0
  9
$DIMAZIN
 70
     0
  9
$DIMDSEP
 70
    46
  9
$DIMATFIT
 70
     3
  9
$DIMFRAC
 70
     0
  9
$DIMLDRBLK
  1

  9
$DIMLUNIT
 70
     2
  9
$DIMLWD
 70
    -2
  9
$DIMLWE
 70
    -2
  9
$DIMTMOVE
 70
     0
  9
$LUNITS
 70
     2
  9
$LUPREC
 70
     4
  9
$SKETCHINC
 40
0.1
  9
$FILLETRAD
 40
0.5
  9
$AUNITS
 70
     0
  9
$AUPREC
 70
     0
  9
$MENU
  1
.
  9
$ELEVATION
 40
0.0
  9
$PELEVATION
 40
0.0
  9
$THICKNESS
 40
0.0
  9
$LIMCHECK
 70
     0
  9
$CHAMFERA
 40
0.5
  9
$CHAMFERB
 40
0.5
  9
$CHAMFERC
 40
1.0
  9
$CHAMFERD
 40
0.0
  9
$SKPOLY
 70
     0
  9
$TDCREATE
 40
2453423.550611007
  9
$TDUCREATE
 40
2453423.88394434
  9
$TDUPDATE
 40
2454165.79453941
  9
$TDUUPDATE
 40
2454166.127872743
  9
$TDINDWG
 40
0.0152591204
  9
$TDUSRTIMER
 40
0.0152591204
  9
$USRTIMER
 70
     1
  9
$ANGBASE
 50
0.0
  9
$ANGDIR
 70
     0
  9
$PDMODE
 70
     0
  9
$PDSIZE
 40
0.0
  9
$PLINEWID
 40
0.0
  9
$SPLFRAME
 70
     0
  9
$SPLINETYPE
 70
     6
  9
$SPLINESEGS
 70
     8
  9
$HANDSEED
  5
9CE
  9
$SURFTAB1
 70
     6
  9
$SURFTAB2
 70
     6
  9
$SURFTYPE
 70
     6
  9
$SURFU
 70
     6
  9
$SURFV
 70
     6
  9
$UCSBASE
  2

  9
$UCSNAME
  2

  9
$UCSORG
 10
0.0
 20
0.0
 30
0.0
  9
$UCSXDIR
 10
1.0
 20
0.0
 30
0.0
  9
$UCSYDIR
 10
0.0
 20
1.0
 30
0.0
  9
$UCSORTHOREF
  2

  9
$UCSORTHOVIEW
 70
     0
  9
$UCSORGTOP
 10
0.0
 20
0.0
 30
0.0
  9
$UCSORGBOTTOM
 10
0.0
 20
0.0
 30
0.0
  9
$UCSORGLEFT
 10
0.0
 20
0.0
 30
0.0
  9
$UCSORGRIGHT
 10
0.0
 20
0.0
 30
0.0
  9
$UCSORGFRONT
 10
0.0
 20
0.0
 30
0.0
  9
$UCSORGBACK
 10
0.0
 20
0.0
 30
0.0
  9
$PUCSBASE
  2

  9
$PUCSNAME
  2

  9
$PUCSORG
 10
0.0
 20
0.0
 30
0.0
  9
$PUCSXDIR
 10
1.0
 20
0.0
 30
0.0
  9
$PUCSYDIR
 10
0.0
 20
1.0
 30
0.0
  9
$PUCSORTHOREF
  2

  9
$PUCSORTHOVIEW
 70
     0
  9
$PUCSORGTOP
 10
0.0
 20
0.0
 30
0.0
  9
$PUCSORGBOTTOM
 10
0.0
 20
0.0
 30
0.0
  9
$PUCSORGLEFT
 10
0.0
 20
0.0
 30
0.0
  9
$PUCSORGRIGHT
 10
0.0
 20
0.0
 30
0.0
  9
$PUCSORGFRONT
 10
0.0
 20
0.0
 30
0.0
  9
$PUCSORGBACK
 10
0.0
 20
0.0
 30
0.0
  9
$USERI1
 70
     0
  9
$USERI2
 70
     0
  9
$USERI3
 70
     0
  9
$USERI4
 70
     0
  9
$USERI5
 70
     0
  9
$USERR1
 40
0.0
  9
$USERR2
 40
0.0
  9
$USERR3
 40
0.0
  9
$USERR4
 40
0.0
  9
$USERR5
 40
0.0
  9
$WORLDVIEW
 70
     1
  9
$SHADEDGE
 70
     3
  9
$SHADEDIF
 70
    70
  9
$TILEMODE
 70
     1
  9
$MAXACTVP
 70
    64
  9
$PINSBASE
 10
0.0
 20
0.0
 30
0.0
  9
$PLIMCHECK
 70
     0
  9
$PEXTMIN
 10
1.000000000000000E+20
 20
1.000000000000000E+20
 30
1.000000000000000E+20
  9
$PEXTMAX
 10
-1.000000000000000E+20
 20
-1.000000000000000E+20
 30
-1.000000000000000E+20
  9
$PLIMMIN
 10
0.0
 20
0.0
  9
$PLIMMAX
 10
12.0
 20
9.0
  9
$UNITMODE
 70
     0
  9
$VISRETAIN
 70
     1
  9
$PLINEGEN
 70
     0
  9
$PSLTSCALE
 70
     1
  9
$TREEDEPTH
 70
  3020
  9
$CMLSTYLE
  2
Standard
  9
$CMLJUST
 70
     0
  9
$CMLSCALE
 40
1.0
  9
$PROXYGRAPHICS
 70
     1
  9
$MEASUREMENT
 70
     0
  9
$CELWEIGHT
370
    -1
  9
$ENDCAPS
280
     0
  9
$JOINSTYLE
280
     0
  9
$LWDISPLAY
290
     0
  9
$INSUNITS
 70
     1
  9
$HYPERLINKBASE
  1

  9
$STYLESHEET
  1

  9
$XEDIT
290
     1
  9
$CEPSNTYPE
380
     0
  9
$PSTYLEMODE
290
     1
  9
$FINGERPRINTGUID
  2
{ECA10E69-4C5B-4F16-AD25-61A2BC38045A}
  9
$VERSIONGUID
  2
{A443FC9A-DEE0-4F4D-95C0-FF53221AFC68}
  9
$EXTNAMES
290
     1
  9
$PSVPSCALE
 40
0.0
  9
$OLESTARTUP
290
     0
  0
ENDSEC
  0
SECTION
  2
CLASSES
  0
CLASS
  1
ACDBDICTIONARYWDFLT
  2
AcDbDictionaryWithDefault
  3
AutoCAD 2000
 90
        0
280
     0
281
     0
  0
CLASS
  1
ACDBPLACEHOLDER
  2
AcDbPlaceHolder
  3
ObjectDBX Classes
 90
        0
280
     0
281
     0
  0
CLASS
  1
LAYOUT
  2
AcDbLayout
  3
ObjectDBX Classes
 90
        0
280
     0
281
     0
  0
CLASS
  1
DICTIONARYVAR
  2
AcDbDictionaryVar
  3
AutoCAD 2000
 90
        0
280
     0
281
     0
  0
CLASS
  1
TABLESTYLE
  2
AcDbTableStyle
  3
ObjectDBX Classes
 90
     2047
280
     1
281
     0
  0
ENDSEC
  0
SECTION
  2
TABLES
  0
TABLE
  2
VPORT
  5
8
330
0
100
AcDbSymbolTable
 70
     5
  0
VPORT
  5
9BB
330
8
100
AcDbSymbolTableRecord
100
AcDbViewportTableRecord
  2
*Active
 70
     0
 10
0.0
 20
0.0
 11
1.0
 21
1.0
 12
12.59533603632657
 22
8.797326383612102
 13
0.0
 23
0.0
 14
0.5
 24
0.5
 15
0.5
 25
0.5
 16
0.0
 26
0.0
 36
1.0
 17
0.0
 27
0.0
 37
0.0
 40
22.33275810031933
 41
1.814583333333333
 42
50.0
 43
0.0
 44
0.0
 50
0.0
 51
0.0
 71
     0
 72
   100
 73
     1
 74
     3
 75
     0
 76
     0
 77
     0
 78
     0
281
     0
 65
     1
110
0.0
120
0.0
130
0.0
111
1.0
121
0.0
131
0.0
112
0.0
122
1.0
132
0.0
 79
     0
146
0.0
  0
ENDTAB
  0
TABLE
  2
LTYPE
  5
5
330
0
100
AcDbSymbolTable
 70
     2
  0
LTYPE
  5
14
330
5
100
AcDbSymbolTableRecord
100
AcDbLinetypeTableRecord
  2
ByBlock
 70
     0
  3

 72
    65
 73
     0
 40
0.0
  0
LTYPE
  5
15
330
5
100
AcDbSymbolTableRecord
100
AcDbLinetypeTableRecord
  2
ByLayer
 70
     0
  3

 72
    65
 73
     0
 40
0.0
  0
LTYPE
  5
16
330
5
100
AcDbSymbolTableRecord
100
AcDbLinetypeTableRecord
  2
Continuous
 70
     0
  3
Solid line
 72
    65
 73
     0
 40
0.0
  0
LTYPE
  5
9A6
330
5
100
AcDbSymbolTableRecord
100
AcDbLinetypeTableRecord
  2
HIDDEN
 70
     0
  3
Hidden __ __ __ __ __ __ __ __ __ __ __ __ __ _
 72
    65
 73
     2
 40
0.375
 49
0.25
 74
     0
 49
-0.125
 74
     0
  0
ENDTAB
  0
TABLE
  2
LAYER
  5
2
330
0
100
AcDbSymbolTable
 70
     1
  0
LAYER
  5
10
330
2
100
AcDbSymbolTableRecord
100
AcDbLayerTableRecord
  2
0
 70
     0
 62
     7
  6
Continuous
370
    -3
390
F
  0
ENDTAB
  0
TABLE
  2
STYLE
  5
3
330
0
100
AcDbSymbolTable
 70
     2
  0
STYLE
  5
11
330
3
100
AcDbSymbolTableRecord
100
AcDbTextStyleTableRecord
  2
Standard
 70
     0
 40
0.0
 41
1.0
 50
0.0
 71
     0
 42
0.2
  3
txt
  4

  0
STYLE
  5
9A5
330
3
100
AcDbSymbolTableRecord
100
AcDbTextStyleTableRecord
  2

 70
     1
 40
0.0
 41
1.0
 50
0.0
 71
     0
 42
0.2
  3
ltypeshp.shx
  4

  0
ENDTAB
  0
TABLE
  2
VIEW
  5
6
330
0
100
AcDbSymbolTable
 70
     0
  0
ENDTAB
  0
TABLE
  2
UCS
  5
7
330
0
100
AcDbSymbolTable
 70
     0
  0
ENDTAB
  0
TABLE
  2
APPID
  5
9
330
0
100
AcDbSymbolTable
 70
     1
  0
APPID
  5
12
330
9
100
AcDbSymbolTableRecord
100
AcDbRegAppTableRecord
  2
ACAD
 70
     0
  0
ENDTAB
  0
TABLE
  2
DIMSTYLE
  5
A
330
0
100
AcDbSymbolTable
 70
     1
100
AcDbDimStyleTable
  0
DIMSTYLE
105
27
330
A
100
AcDbSymbolTableRecord
100
AcDbDimStyleTableRecord
  2
Standard
 70
     0
  3

  4

340
11
  0
ENDTAB
  0
TABLE
  2
BLOCK_RECORD
  5
1
330
0
100
AcDbSymbolTable
 70
     1
  0
BLOCK_RECORD
  5
1F
330
1
100
AcDbSymbolTableRecord
100
AcDbBlockTableRecord
  2
*Model_Space
340
22
  0
BLOCK_RECORD
  5
1B
330
1
100
AcDbSymbolTableRecord
100
AcDbBlockTableRecord
  2
*Paper_Space
340
1E
  0
BLOCK_RECORD
  5
23
330
1
100
AcDbSymbolTableRecord
100
AcDbBlockTableRecord
  2
*Paper_Space0
340
26
  0
ENDTAB
  0
ENDSEC
  0
SECTION
  2
BLOCKS
  0
BLOCK
  5
20
330
1F
100
AcDbEntity
  8
0
100
AcDbBlockBegin
  2
*Model_Space
 70
     0
 10
0.0
 20
0.0
 30
0.0
  3
*Model_Space
  1

  4

  0
ENDBLK
  5
21
330
1F
100
AcDbEntity
  8
0
100
AcDbBlockEnd
  0
BLOCK
  5
1C
330
1B
100
AcDbEntity
 67
     1
  8
0
100
AcDbBlockBegin
  2
*Paper_Space
 70
     0
 10
0.0
 20
0.0
 30
0.0
  3
*Paper_Space
  1

  4

  0
ENDBLK
  5
1D
330
1B
100
AcDbEntity
 67
     1
  8
0
100
AcDbBlockEnd
  0
BLOCK
  5
24
330
23
100
AcDbEntity
  8
0
100
AcDbBlockBegin
  2
*Paper_Space0
 70
     0
 10
0.0
 20
0.0
 30
0.0
  3
*Paper_Space0
  1

  4

  0
ENDBLK
  5
25
330
23
100
AcDbEntity
  8
0
100
AcDbBlockEnd
  0
ENDSEC
  0
SECTION
  2
ENTITIES
  0
LINE
  5
7E5
330
1F
100
AcDbEntity
  8
0
  6
Continuous
100
AcDbLine
 10
4.125111192970124
 20
7.156249999999869
 30
0.0
 11
2.437611192970131
 21
7.156249999999876
 31
0.0
  0
LINE
  5
7E6
330
1F
100
AcDbEntity
  8
0
  6
Continuous
100
AcDbLine
 10
3.51971797415667
 20
1.367378112409851
 30
0.0
 11
2.500111192970124
 21
0.2817093948483969
 31
0.0
  0
ARC
  5
7E7
330
1F
100
AcDbEntity
  8
0
100
AcDbCircle
 10
-2.437388807029855
 20
6.974300461042386
 30
0.0
 40
0.1250000000000142
100
AcDbArc
 50
180.0
 51
270.0000000000065
  0
ARC
  5
7E8
330
1F
100
AcDbEntity
  8
0
100
AcDbCircle
 10
-2.437388807029883
 20
5.849300461042414
 30
0.0
 40
0.1249999999999574
100
AcDbArc
 50
89.99999999999349
 51
179.9999999999935
  0
ARC
  5
7E9
330
1F
100
AcDbEntity
  8
0
  6
Continuous
100
AcDbCircle
 10
-2.437388807029826
 20
5.224300461042336
 30
0.0
 40
0.1250000000000142
100
AcDbArc
 50
180.0000000000065
 51
270.0000000000065
  0
LINE
  5
7EA
330
1F
100
AcDbEntity
  8
0
  6
Continuous
100
AcDbLine
 10
-2.562388807029862
 20
7.156249999999869
 30
0.0
 11
-0.874888807029869
 21
7.156249999999876
 31
0.0
  0
ARC
  5
7EB
330
1F
100
AcDbEntity
  8
0
  6
Continuous
100
AcDbCircle
 10
-2.437388807029826
 20
4.099300461042335
 30
0.0
 40
0.1249999999999858
100
AcDbArc
 50
90.00000000000651
 51
180.0000000000065
  0
ARC
  5
7EC
330
1F
100
AcDbEntity
  8
0
  6
Continuous
100
AcDbCircle
 10
-2.437388807029826
 20
3.474300461042335
 30
0.0
 40
0.1250000000000142
100
AcDbArc
 50
180.0
 51
270.0000000000065
  0
LINE
  5
7ED
330
1F
100
AcDbEntity
  8
0
  6
Continuous
100
AcDbLine
 10
-2.562388807029812
 20
4.099300461042313
 30
0.0
 11
-2.562388807029841
 21
3.474300461042327
 31
0.0
  0
LINE
  5
7EE
330
1F
100
AcDbEntity
  8
0
  6
Continuous
100
AcDbLine
 10
-2.562388807029841
 20
5.849300461042429
 30
0.0
 11
-2.562388807029841
 21
5.224300461042315
 31
0.0
  0
LINE
  5
7EF
330
1F
100
AcDbEntity
  8
0
100
AcDbLine
 10
-2.562388807029862
 20
7.156249999999869
 30
0.0
 11
-2.562388807029869
 21
6.974300461042386
 31
0.0
  0
LINE
  5
7F0
330
1F
100
AcDbEntity
  8
0
  6
Continuous
100
AcDbLine
 10
-1.956995588216429
 20
1.367378112409851
 30
0.0
 11
-0.937388807029869
 21
0.2817093948483969
 31
0.0
  0
LINE
  5
7F1
330
1F
100
AcDbEntity
  8
0
100
AcDbLine
 10
-0.937388807029869
 20
0.125
 30
0.0
 11
-0.9373888070298726
 21
7.156249999999876
 31
0.0
  0
LINE
  5
7F2
330
1F
100
AcDbEntity
  8
0
100
AcDbLine
 10
-0.874888807029869
 20
0.1250000000000071
 30
0.0
 11
-0.8748888070298726
 21
7.156249999999879
 31
0.0
  0
LINE
  5
7F3
330
1F
100
AcDbEntity
  8
0
100
AcDbLine
 10
2.500111192970131
 20
0.1249999999999982
 30
0.0
 11
2.500111192970127
 21
7.156249999999876
 31
0.0
  0
LINE
  5
7F4
330
1F
100
AcDbEntity
  8
0
100
AcDbLine
 10
2.437611192970131
 20
0.1250000000000053
 30
0.0
 11
2.437611192970131
 21
7.156249999999876
 31
0.0
  0
LINE
  5
7F5
330
1F
100
AcDbEntity
  8
0
100
AcDbLine
 10
2.375111192970131
 20
0.0625000000000053
 30
0.0
 11
-0.812388807029869
 21
0.0625000000000071
 31
0.0
  0
LINE
  5
7F6
330
1F
100
AcDbEntity
  8
0
100
AcDbLine
 10
2.375111192970131
 20
-0.0000000000000018
 30
0.0
 11
-0.812388807029869
 21
0.0
 31
0.0
  0
ARC
  5
7F7
330
1F
100
AcDbEntity
  8
0
100
AcDbCircle
 10
-0.812388807029869
 20
0.125
 30
0.0
 40
0.125
100
AcDbArc
 50
180.0
 51
269.9999999999999
  0
ARC
  5
7F8
330
1F
100
AcDbEntity
  8
0
100
AcDbCircle
 10
-0.812388807029869
 20
0.1250000000000071
 30
0.0
 40
0.0625
100
AcDbArc
 50
180.0
 51
269.9999999999998
  0
ARC
  5
7F9
330
1F
100
AcDbEntity
  8
0
100
AcDbCircle
 10
2.375111192970131
 20
0.1249999999999982
 30
0.0
 40
0.125
100
AcDbArc
 50
270.0
 51
0.0
  0
ARC
  5
7FA
330
1F
100
AcDbEntity
  8
0
100
AcDbCircle
 10
2.375111192970131
 20
0.1250000000000053
 30
0.0
 40
0.0625
100
AcDbArc
 50
270.0000000000002
 51
0.0
  0
LINE
  5
7FB
330
1F
100
AcDbEntity
  8
0
  6
Continuous
100
AcDbLine
 10
-0.9373888070298726
 20
5.05525286352874
 30
0.0
 11
-1.096355754758186
 21
4.957336507031226
 31
0.0
  0
ARC
  5
7FC
330
1F
100
AcDbEntity
  8
0
  6
Continuous
100
AcDbCircle
 10
-2.374888807029826
 20
4.974300461042308
 30
0.0
 40
0.1250000000000142
100
AcDbArc
 50
0.0000000000065138
 51
90.00000000000651
  0
LINE
  5
7FD
330
1F
100
AcDbEntity
  8
0
  6
Continuous
100
AcDbLine
 10
-0.9373888070298726
 20
4.757247136470991
 30
0.0
 11
-1.096355754758186
 21
4.855163492968526
 31
0.0
  0
LINE
  5
7FE
330
1F
100
AcDbEntity
  8
0
  6
Continuous
100
AcDbLine
 10
-0.9373888070298726
 20
3.555252863528741
 30
0.0
 11
-1.096355754758186
 21
3.457336507031224
 31
0.0
  0
LINE
  5
7FF
330
1F
100
AcDbEntity
  8
0
  6
Continuous
100
AcDbLine
 10
-0.9373888070298726
 20
3.257247136470992
 30
0.0
 11
-1.096355754758186
 21
3.355163492968524
 31
0.0
  0
LINE
  5
800
330
1F
100
AcDbEntity
  8
0
  6
Continuous
100
AcDbLine
 10
-2.249888807029805
 20
3.224300461042299
 30
0.0
 11
-2.249888807029844
 21
2.074484893596424
 31
0.0
  0
CIRCLE
  5
801
330
1F
100
AcDbEntity
  8
0
  6
Continuous
100
AcDbCircle
 10
-1.843638807029855
 20
2.64162499999985
 30
0.0
 40
0.0855
  0
CIRCLE
  5
802
330
1F
100
AcDbEntity
  8
0
  6
Continuous
100
AcDbCircle
 10
-1.843638807029855
 20
1.64162499999985
 30
0.0
 40
0.0855
  0
ARC
  5
803
330
1F
100
AcDbEntity
  8
0
  6
Continuous
100
AcDbCircle
 10
-1.249888807029869
 20
2.074484893596386
 30
0.0
 40
1.0
100
AcDbArc
 50
179.9999999999976
 51
224.999999999999
  0
CIRCLE
  5
804
330
1F
100
AcDbEntity
  8
0
  6
Continuous
100
AcDbCircle
 10
-1.374888807029855
 20
1.14162499999985
 30
0.0
 40
0.0855
  0
CIRCLE
  5
805
330
1F
100
AcDbEntity
  8
0
  6
Continuous
100
AcDbCircle
 10
-1.374888807029855
 20
2.14162499999985
 30
0.0
 40
0.0855
  0
CIRCLE
  5
806
330
1F
100
AcDbEntity
  8
0
  6
Continuous
100
AcDbCircle
 10
-1.843638807029855
 20
4.641624999999852
 30
0.0
 40
0.0855
  0
CIRCLE
  5
807
330
1F
100
AcDbEntity
  8
0
  6
Continuous
100
AcDbCircle
 10
-1.843638807029855
 20
3.64162499999985
 30
0.0
 40
0.0855
  0
CIRCLE
  5
808
330
1F
100
AcDbEntity
  8
0
  6
Continuous
100
AcDbCircle
 10
-2.281138807029862
 20
3.937499999999931
 30
0.0
 40
0.0855
  0
ARC
  5
809
330
1F
100
AcDbEntity
  8
0
  6
Continuous
100
AcDbCircle
 10
-2.374888807029819
 20
3.224300461042306
 30
0.0
 40
0.1250000000000142
100
AcDbArc
 50
0.0
 51
90.00000000000978
  0
LINE
  5
80A
330
1F
100
AcDbEntity
  8
0
  6
Continuous
100
AcDbLine
 10
-2.437388807029812
 20
3.349300461042313
 30
0.0
 11
-2.374888807029841
 21
3.349300461042313
 31
0.0
  0
LINE
  5
80B
330
1F
100
AcDbEntity
  8
0
  6
Continuous
100
AcDbLine
 10
-2.249888807029812
 20
4.974300461042315
 30
0.0
 11
-2.249888807029841
 21
4.349300461042313
 31
0.0
  0
ARC
  5
80C
330
1F
100
AcDbEntity
  8
0
  6
Continuous
100
AcDbCircle
 10
-2.374888807029826
 20
4.349300461042306
 30
0.0
 40
0.1249999999999858
100
AcDbArc
 50
270.0000000000065
 51
0.0000000000065138
  0
LINE
  5
80D
330
1F
100
AcDbEntity
  8
0
  6
Continuous
100
AcDbLine
 10
-2.374888807029812
 20
4.224300461042313
 30
0.0
 11
-2.437388807029841
 21
4.224300461042313
 31
0.0
  0
CIRCLE
  5
80E
330
1F
100
AcDbEntity
  8
0
  6
Continuous
100
AcDbCircle
 10
-1.374888807029855
 20
3.14162499999985
 30
0.0
 40
0.0855
  0
ARC
  5
80F
330
1F
100
AcDbEntity
  8
0
  6
Continuous
100
AcDbCircle
 10
-1.064888807029888
 20
3.406249999999874
 30
0.0
 40
0.06
100
AcDbArc
 50
121.6311662755239
 51
238.368833724476
  0
CIRCLE
  5
810
330
1F
100
AcDbEntity
  8
0
  6
Continuous
100
AcDbCircle
 10
-1.374888807029855
 20
4.140624999999874
 30
0.0
 40
0.0855
  0
ARC
  5
811
330
1F
100
AcDbEntity
  8
0
  6
Continuous
100
AcDbCircle
 10
-1.064888807029888
 20
4.906249999999876
 30
0.0
 40
0.06
100
AcDbArc
 50
121.6311662755239
 51
238.368833724476
  0
ARC
  5
812
330
1F
100
AcDbEntity
  8
0
  6
Continuous
100
AcDbCircle
 10
-0.8748888070298548
 20
2.64162499999985
 30
0.0
 40
0.1875
100
AcDbArc
 50
109.4712206344954
 51
250.5287793655046
  0
LINE
  5
813
330
1F
100
AcDbEntity
  8
0
  6
Continuous
100
AcDbLine
 10
-0.9373888070298726
 20
6.64900286352874
 30
0.0
 11
-1.096355754758186
 21
6.551086507031226
 31
0.0
  0
LINE
  5
814
330
1F
100
AcDbEntity
  8
0
  6
Continuous
100
AcDbLine
 10
-0.9373888070298726
 20
6.350997136470991
 30
0.0
 11
-1.096355754758186
 21
6.448913492968526
 31
0.0
  0
CIRCLE
  5
815
330
1F
100
AcDbEntity
  8
0
100
AcDbCircle
 10
-1.843638807029848
 20
6.360374999999845
 30
0.0
 40
0.0855
  0
LINE
  5
816
330
1F
100
AcDbEntity
  8
0
100
AcDbLine
 10
-2.249888807029848
 20
6.724300461042358
 30
0.0
 11
-2.249888807029869
 21
6.099300461042372
 31
0.0
  0
LINE
  5
817
330
1F
100
AcDbEntity
  8
0
  6
Continuous
100
AcDbLine
 10
-2.437388807029812
 20
5.099300461042315
 30
0.0
 11
-2.374888807029841
 21
5.099300461042315
 31
0.0
  0
ARC
  5
818
330
1F
100
AcDbEntity
  8
0
100
AcDbCircle
 10
-2.374888807029826
 20
6.099300461042386
 30
0.0
 40
0.1249999999999574
100
AcDbArc
 50
269.9999999999935
 51
359.9999999999935
  0
CIRCLE
  5
819
330
1F
100
AcDbEntity
  8
0
100
AcDbCircle
 10
-2.281138807029862
 20
5.687499999999869
 30
0.0
 40
0.0855
  0
LINE
  5
81A
330
1F
100
AcDbEntity
  8
0
100
AcDbLine
 10
-2.374888807029841
 20
5.974300461042429
 30
0.0
 11
-2.437388807029869
 21
5.974300461042372
 31
0.0
  0
ARC
  5
81B
330
1F
100
AcDbEntity
  8
0
100
AcDbCircle
 10
-2.374888807029862
 20
6.724300461042358
 30
0.0
 40
0.1250000000000107
100
AcDbArc
 50
359.9999999999984
 51
90.00000000000325
  0
LINE
  5
81C
330
1F
100
AcDbEntity
  8
0
100
AcDbLine
 10
-2.437388807029841
 20
6.849300461042372
 30
0.0
 11
-2.374888807029869
 21
6.849300461042372
 31
0.0
  0
CIRCLE
  5
81D
330
1F
100
AcDbEntity
  8
0
  6
Continuous
100
AcDbCircle
 10
-1.374888807029855
 20
5.140624999999876
 30
0.0
 40
0.0855
  0
CIRCLE
  5
81E
330
1F
100
AcDbEntity
  8
0
100
AcDbCircle
 10
-1.374888807029848
 20
6.859374999999869
 30
0.0
 40
0.0855
  0
ARC
  5
81F
330
1F
100
AcDbEntity
  8
0
  6
Continuous
100
AcDbCircle
 10
-1.064888807029888
 20
6.499999999999876
 30
0.0
 40
0.06
100
AcDbArc
 50
121.6311662755239
 51
238.368833724476
  0
LINE
  5
820
330
1F
100
AcDbEntity
  8
0
  6
Continuous
100
AcDbLine
 10
2.500111192970135
 20
5.05525286352874
 30
0.0
 11
2.659078140698448
 21
4.957336507031222
 31
0.0
  0
CIRCLE
  5
821
330
1F
100
AcDbEntity
  8
0
  6
Continuous
100
AcDbCircle
 10
2.937611192970117
 20
1.141624999999849
 30
0.0
 40
0.0855
  0
ARC
  5
822
330
1F
100
AcDbEntity
  8
0
  6
Continuous
100
AcDbCircle
 10
2.437611192970117
 20
2.641624999999849
 30
0.0
 40
0.1875
100
AcDbArc
 50
289.4712206344954
 51
70.52877936550463
  0
CIRCLE
  5
823
330
1F
100
AcDbEntity
  8
0
  6
Continuous
100
AcDbCircle
 10
2.937611192970117
 20
2.141624999999849
 30
0.0
 40
0.0855
  0
ARC
  5
824
330
1F
100
AcDbEntity
  8
0
  6
Continuous
100
AcDbCircle
 10
2.62761119297015
 20
3.406249999999872
 30
0.0
 40
0.06
100
AcDbArc
 50
301.631166275524
 51
58.36883372447602
  0
LINE
  5
825
330
1F
100
AcDbEntity
  8
0
  6
Continuous
100
AcDbLine
 10
2.500111192970135
 20
3.257247136470991
 30
0.0
 11
2.659078140698448
 21
3.355163492968522
 31
0.0
  0
LINE
  5
826
330
1F
100
AcDbEntity
  8
0
  6
Continuous
100
AcDbLine
 10
2.500111192970135
 20
3.55525286352874
 30
0.0
 11
2.659078140698448
 21
3.457336507031222
 31
0.0
  0
CIRCLE
  5
827
330
1F
100
AcDbEntity
  8
0
  6
Continuous
100
AcDbCircle
 10
2.937611192970117
 20
3.141624999999849
 30
0.0
 40
0.0855
  0
LINE
  5
828
330
1F
100
AcDbEntity
  8
0
  6
Continuous
100
AcDbLine
 10
2.500111192970135
 20
4.757247136470991
 30
0.0
 11
2.659078140698448
 21
4.855163492968522
 31
0.0
  0
ARC
  5
829
330
1F
100
AcDbEntity
  8
0
  6
Continuous
100
AcDbCircle
 10
2.62761119297015
 20
4.906249999999872
 30
0.0
 40
0.06
100
AcDbArc
 50
301.631166275524
 51
58.36883372447602
  0
CIRCLE
  5
82A
330
1F
100
AcDbEntity
  8
0
  6
Continuous
100
AcDbCircle
 10
2.937611192970117
 20
4.140624999999872
 30
0.0
 40
0.0855
  0
CIRCLE
  5
82B
330
1F
100
AcDbEntity
  8
0
  6
Continuous
100
AcDbCircle
 10
2.937611192970117
 20
5.140624999999872
 30
0.0
 40
0.0855
  0
LINE
  5
82C
330
1F
100
AcDbEntity
  8
0
  6
Continuous
100
AcDbLine
 10
2.500111192970135
 20
6.64900286352874
 30
0.0
 11
2.659078140698448
 21
6.551086507031226
 31
0.0
  0
LINE
  5
82D
330
1F
100
AcDbEntity
  8
0
  6
Continuous
100
AcDbLine
 10
2.500111192970135
 20
6.350997136470991
 30
0.0
 11
2.659078140698448
 21
6.448913492968526
 31
0.0
  0
ARC
  5
82E
330
1F
100
AcDbEntity
  8
0
  6
Continuous
100
AcDbCircle
 10
2.62761119297015
 20
6.499999999999876
 30
0.0
 40
0.06
100
AcDbArc
 50
301.631166275524
 51
58.36883372447602
  0
CIRCLE
  5
82F
330
1F
100
AcDbEntity
  8
0
100
AcDbCircle
 10
2.93761119297011
 20
6.859374999999869
 30
0.0
 40
0.0855
  0
ARC
  5
830
330
1F
100
AcDbEntity
  8
0
  6
Continuous
100
AcDbCircle
 10
3.937611192970088
 20
4.974300461042304
 30
0.0
 40
0.1250000000000142
100
AcDbArc
 50
89.99999999999349
 51
179.9999999999935
  0
LINE
  5
831
330
1F
100
AcDbEntity
  8
0
  6
Continuous
100
AcDbLine
 10
3.812611192970067
 20
3.224300461042297
 30
0.0
 11
3.812611192970113
 21
2.074484893596424
 31
0.0
  0
ARC
  5
832
330
1F
100
AcDbEntity
  8
0
  6
Continuous
100
AcDbCircle
 10
2.81261119297011
 20
2.074484893596386
 30
0.0
 40
1.0
100
AcDbArc
 50
315.000000000001
 51
0.0000000000024427
  0
CIRCLE
  5
833
330
1F
100
AcDbEntity
  8
0
  6
Continuous
100
AcDbCircle
 10
3.406361192970117
 20
1.641624999999849
 30
0.0
 40
0.0855
  0
CIRCLE
  5
834
330
1F
100
AcDbEntity
  8
0
  6
Continuous
100
AcDbCircle
 10
3.406361192970117
 20
2.641624999999849
 30
0.0
 40
0.0855
  0
ARC
  5
835
330
1F
100
AcDbEntity
  8
0
  6
Continuous
100
AcDbCircle
 10
3.937611192970088
 20
4.349300461042304
 30
0.0
 40
0.1249999999999858
100
AcDbArc
 50
179.9999999999935
 51
269.9999999999935
  0
CIRCLE
  5
836
330
1F
100
AcDbEntity
  8
0
  6
Continuous
100
AcDbCircle
 10
3.843861192970124
 20
3.937499999999929
 30
0.0
 40
0.0855
  0
ARC
  5
837
330
1F
100
AcDbEntity
  8
0
  6
Continuous
100
AcDbCircle
 10
3.937611192970081
 20
3.224300461042304
 30
0.0
 40
0.1250000000000142
100
AcDbArc
 50
89.99999999999022
 51
180.0
  0
CIRCLE
  5
838
330
1F
100
AcDbEntity
  8
0
  6
Continuous
100
AcDbCircle
 10
3.406361192970117
 20
3.641624999999849
 30
0.0
 40
0.0855
  0
CIRCLE
  5
839
330
1F
100
AcDbEntity
  8
0
  6
Continuous
100
AcDbCircle
 10
3.406361192970117
 20
4.641624999999849
 30
0.0
 40
0.0855
  0
LINE
  5
83A
330
1F
100
AcDbEntity
  8
0
  6
Continuous
100
AcDbLine
 10
3.812611192970074
 20
4.974300461042311
 30
0.0
 11
3.812611192970103
 21
4.349300461042311
 31
0.0
  0
LINE
  5
83B
330
1F
100
AcDbEntity
  8
0
  6
Continuous
100
AcDbLine
 10
4.125111192970074
 20
4.099300461042311
 30
0.0
 11
4.125111192970103
 21
3.474300461042326
 31
0.0
  0
ARC
  5
83C
330
1F
100
AcDbEntity
  8
0
  6
Continuous
100
AcDbCircle
 10
4.000111192970088
 20
3.474300461042333
 30
0.0
 40
0.1250000000000142
100
AcDbArc
 50
269.9999999999935
 51
0.0
  0
LINE
  5
83D
330
1F
100
AcDbEntity
  8
0
  6
Continuous
100
AcDbLine
 10
4.000111192970074
 20
3.349300461042311
 30
0.0
 11
3.937611192970103
 21
3.349300461042311
 31
0.0
  0
ARC
  5
83E
330
1F
100
AcDbEntity
  8
0
  6
Continuous
100
AcDbCircle
 10
4.000111192970088
 20
4.099300461042333
 30
0.0
 40
0.1249999999999858
100
AcDbArc
 50
359.9999999999934
 51
89.99999999999349
  0
LINE
  5
83F
330
1F
100
AcDbEntity
  8
0
  6
Continuous
100
AcDbLine
 10
3.937611192970074
 20
4.224300461042311
 30
0.0
 11
4.000111192970103
 21
4.224300461042311
 31
0.0
  0
ARC
  5
840
330
1F
100
AcDbEntity
  8
0
100
AcDbCircle
 10
3.937611192970124
 20
6.724300461042358
 30
0.0
 40
0.1250000000000107
100
AcDbArc
 50
89.99999999999675
 51
180.0000000000016
  0
ARC
  5
841
330
1F
100
AcDbEntity
  8
0
100
AcDbCircle
 10
3.937611192970088
 20
6.099300461042386
 30
0.0
 40
0.1249999999999574
100
AcDbArc
 50
180.0000000000065
 51
270.0000000000065
  0
CIRCLE
  5
842
330
1F
100
AcDbEntity
  8
0
100
AcDbCircle
 10
3.843861192970124
 20
5.687499999999869
 30
0.0
 40
0.0855
  0
LINE
  5
843
330
1F
100
AcDbEntity
  8
0
100
AcDbLine
 10
3.81261119297011
 20
6.724300461042358
 30
0.0
 11
3.812611192970131
 21
6.099300461042372
 31
0.0
  0
CIRCLE
  5
844
330
1F
100
AcDbEntity
  8
0
100
AcDbCircle
 10
3.40636119297011
 20
6.360374999999845
 30
0.0
 40
0.0855
  0
LINE
  5
845
330
1F
100
AcDbEntity
  8
0
  6
Continuous
100
AcDbLine
 10
4.125111192970103
 20
5.849300461042429
 30
0.0
 11
4.125111192970103
 21
5.224300461042311
 31
0.0
  0
ARC
  5
846
330
1F
100
AcDbEntity
  8
0
  6
Continuous
100
AcDbCircle
 10
4.000111192970088
 20
5.224300461042333
 30
0.0
 40
0.1250000000000142
100
AcDbArc
 50
269.9999999999935
 51
359.9999999999934
  0
LINE
  5
847
330
1F
100
AcDbEntity
  8
0
  6
Continuous
100
AcDbLine
 10
4.000111192970074
 20
5.099300461042311
 30
0.0
 11
3.937611192970103
 21
5.099300461042311
 31
0.0
  0
ARC
  5
848
330
1F
100
AcDbEntity
  8
0
100
AcDbCircle
 10
4.000111192970145
 20
5.849300461042414
 30
0.0
 40
0.1249999999999574
100
AcDbArc
 50
0.0000000000065138
 51
90.00000000000651
  0
LINE
  5
849
330
1F
100
AcDbEntity
  8
0
100
AcDbLine
 10
3.937611192970103
 20
5.974300461042429
 30
0.0
 11
4.000111192970131
 21
5.974300461042372
 31
0.0
  0
ARC
  5
84A
330
1F
100
AcDbEntity
  8
0
100
AcDbCircle
 10
4.000111192970117
 20
6.974300461042386
 30
0.0
 40
0.1250000000000142
100
AcDbArc
 50
269.9999999999935
 51
0.0
  0
LINE
  5
84B
330
1F
100
AcDbEntity
  8
0
100
AcDbLine
 10
4.000111192970103
 20
6.849300461042372
 30
0.0
 11
3.937611192970131
 21
6.849300461042372
 31
0.0
  0
LINE
  5
84C
330
1F
100
AcDbEntity
  8
0
100
AcDbLine
 10
4.125111192970124
 20
7.156249999999869
 30
0.0
 11
4.125111192970131
 21
6.974300461042386
 31
0.0
  0
ENDSEC
  0
SECTION
  2
OBJECTS
  0
DICTIONARY
  5
C
330
0
100
AcDbDictionary
281
     1
  3
ACAD_COLOR
350
995
  3
ACAD_GROUP
350
D
  3
ACAD_LAYOUT
350
1A
  3
ACAD_MATERIAL
350
994
  3
ACAD_MLINESTYLE
350
17
  3
ACAD_PLOTSETTINGS
350
19
  3
ACAD_PLOTSTYLENAME
350
E
  3
ACAD_TABLESTYLE
350
996
  3
ACDBHEADERROUNDTRIPXREC
350
9C5
  3
AcDbVariableDictionary
350
C0
  0
DICTIONARY
  5
995
102
{ACAD_REACTORS
330
C
102
}
330
C
100
AcDbDictionary
281
     1
  0
DICTIONARY
  5
D
102
{ACAD_REACTORS
330
C
102
}
330
C
100
AcDbDictionary
281
     1
  0
DICTIONARY
  5
1A
102
{ACAD_REACTORS
330
C
102
}
330
C
100
AcDbDictionary
281
     1
  3
Layout1
350
1E
  3
Layout2
350
26
  3
Model
350
22
  0
DICTIONARY
  5
994
102
{ACAD_REACTORS
330
C
102
}
330
C
100
AcDbDictionary
281
     1
  0
DICTIONARY
  5
17
102
{ACAD_REACTORS
330
C
102
}
330
C
100
AcDbDictionary
281
     1
  3
Standard
350
18
  0
DICTIONARY
  5
19
102
{ACAD_REACTORS
330
C
102
}
330
C
100
AcDbDictionary
281
     1
  0
ACDBDICTIONARYWDFLT
  5
E
102
{ACAD_REACTORS
330
C
102
}
330
C
100
AcDbDictionary
281
     1
  3
Normal
350
F
100
AcDbDictionaryWithDefault
340
F
  0
DICTIONARY
  5
996
102
{ACAD_REACTORS
330
C
102
}
330
C
100
AcDbDictionary
281
     1
  3
Standard
350
997
  0
DICTIONARY
  5
9C5
102
{ACAD_REACTORS
330
C
102
}
330
C
100
AcDbDictionary
281
     1
  3
COLORDICT
350
9C6
  3
MATERIALDICT
350
9C7
  0
DICTIONARY
  5
C0
102
{ACAD_REACTORS
330
C
102
}
330
C
100
AcDbDictionary
281
     1
  3
CTABLESTYLE
350
9C3
  3
DIMASSOC
350
C2
  3
HIDETEXT
350
C1
  0
LAYOUT
  5
1E
102
{ACAD_REACTORS
330
1A
102
}
102
{ACAD_XDICTIONARY
360
9C8
102
}
330
1A
100
AcDbPlotSettings
  1

  2
X:\Program Files\AutoCAD2002\plotters\DWF ePlot (optimized for plotting).pc3
  4

  6

 40
0.0
 41
0.0
 42
0.0
 43
0.0
 44
0.0
 45
0.0
 46
0.0
 47
0.0
 48
0.0
 49
0.0
140
0.0
141
0.0
142
1.0
143
1.0
 70
   688
 72
     0
 73
     0
 74
     5
  7

 75
    16
147
1.0
148
0.0
149
0.0
100
AcDbLayout
  1
Layout1
 70
     1
 71
     1
 10
0.0
 20
0.0
 11
12.0
 21
9.0
 12
0.0
 22
0.0
 32
0.0
 14
1.000000000000000E+20
 24
1.000000000000000E+20
 34
1.000000000000000E+20
 15
-1.000000000000000E+20
 25
-1.000000000000000E+20
 35
-1.000000000000000E+20
146
0.0
 13
0.0
 23
0.0
 33
0.0
 16
1.0
 26
0.0
 36
0.0
 17
0.0
 27
1.0
 37
0.0
 76
     0
330
1B
  0
LAYOUT
  5
26
102
{ACAD_REACTORS
330
1A
102
}
102
{ACAD_XDICTIONARY
360
9CA
102
}
330
1A
100
AcDbPlotSettings
  1

  2
X:\Program Files\AutoCAD2002\plotters\DWF ePlot (optimized for plotting).pc3
  4

  6

 40
0.0
 41
0.0
 42
0.0
 43
0.0
 44
0.0
 45
0.0
 46
0.0
 47
0.0
 48
0.0
 49
0.0
140
0.0
141
0.0
142
1.0
143
1.0
 70
   688
 72
     0
 73
     0
 74
     5
  7

 75
    16
147
1.0
148
0.0
149
0.0
100
AcDbLayout
  1
Layout2
 70
     1
 71
     2
 10
0.0
 20
0.0
 11
12.0
 21
9.0
 12
0.0
 22
0.0
 32
0.0
 14
0.0
 24
0.0
 34
0.0
 15
0.0
 25
0.0
 35
0.0
146
0.0
 13
0.0
 23
0.0
 33
0.0
 16
1.0
 26
0.0
 36
0.0
 17
0.0
 27
1.0
 37
0.0
 76
     0
330
23
  0
LAYOUT
  5
22
102
{ACAD_REACTORS
330
1A
102
}
102
{ACAD_XDICTIONARY
360
9CC
102
}
330
1A
100
AcDbPlotSettings
  1

  2
X:\Program Files\AutoCAD2002\plotters\DWF ePlot (optimized for plotting).pc3
  4

  6

 40
0.0
 41
0.0
 42
0.0
 43
0.0
 44
0.0
 45
0.0
 46
0.0
 47
0.0
 48
0.0
 49
0.0
140
0.0
141
0.0
142
1.0
143
1.0
 70
  1712
 72
     0
 73
     0
 74
     0
  7

 75
     0
147
1.0
148
0.0
149
0.0
100
AcDbLayout
  1
Model
 70
     1
 71
     0
 10
0.0
 20
0.0
 11
12.0
 21
9.0
 12
0.0
 22
0.0
 32
0.0
 14
0.0
 24
0.0
 34
0.0
 15
0.0
 25
0.0
 35
0.0
146
0.0
 13
0.0
 23
0.0
 33
0.0
 16
1.0
 26
0.0
 36
0.0
 17
0.0
 27
1.0
 37
0.0
 76
     0
330
1F
  0
MLINESTYLE
  5
18
102
{ACAD_REACTORS
330
17
102
}
330
17
100
AcDbMlineStyle
  2
STANDARD
 70
     0
  3

 62
   256
 51
90.0
 52
90.0
 71
     2
 49
0.5
 62
   256
  6
BYLAYER
 49
-0.5
 62
   256
  6
BYLAYER
  0
ACDBPLACEHOLDER
  5
F
102
{ACAD_REACTORS
330
E
102
}
330
E
  0
ACAD_PROXY_OBJECT
  5
997
102
{ACAD_REACTORS
330
996
102
}
330
996
100
AcDbProxyObject
 90
      499
 91
      504
 95
   983063
 70
     0
 93
     1841
310
4214DD185B99185C9928B81E85EB51B8AE3F2E07A17AD46E2B8FC02B5E8DC0F42B1CFD028000000C1008070000C3001FDFF8000000C1003FBFF000000182007F7FE00000030400FEFFC00000060801FDFF8000000C1003FBFF00000018200000000000000681FA0B0000001820100E000186003FBFF000000182007F7FE000
310
00030400FEFFC00000060801FDFF8000000C1003FBFF000000182007F7FE000000304000AD7A3703D0AC73F4160000003040201C00030C007F7FE00000030400FEFFC00000060801FDFF8000000C1003FBFF000000182007F7FE00000030400FEFFC000000608000
340
11
340
11
340
11
 94
        0
  0
XRECORD
  5
9C6
102
{ACAD_REACTORS
330
9C5
102
}
330
9C5
100
AcDbXrecord
340
995
  0
XRECORD
  5
9C7
102
{ACAD_REACTORS
330
9C5
102
}
330
9C5
100
AcDbXrecord
340
994
  0
DICTIONARYVAR
  5
9C3
102
{ACAD_REACTORS
330
C0
102
}
330
C0
100
DictionaryVariables
280
     0
  1
STANDARD
  0
DICTIONARYVAR
  5
C2
102
{ACAD_REACTORS
330
C0
102
}
330
C0
100
DictionaryVariables
280
     0
  1
2
  0
DICTIONARYVAR
  5
C1
102
{ACAD_REACTORS
330
C0
102
}
330
C0
100
DictionaryVariables
280
     0
  1
1
  0
DICTIONARY
  5
9C8
330
1E
100
AcDbDictionary
280
     1
281
     1
  3
ACAD_XREC_ROUNDTRIP
360
9C9
  0
DICTIONARY
  5
9CA
330
26
100
AcDbDictionary
280
     1
281
     1
  3
ACAD_XREC_ROUNDTRIP
360
9CB
  0
DICTIONARY
  5
9CC
330
22
100
AcDbDictionary
280
     1
281
     1
  3
ACAD_XREC_ROUNDTRIP
360
9CD
  0
XRECORD
  5
9C9
102
{ACAD_REACTORS
330
9C8
102
}
330
9C8
100
AcDbXrecord
102
SHADEPLOT
 70
     0
102
SHADEPLOTRESLEVEL
 70
     2
102
SHADEPLOTCUSTOMDPI
 70
   300
  0
XRECORD
  5
9CB
102
{ACAD_REACTORS
330
9CA
102
}
330
9CA
100
AcDbXrecord
102
SHADEPLOT
 70
     0
102
SHADEPLOTRESLEVEL
 70
     2
102
SHADEPLOTCUSTOMDPI
 70
   300
  0
XRECORD
  5
9CD
102
{ACAD_REACTORS
330
9CC
102
}
330
9CC
100
AcDbXrecord
102
SHADEPLOT
 70
     0
102
SHADEPLOTRESLEVEL
 70
     2
102
SHADEPLOTCUSTOMDPI
 70
   300
  0
ENDSEC
  0
EOF
