  0
SECTION
  2
HEADER
  9
$ACADVER
  1
AC1015
  9
$ACADMAINTVER
 70
     6
  9
$DWGCODEPAGE
  3
ANSI_1252
  9
$INSBASE
 10
0.0
 20
0.0
 30
0.0
  9
$EXTMIN
 10
0.0140243323756776
 20
-0.0258883476483202
 30
0.0
  9
$EXTMAX
 10
20.80998861682037
 20
13.75899063071069
 30
0.0
  9
$LIMMIN
 10
0.0
 20
0.0
  9
$LIMMAX
 10
12.0
 20
9.0
  9
$ORTHOMODE
 70
     1
  9
$REGENMODE
 70
     1
  9
$FILLMODE
 70
     1
  9
$QTEXTMODE
 70
     0
  9
$MIRRTEXT
 70
     1
  9
$LTSCALE
 40
1.0
  9
$ATTMODE
 70
     1
  9
$TEXTSIZE
 40
0.2
  9
$TRACEWID
 40
0.05
  9
$TEXTSTYLE
  7
Standard
  9
$CLAYER
  8
0
  9
$CELTYPE
  6
ByLayer
  9
$CECOLOR
 62
   256
  9
$CELTSCALE
 40
1.0
  9
$DISPSILH
 70
     0
  9
$DIMSCALE
 40
1.0
  9
$DIMASZ
 40
0.18
  9
$DIMEXO
 40
0.0625
  9
$DIMDLI
 40
0.38
  9
$DIMRND
 40
0.0
  9
$DIMDLE
 40
0.0
  9
$DIMEXE
 40
0.18
  9
$DIMTP
 40
0.0
  9
$DIMTM
 40
0.0
  9
$DIMTXT
 40
0.18
  9
$DIMCEN
 40
0.09
  9
$DIMTSZ
 40
0.0
  9
$DIMTOL
 70
     0
  9
$DIMLIM
 70
     0
  9
$DIMTIH
 70
     1
  9
$DIMTOH
 70
     1
  9
$DIMSE1
 70
     0
  9
$DIMSE2
 70
     0
  9
$DIMTAD
 70
     0
  9
$DIMZIN
 70
     0
  9
$DIMBLK
  1

  9
$DIMASO
 70
     1
  9
$DIMSHO
 70
     1
  9
$DIMPOST
  1

  9
$DIMAPOST
  1

  9
$DIMALT
 70
     0
  9
$DIMALTD
 70
     2
  9
$DIMALTF
 40
25.4
  9
$DIMLFAC
 40
1.0
  9
$DIMTOFL
 70
     0
  9
$DIMTVP
 40
0.0
  9
$DIMTIX
 70
     0
  9
$DIMSOXD
 70
     0
  9
$DIMSAH
 70
     0
  9
$DIMBLK1
  1

  9
$DIMBLK2
  1

  9
$DIMSTYLE
  2
Standard
  9
$DIMCLRD
 70
     0
  9
$DIMCLRE
 70
     0
  9
$DIMCLRT
 70
     0
  9
$DIMTFAC
 40
1.0
  9
$DIMGAP
 40
0.09
  9
$DIMJUST
 70
     0
  9
$DIMSD1
 70
     0
  9
$DIMSD2
 70
     0
  9
$DIMTOLJ
 70
     1
  9
$DIMTZIN
 70
     0
  9
$DIMALTZ
 70
     0
  9
$DIMALTTZ
 70
     0
  9
$DIMUPT
 70
     0
  9
$DIMDEC
 70
     4
  9
$DIMTDEC
 70
     4
  9
$DIMALTU
 70
     2
  9
$DIMALTTD
 70
     2
  9
$DIMTXSTY
  7
Standard
  9
$DIMAUNIT
 70
     0
  9
$DIMADEC
 70
     0
  9
$DIMALTRND
 40
0.0
  9
$DIMAZIN
 70
     0
  9
$DIMDSEP
 70
    46
  9
$DIMATFIT
 70
     3
  9
$DIMFRAC
 70
     0
  9
$DIMLDRBLK
  1

  9
$DIMLUNIT
 70
     2
  9
$DIMLWD
 70
    -2
  9
$DIMLWE
 70
    -2
  9
$DIMTMOVE
 70
     0
  9
$LUNITS
 70
     2
  9
$LUPREC
 70
     4
  9
$SKETCHINC
 40
0.1
  9
$FILLETRAD
 40
0.5
  9
$AUNITS
 70
     0
  9
$AUPREC
 70
     0
  9
$MENU
  1
.
  9
$ELEVATION
 40
0.0
  9
$PELEVATION
 40
0.0
  9
$THICKNESS
 40
0.0
  9
$LIMCHECK
 70
     0
  9
$CHAMFERA
 40
0.5
  9
$CHAMFERB
 40
0.5
  9
$CHAMFERC
 40
1.0
  9
$CHAMFERD
 40
0.0
  9
$SKPOLY
 70
     0
  9
$TDCREATE
 40
2453423.550611007
  9
$TDUCREATE
 40
2453423.88394434
  9
$TDUPDATE
 40
2454165.794696563
  9
$TDUUPDATE
 40
2454166.128029896
  9
$TDINDWG
 40
0.0151261921
  9
$TDUSRTIMER
 40
0.0151261921
  9
$USRTIMER
 70
     1
  9
$ANGBASE
 50
0.0
  9
$ANGDIR
 70
     0
  9
$PDMODE
 70
     0
  9
$PDSIZE
 40
0.0
  9
$PLINEWID
 40
0.0
  9
$SPLFRAME
 70
     0
  9
$SPLINETYPE
 70
     6
  9
$SPLINESEGS
 70
     8
  9
$HANDSEED
  5
9CE
  9
$SURFTAB1
 70
     6
  9
$SURFTAB2
 70
     6
  9
$SURFTYPE
 70
     6
  9
$SURFU
 70
     6
  9
$SURFV
 70
     6
  9
$UCSBASE
  2

  9
$UCSNAME
  2

  9
$UCSORG
 10
0.0
 20
0.0
 30
0.0
  9
$UCSXDIR
 10
1.0
 20
0.0
 30
0.0
  9
$UCSYDIR
 10
0.0
 20
1.0
 30
0.0
  9
$UCSORTHOREF
  2

  9
$UCSORTHOVIEW
 70
     0
  9
$UCSORGTOP
 10
0.0
 20
0.0
 30
0.0
  9
$UCSORGBOTTOM
 10
0.0
 20
0.0
 30
0.0
  9
$UCSORGLEFT
 10
0.0
 20
0.0
 30
0.0
  9
$UCSORGRIGHT
 10
0.0
 20
0.0
 30
0.0
  9
$UCSORGFRONT
 10
0.0
 20
0.0
 30
0.0
  9
$UCSORGBACK
 10
0.0
 20
0.0
 30
0.0
  9
$PUCSBASE
  2

  9
$PUCSNAME
  2

  9
$PUCSORG
 10
0.0
 20
0.0
 30
0.0
  9
$PUCSXDIR
 10
1.0
 20
0.0
 30
0.0
  9
$PUCSYDIR
 10
0.0
 20
1.0
 30
0.0
  9
$PUCSORTHOREF
  2

  9
$PUCSORTHOVIEW
 70
     0
  9
$PUCSORGTOP
 10
0.0
 20
0.0
 30
0.0
  9
$PUCSORGBOTTOM
 10
0.0
 20
0.0
 30
0.0
  9
$PUCSORGLEFT
 10
0.0
 20
0.0
 30
0.0
  9
$PUCSORGRIGHT
 10
0.0
 20
0.0
 30
0.0
  9
$PUCSORGFRONT
 10
0.0
 20
0.0
 30
0.0
  9
$PUCSORGBACK
 10
0.0
 20
0.0
 30
0.0
  9
$USERI1
 70
     0
  9
$USERI2
 70
     0
  9
$USERI3
 70
     0
  9
$USERI4
 70
     0
  9
$USERI5
 70
     0
  9
$USERR1
 40
0.0
  9
$USERR2
 40
0.0
  9
$USERR3
 40
0.0
  9
$USERR4
 40
0.0
  9
$USERR5
 40
0.0
  9
$WORLDVIEW
 70
     1
  9
$SHADEDGE
 70
     3
  9
$SHADEDIF
 70
    70
  9
$TILEMODE
 70
     1
  9
$MAXACTVP
 70
    64
  9
$PINSBASE
 10
0.0
 20
0.0
 30
0.0
  9
$PLIMCHECK
 70
     0
  9
$PEXTMIN
 10
1.000000000000000E+20
 20
1.000000000000000E+20
 30
1.000000000000000E+20
  9
$PEXTMAX
 10
-1.000000000000000E+20
 20
-1.000000000000000E+20
 30
-1.000000000000000E+20
  9
$PLIMMIN
 10
0.0
 20
0.0
  9
$PLIMMAX
 10
12.0
 20
9.0
  9
$UNITMODE
 70
     0
  9
$VISRETAIN
 70
     1
  9
$PLINEGEN
 70
     0
  9
$PSLTSCALE
 70
     1
  9
$TREEDEPTH
 70
  3020
  9
$CMLSTYLE
  2
Standard
  9
$CMLJUST
 70
     0
  9
$CMLSCALE
 40
1.0
  9
$PROXYGRAPHICS
 70
     1
  9
$MEASUREMENT
 70
     0
  9
$CELWEIGHT
370
    -1
  9
$ENDCAPS
280
     0
  9
$JOINSTYLE
280
     0
  9
$LWDISPLAY
290
     0
  9
$INSUNITS
 70
     1
  9
$HYPERLINKBASE
  1

  9
$STYLESHEET
  1

  9
$XEDIT
290
     1
  9
$CEPSNTYPE
380
     0
  9
$PSTYLEMODE
290
     1
  9
$FINGERPRINTGUID
  2
{ECA10E69-4C5B-4F16-AD25-61A2BC38045A}
  9
$VERSIONGUID
  2
{20CC1B09-BA6D-4708-8111-40A1320222D4}
  9
$EXTNAMES
290
     1
  9
$PSVPSCALE
 40
0.0
  9
$OLESTARTUP
290
     0
  0
ENDSEC
  0
SECTION
  2
CLASSES
  0
CLASS
  1
ACDBDICTIONARYWDFLT
  2
AcDbDictionaryWithDefault
  3
AutoCAD 2000
 90
        0
280
     0
281
     0
  0
CLASS
  1
ACDBPLACEHOLDER
  2
AcDbPlaceHolder
  3
ObjectDBX Classes
 90
        0
280
     0
281
     0
  0
CLASS
  1
LAYOUT
  2
AcDbLayout
  3
ObjectDBX Classes
 90
        0
280
     0
281
     0
  0
CLASS
  1
DICTIONARYVAR
  2
AcDbDictionaryVar
  3
AutoCAD 2000
 90
        0
280
     0
281
     0
  0
CLASS
  1
TABLESTYLE
  2
AcDbTableStyle
  3
ObjectDBX Classes
 90
     2047
280
     1
281
     0
  0
ENDSEC
  0
SECTION
  2
TABLES
  0
TABLE
  2
VPORT
  5
8
330
0
100
AcDbSymbolTable
 70
     3
  0
VPORT
  5
9BD
330
8
100
AcDbSymbolTableRecord
100
AcDbViewportTableRecord
  2
*Active
 70
     0
 10
0.0
 20
0.0
 11
1.0
 21
1.0
 12
12.269649927279
 22
7.261949245095291
 13
0.0
 23
0.0
 14
0.5
 24
0.5
 15
0.5
 25
0.5
 16
0.0
 26
0.0
 36
1.0
 17
0.0
 27
0.0
 37
0.0
 40
22.33275808991991
 41
1.814583333333333
 42
50.0
 43
0.0
 44
0.0
 50
0.0
 51
0.0
 71
     0
 72
   100
 73
     1
 74
     3
 75
     0
 76
     0
 77
     0
 78
     0
281
     0
 65
     1
110
0.0
120
0.0
130
0.0
111
1.0
121
0.0
131
0.0
112
0.0
122
1.0
132
0.0
 79
     0
146
0.0
  0
ENDTAB
  0
TABLE
  2
LTYPE
  5
5
330
0
100
AcDbSymbolTable
 70
     2
  0
LTYPE
  5
14
330
5
100
AcDbSymbolTableRecord
100
AcDbLinetypeTableRecord
  2
ByBlock
 70
     0
  3

 72
    65
 73
     0
 40
0.0
  0
LTYPE
  5
15
330
5
100
AcDbSymbolTableRecord
100
AcDbLinetypeTableRecord
  2
ByLayer
 70
     0
  3

 72
    65
 73
     0
 40
0.0
  0
LTYPE
  5
16
330
5
100
AcDbSymbolTableRecord
100
AcDbLinetypeTableRecord
  2
Continuous
 70
     0
  3
Solid line
 72
    65
 73
     0
 40
0.0
  0
LTYPE
  5
9A6
330
5
100
AcDbSymbolTableRecord
100
AcDbLinetypeTableRecord
  2
HIDDEN
 70
     0
  3
Hidden __ __ __ __ __ __ __ __ __ __ __ __ __ _
 72
    65
 73
     2
 40
0.375
 49
0.25
 74
     0
 49
-0.125
 74
     0
  0
ENDTAB
  0
TABLE
  2
LAYER
  5
2
330
0
100
AcDbSymbolTable
 70
     1
  0
LAYER
  5
10
330
2
100
AcDbSymbolTableRecord
100
AcDbLayerTableRecord
  2
0
 70
     0
 62
     7
  6
Continuous
370
    -3
390
F
  0
ENDTAB
  0
TABLE
  2
STYLE
  5
3
330
0
100
AcDbSymbolTable
 70
     2
  0
STYLE
  5
11
330
3
100
AcDbSymbolTableRecord
100
AcDbTextStyleTableRecord
  2
Standard
 70
     0
 40
0.0
 41
1.0
 50
0.0
 71
     0
 42
0.2
  3
txt
  4

  0
STYLE
  5
9A5
330
3
100
AcDbSymbolTableRecord
100
AcDbTextStyleTableRecord
  2

 70
     1
 40
0.0
 41
1.0
 50
0.0
 71
     0
 42
0.2
  3
ltypeshp.shx
  4

  0
ENDTAB
  0
TABLE
  2
VIEW
  5
6
330
0
100
AcDbSymbolTable
 70
     0
  0
ENDTAB
  0
TABLE
  2
UCS
  5
7
330
0
100
AcDbSymbolTable
 70
     0
  0
ENDTAB
  0
TABLE
  2
APPID
  5
9
330
0
100
AcDbSymbolTable
 70
     1
  0
APPID
  5
12
330
9
100
AcDbSymbolTableRecord
100
AcDbRegAppTableRecord
  2
ACAD
 70
     0
  0
ENDTAB
  0
TABLE
  2
DIMSTYLE
  5
A
330
0
100
AcDbSymbolTable
 70
     1
100
AcDbDimStyleTable
  0
DIMSTYLE
105
27
330
A
100
AcDbSymbolTableRecord
100
AcDbDimStyleTableRecord
  2
Standard
 70
     0
  3

  4

340
11
  0
ENDTAB
  0
TABLE
  2
BLOCK_RECORD
  5
1
330
0
100
AcDbSymbolTable
 70
     1
  0
BLOCK_RECORD
  5
1F
330
1
100
AcDbSymbolTableRecord
100
AcDbBlockTableRecord
  2
*Model_Space
340
22
  0
BLOCK_RECORD
  5
1B
330
1
100
AcDbSymbolTableRecord
100
AcDbBlockTableRecord
  2
*Paper_Space
340
1E
  0
BLOCK_RECORD
  5
23
330
1
100
AcDbSymbolTableRecord
100
AcDbBlockTableRecord
  2
*Paper_Space0
340
26
  0
ENDTAB
  0
ENDSEC
  0
SECTION
  2
BLOCKS
  0
BLOCK
  5
20
330
1F
100
AcDbEntity
  8
0
100
AcDbBlockBegin
  2
*Model_Space
 70
     0
 10
0.0
 20
0.0
 30
0.0
  3
*Model_Space
  1

  4

  0
ENDBLK
  5
21
330
1F
100
AcDbEntity
  8
0
100
AcDbBlockEnd
  0
BLOCK
  5
1C
330
1B
100
AcDbEntity
 67
     1
  8
0
100
AcDbBlockBegin
  2
*Paper_Space
 70
     0
 10
0.0
 20
0.0
 30
0.0
  3
*Paper_Space
  1

  4

  0
ENDBLK
  5
1D
330
1B
100
AcDbEntity
 67
     1
  8
0
100
AcDbBlockEnd
  0
BLOCK
  5
24
330
23
100
AcDbEntity
  8
0
100
AcDbBlockBegin
  2
*Paper_Space0
 70
     0
 10
0.0
 20
0.0
 30
0.0
  3
*Paper_Space0
  1

  4

  0
ENDBLK
  5
25
330
23
100
AcDbEntity
  8
0
100
AcDbBlockEnd
  0
ENDSEC
  0
SECTION
  2
ENTITIES
  0
LINE
  5
88E
330
1F
100
AcDbEntity
  8
0
  6
Continuous
100
AcDbLine
 10
2.139024332375742
 20
4.349300461042313
 30
0.0
 11
2.139024332375771
 21
4.974300461042315
 31
0.0
  0
LINE
  5
88F
330
1F
100
AcDbEntity
  8
0
  6
Continuous
100
AcDbLine
 10
0.0140243323757137
 20
0.2144555937132502
 30
0.0
 11
0.0140243323757137
 21
7.156249999999876
 31
0.0
  0
LINE
  5
890
330
1F
100
AcDbEntity
  8
0
100
AcDbLine
 10
0.0633343632752439
 20
7.156249999999876
 30
0.0
 11
0.0633343632752545
 21
0.1692424821282543
 31
0.0
  0
LINE
  5
891
330
1F
100
AcDbEntity
  8
0
  6
Continuous
100
AcDbLine
 10
3.461327722969033
 20
0.1776966094065902
 30
0.0
 11
2.431917551189166
 21
1.267554790360858
 31
0.0
  0
LINE
  5
892
330
1F
100
AcDbEntity
  8
0
  6
HIDDEN
100
AcDbLine
 10
3.609803677087058
 20
0.0624999999999769
 30
0.0
 11
0.1410536770870596
 21
0.0624999999999947
 31
0.0
  0
LINE
  5
893
330
1F
100
AcDbEntity
  8
0
100
AcDbLine
 10
3.575828167431812
 20
-0.0000000000000249
 30
0.0
 11
0.1410536770870596
 21
-0.0000000000000053
 31
0.0
  0
ARC
  5
894
330
1F
100
AcDbEntity
  8
0
  6
Continuous
100
AcDbCircle
 10
3.139024332375728
 20
1.974661571547395
 30
0.0
 40
1.000000000000003
100
AcDbArc
 50
179.9999999999976
 51
224.999999999999
  0
ARC
  5
895
330
1F
100
AcDbEntity
  8
0
  6
Continuous
100
AcDbCircle
 10
-0.2984756676241727
 20
-0.1758567811866687
 30
0.0
 40
0.4999999999999437
100
AcDbArc
 50
28.47097865576722
 51
51.31781254652738
  0
LINE
  5
896
330
1F
100
AcDbEntity
  8
0
100
AcDbLine
 10
0.1410536770870596
 20
0.0624999999999947
 30
0.0
 11
0.1410536770870596
 21
-0.0000000000000053
 31
0.0
  0
CIRCLE
  5
897
330
1F
100
AcDbEntity
  8
0
  6
Continuous
100
AcDbCircle
 10
1.264024332375735
 20
1.359374999999973
 30
0.0
 40
0.0855
  0
CIRCLE
  5
898
330
1F
100
AcDbEntity
  8
0
  6
Continuous
100
AcDbCircle
 10
1.738112275353112
 20
1.265624999999973
 30
0.0
 40
0.0855
  0
ARC
  5
899
330
1F
100
AcDbEntity
  8
0
  6
Continuous
100
AcDbCircle
 10
0.0140243323757279
 20
2.64162499999985
 30
0.0
 40
0.1875
100
AcDbArc
 50
285.247364245756
 51
74.75263575424388
  0
ARC
  5
89A
330
1F
100
AcDbEntity
  8
0
  6
Continuous
100
AcDbCircle
 10
0.2040243323757398
 20
3.406249999999874
 30
0.0
 40
0.06
100
AcDbArc
 50
301.631166275524
 51
58.3688337244756
  0
LINE
  5
89B
330
1F
100
AcDbEntity
  8
0
  6
Continuous
100
AcDbLine
 10
0.0633343632752617
 20
3.249122719822827
 30
0.0
 11
0.2354912801040303
 21
3.355163492968524
 31
0.0
  0
LINE
  5
89C
330
1F
100
AcDbEntity
  8
0
  6
Continuous
100
AcDbLine
 10
0.0633343632752617
 20
3.563377280176908
 30
0.0
 11
0.2354912801040303
 21
3.457336507031224
 31
0.0
  0
LINE
  5
89D
330
1F
100
AcDbEntity
  8
0
  6
Continuous
100
AcDbLine
 10
2.139024332375726
 20
1.974661571547438
 30
0.0
 11
2.139024332375771
 21
3.224300461042299
 31
0.0
  0
CIRCLE
  5
89E
330
1F
100
AcDbEntity
  8
0
  6
Continuous
100
AcDbCircle
 10
1.545274332375728
 20
2.359374999999973
 30
0.0
 40
0.0855
  0
CIRCLE
  5
89F
330
1F
100
AcDbEntity
  8
0
  6
Continuous
100
AcDbCircle
 10
0.9520243323757871
 20
1.859374999999973
 30
0.0
 40
0.0855
  0
CIRCLE
  5
8A0
330
1F
100
AcDbEntity
  8
0
  6
Continuous
100
AcDbCircle
 10
1.857774332375714
 20
2.734374999999973
 30
0.0
 40
0.0855
  0
CIRCLE
  5
8A1
330
1F
100
AcDbEntity
  8
0
  6
Continuous
100
AcDbCircle
 10
1.545274332375728
 20
3.859374999999973
 30
0.0
 40
0.0855
  0
CIRCLE
  5
8A2
330
1F
100
AcDbEntity
  8
0
  6
Continuous
100
AcDbCircle
 10
0.9520243323757871
 20
3.359374999999973
 30
0.0
 40
0.0855
  0
LWPOLYLINE
  5
8A3
330
1F
100
AcDbEntity
  8
0
  6
Continuous
100
AcDbPolyline
 90
        7
 70
     1
 43
0.0
 10
1.302649332375738
 20
4.238347949821113
 10
1.139899332375736
 20
4.332311706131714
 42
-0.5773502691896388
 10
1.139899332375736
 20
4.386438293868247
 10
1.302649332375738
 20
4.480402050178862
 42
-0.5773502691896191
 10
1.349524332375738
 20
4.453338756310595
 10
1.349524332375738
 20
4.359374999999981
 10
1.349524332375738
 20
4.26541124368938
 42
-0.5773502691896191
  0
LINE
  5
8A4
330
1F
100
AcDbEntity
  8
0
  6
Continuous
100
AcDbLine
 10
1.826524332375742
 20
3.474300461042327
 30
0.0
 11
1.826524332375771
 21
4.099300461042313
 31
0.0
  0
ARC
  5
8A5
330
1F
100
AcDbEntity
  8
0
  6
Continuous
100
AcDbCircle
 10
2.014024332375756
 20
3.224300461042306
 30
0.0
 40
0.1250000000000142
100
AcDbArc
 50
0.0
 51
90.00000000000651
  0
ARC
  5
8A6
330
1F
100
AcDbEntity
  8
0
  6
Continuous
100
AcDbCircle
 10
1.951524332375756
 20
3.474300461042335
 30
0.0
 40
0.1250000000000142
100
AcDbArc
 50
180.0
 51
270.0000000000065
  0
LINE
  5
8A7
330
1F
100
AcDbEntity
  8
0
  6
Continuous
100
AcDbLine
 10
2.014024332375742
 20
3.349300461042313
 30
0.0
 11
1.951524332375771
 21
3.349300461042313
 31
0.0
  0
ARC
  5
8A8
330
1F
100
AcDbEntity
  8
0
  6
Continuous
100
AcDbCircle
 10
2.014024332375756
 20
4.349300461042306
 30
0.0
 40
0.1249999999999858
100
AcDbArc
 50
270.0000000000065
 51
0.0000000000065138
  0
ARC
  5
8A9
330
1F
100
AcDbEntity
  8
0
  6
Continuous
100
AcDbCircle
 10
1.951524332375756
 20
4.099300461042335
 30
0.0
 40
0.1249999999999858
100
AcDbArc
 50
90.00000000000651
 51
180.0000000000067
  0
LINE
  5
8AA
330
1F
100
AcDbEntity
  8
0
  6
Continuous
100
AcDbLine
 10
1.951524332375742
 20
4.224300461042313
 30
0.0
 11
2.014024332375771
 21
4.224300461042313
 31
0.0
  0
ARC
  5
8AB
330
1F
100
AcDbEntity
  8
0
  6
Continuous
100
AcDbCircle
 10
3.107774332375827
 20
-0.1758567811866687
 30
0.0
 40
0.4999999999999432
100
AcDbArc
 50
20.5921601137191
 51
45.00000000000462
  0
LINE
  5
8AC
330
1F
100
AcDbEntity
  8
0
100
AcDbLine
 10
3.54730367708706
 20
0.0624999999999769
 30
0.0
 11
3.638328167431817
 21
0.0624999999999769
 31
0.0
  0
LINE
  5
8AD
330
1F
100
AcDbEntity
  8
0
100
AcDbLine
 10
3.638328167431817
 20
-0.0000000000000231
 30
0.0
 11
3.638328167431817
 21
0.0624999999999769
 31
0.0
  0
LINE
  5
8AE
330
1F
100
AcDbEntity
  8
0
  6
Continuous
100
AcDbLine
 10
0.0140243323757137
 20
7.156249999999876
 30
0.0
 11
1.826524332375714
 21
7.156249999999869
 31
0.0
  0
LINE
  5
8AF
330
1F
100
AcDbEntity
  8
0
  6
Continuous
100
AcDbLine
 10
0.0633343632752474
 20
4.749122719822825
 30
0.0
 11
0.2354912801040303
 21
4.855163492968526
 31
0.0
  0
LINE
  5
8B0
330
1F
100
AcDbEntity
  8
0
  6
Continuous
100
AcDbLine
 10
0.0633343632752617
 20
5.063377280176908
 30
0.0
 11
0.2354912801040303
 21
4.957336507031226
 31
0.0
  0
ARC
  5
8B1
330
1F
100
AcDbEntity
  8
0
  6
Continuous
100
AcDbCircle
 10
0.2040243323757398
 20
4.906249999999876
 30
0.0
 40
0.06
100
AcDbArc
 50
301.631166275524
 51
58.3688337244756
  0
LINE
  5
8B2
330
1F
100
AcDbEntity
  8
0
  6
Continuous
100
AcDbLine
 10
0.0633343632752403
 20
6.264747719822818
 30
0.0
 11
0.2354912801040232
 21
6.370788492968519
 31
0.0
  0
LINE
  5
8B3
330
1F
100
AcDbEntity
  8
0
  6
Continuous
100
AcDbLine
 10
0.0633343632752545
 20
6.579002280176901
 30
0.0
 11
0.2354912801040232
 21
6.472961507031219
 31
0.0
  0
ARC
  5
8B4
330
1F
100
AcDbEntity
  8
0
  6
Continuous
100
AcDbCircle
 10
0.2040243323757327
 20
6.421874999999869
 30
0.0
 40
0.06
100
AcDbArc
 50
301.631166275524
 51
58.3688337244756
  0
ARC
  5
8B5
330
1F
100
AcDbEntity
  8
0
  6
Continuous
100
AcDbCircle
 10
1.951524332375701
 20
5.849300461042414
 30
0.0
 40
0.1249999999999574
100
AcDbArc
 50
89.99999999999349
 51
179.9999999999935
  0
LWPOLYLINE
  5
8B6
330
1F
100
AcDbEntity
  8
0
100
AcDbPolyline
 90
        7
 70
     1
 43
0.0
 10
1.583899332375731
 20
5.503972949820987
 10
1.421149332375729
 20
5.597936706131588
 42
-0.5773502691896388
 10
1.421149332375729
 20
5.652063293868121
 10
1.583899332375731
 20
5.746027050178736
 42
-0.5773502691896191
 10
1.630774332375731
 20
5.718963756310469
 10
1.630774332375731
 20
5.624999999999854
 10
1.630774332375731
 20
5.531036243689254
 42
-0.5773502691896191
  0
LWPOLYLINE
  5
8B7
330
1F
100
AcDbEntity
  8
0
  6
Continuous
100
AcDbPolyline
 90
        7
 70
     1
 43
0.0
 10
0.9906493323757832
 20
4.753972949821101
 10
0.8278993323757948
 20
4.847936706131701
 42
-0.5773502691896388
 10
0.8278993323757948
 20
4.902063293868235
 10
0.9906493323757832
 20
4.996027050178835
 42
-0.5773502691896408
 10
1.037524332375783
 20
4.968963756310568
 10
1.037524332375783
 20
4.874999999999982
 10
1.037524332375783
 20
4.781036243689368
 42
-0.5773502691896069
  0
ARC
  5
8B8
330
1F
100
AcDbEntity
  8
0
  6
Continuous
100
AcDbCircle
 10
1.951524332375756
 20
5.224300461042336
 30
0.0
 40
0.1250000000000142
100
AcDbArc
 50
180.0000000000067
 51
270.0000000000065
  0
ARC
  5
8B9
330
1F
100
AcDbEntity
  8
0
  6
Continuous
100
AcDbCircle
 10
2.014024332375756
 20
4.974300461042308
 30
0.0
 40
0.1250000000000142
100
AcDbArc
 50
0.0000000000065138
 51
90.00000000000651
  0
LWPOLYLINE
  5
8BA
330
1F
100
AcDbEntity
  8
0
  6
Continuous
100
AcDbPolyline
 90
        7
 70
     1
 43
0.0
 10
1.896399332375696
 20
4.597722949821115
 10
1.733649332375693
 20
4.69168670613173
 42
-0.5773502691896388
 10
1.733649332375693
 20
4.745813293868263
 10
1.896399332375696
 20
4.839777050178864
 42
-0.577350269189602
 10
1.943274332375696
 20
4.812713756310597
 10
1.943274332375696
 20
4.718749999999982
 10
1.943274332375696
 20
4.624786243689382
 42
-0.577350269189636
  0
LINE
  5
8BB
330
1F
100
AcDbEntity
  8
0
  6
Continuous
100
AcDbLine
 10
2.014024332375742
 20
5.099300461042315
 30
0.0
 11
1.951524332375771
 21
5.099300461042315
 31
0.0
  0
LINE
  5
8BC
330
1F
100
AcDbEntity
  8
0
  6
Continuous
100
AcDbLine
 10
1.826524332375742
 20
5.224300461042315
 30
0.0
 11
1.826524332375744
 21
5.849300461042429
 31
0.0
  0
LINE
  5
8BD
330
1F
100
AcDbEntity
  8
0
  6
Continuous
100
AcDbLine
 10
1.826524332375742
 20
5.849300461042429
 30
0.0
 11
1.826524332375742
 21
5.849300461042429
 31
0.0
  0
LWPOLYLINE
  5
8BE
330
1F
100
AcDbEntity
  8
0
100
AcDbPolyline
 90
        7
 70
     1
 43
0.0
 10
0.9906493323757761
 20
5.972722949820987
 10
0.8278993323757877
 20
6.066686706131588
 42
-0.5773502691896388
 10
0.8278993323757877
 20
6.120813293868121
 10
0.9906493323757761
 20
6.214777050178736
 42
-0.5773502691896191
 10
1.037524332375776
 20
6.187713756310469
 10
1.037524332375776
 20
6.093749999999854
 10
1.037524332375776
 20
5.999786243689254
 42
-0.5773502691896191
  0
LWPOLYLINE
  5
8BF
330
1F
100
AcDbEntity
  8
0
100
AcDbPolyline
 90
        7
 70
     1
 43
0.0
 10
1.177649332375752
 20
6.949152050178707
 10
1.014899332375771
 20
6.855188293868121
 42
0.5773502691896388
 10
1.014899332375771
 20
6.801061706131588
 10
1.177649332375752
 20
6.707097949820987
 42
0.577350269189624
 10
1.224524332375752
 20
6.734161243689254
 10
1.22452433237576
 20
6.828124999999854
 10
1.224524332375752
 20
6.922088756310441
 42
0.5773502691896237
  0
LINE
  5
8C0
330
1F
100
AcDbEntity
  8
0
  6
Continuous
100
AcDbLine
 10
2.139024332375714
 20
6.099300461042372
 30
0.0
 11
2.139024332375742
 21
6.724300461042372
 31
0.0
  0
ARC
  5
8C1
330
1F
100
AcDbEntity
  8
0
  6
Continuous
100
AcDbCircle
 10
2.014024332375756
 20
6.099300461042386
 30
0.0
 40
0.1249999999999574
100
AcDbArc
 50
269.9999999999935
 51
359.9999999999935
  0
LINE
  5
8C2
330
1F
100
AcDbEntity
  8
0
  6
Continuous
100
AcDbLine
 10
1.951524332375714
 20
5.974300461042372
 30
0.0
 11
2.014024332375742
 21
5.974300461042429
 31
0.0
  0
ARC
  5
8C3
330
1F
100
AcDbEntity
  8
0
  6
Continuous
100
AcDbCircle
 10
2.014024332375721
 20
6.724300461042351
 30
0.0
 40
0.1250000000000213
100
AcDbArc
 50
0.0000000000097707
 51
90.00000000000325
  0
ARC
  5
8C4
330
1F
100
AcDbEntity
  8
0
  6
Continuous
100
AcDbCircle
 10
1.951524332375721
 20
6.974300461042386
 30
0.0
 40
0.1250000000000178
100
AcDbArc
 50
180.0000000000016
 51
270.0000000000098
  0
LINE
  5
8C5
330
1F
100
AcDbEntity
  8
0
  6
Continuous
100
AcDbLine
 10
2.014024332375714
 20
6.849300461042372
 30
0.0
 11
1.951524332375742
 21
6.849300461042372
 31
0.0
  0
LINE
  5
8C6
330
1F
100
AcDbEntity
  8
0
  6
Continuous
100
AcDbLine
 10
1.826524332375707
 20
6.974300461042386
 30
0.0
 11
1.826524332375715
 21
7.156249999999869
 31
0.0
  0
ENDSEC
  0
SECTION
  2
OBJECTS
  0
DICTIONARY
  5
C
330
0
100
AcDbDictionary
281
     1
  3
ACAD_COLOR
350
995
  3
ACAD_GROUP
350
D
  3
ACAD_LAYOUT
350
1A
  3
ACAD_MATERIAL
350
994
  3
ACAD_MLINESTYLE
350
17
  3
ACAD_PLOTSETTINGS
350
19
  3
ACAD_PLOTSTYLENAME
350
E
  3
ACAD_TABLESTYLE
350
996
  3
ACDBHEADERROUNDTRIPXREC
350
9C5
  3
AcDbVariableDictionary
350
C0
  0
DICTIONARY
  5
995
102
{ACAD_REACTORS
330
C
102
}
330
C
100
AcDbDictionary
281
     1
  0
DICTIONARY
  5
D
102
{ACAD_REACTORS
330
C
102
}
330
C
100
AcDbDictionary
281
     1
  0
DICTIONARY
  5
1A
102
{ACAD_REACTORS
330
C
102
}
330
C
100
AcDbDictionary
281
     1
  3
Layout1
350
1E
  3
Layout2
350
26
  3
Model
350
22
  0
DICTIONARY
  5
994
102
{ACAD_REACTORS
330
C
102
}
330
C
100
AcDbDictionary
281
     1
  0
DICTIONARY
  5
17
102
{ACAD_REACTORS
330
C
102
}
330
C
100
AcDbDictionary
281
     1
  3
Standard
350
18
  0
DICTIONARY
  5
19
102
{ACAD_REACTORS
330
C
102
}
330
C
100
AcDbDictionary
281
     1
  0
ACDBDICTIONARYWDFLT
  5
E
102
{ACAD_REACTORS
330
C
102
}
330
C
100
AcDbDictionary
281
     1
  3
Normal
350
F
100
AcDbDictionaryWithDefault
340
F
  0
DICTIONARY
  5
996
102
{ACAD_REACTORS
330
C
102
}
330
C
100
AcDbDictionary
281
     1
  3
Standard
350
997
  0
DICTIONARY
  5
9C5
102
{ACAD_REACTORS
330
C
102
}
330
C
100
AcDbDictionary
281
     1
  3
COLORDICT
350
9C6
  3
MATERIALDICT
350
9C7
  0
DICTIONARY
  5
C0
102
{ACAD_REACTORS
330
C
102
}
330
C
100
AcDbDictionary
281
     1
  3
CTABLESTYLE
350
9AF
  3
DIMASSOC
350
C2
  3
HIDETEXT
350
C1
  0
LAYOUT
  5
1E
102
{ACAD_REACTORS
330
1A
102
}
102
{ACAD_XDICTIONARY
360
9C8
102
}
330
1A
100
AcDbPlotSettings
  1

  2
X:\Program Files\AutoCAD2002\plotters\DWF ePlot (optimized for plotting).pc3
  4

  6

 40
0.0
 41
0.0
 42
0.0
 43
0.0
 44
0.0
 45
0.0
 46
0.0
 47
0.0
 48
0.0
 49
0.0
140
0.0
141
0.0
142
1.0
143
1.0
 70
   688
 72
     0
 73
     0
 74
     5
  7

 75
    16
147
1.0
148
0.0
149
0.0
100
AcDbLayout
  1
Layout1
 70
     1
 71
     1
 10
0.0
 20
0.0
 11
12.0
 21
9.0
 12
0.0
 22
0.0
 32
0.0
 14
1.000000000000000E+20
 24
1.000000000000000E+20
 34
1.000000000000000E+20
 15
-1.000000000000000E+20
 25
-1.000000000000000E+20
 35
-1.000000000000000E+20
146
0.0
 13
0.0
 23
0.0
 33
0.0
 16
1.0
 26
0.0
 36
0.0
 17
0.0
 27
1.0
 37
0.0
 76
     0
330
1B
  0
LAYOUT
  5
26
102
{ACAD_REACTORS
330
1A
102
}
102
{ACAD_XDICTIONARY
360
9CA
102
}
330
1A
100
AcDbPlotSettings
  1

  2
X:\Program Files\AutoCAD2002\plotters\DWF ePlot (optimized for plotting).pc3
  4

  6

 40
0.0
 41
0.0
 42
0.0
 43
0.0
 44
0.0
 45
0.0
 46
0.0
 47
0.0
 48
0.0
 49
0.0
140
0.0
141
0.0
142
1.0
143
1.0
 70
   688
 72
     0
 73
     0
 74
     5
  7

 75
    16
147
1.0
148
0.0
149
0.0
100
AcDbLayout
  1
Layout2
 70
     1
 71
     2
 10
0.0
 20
0.0
 11
12.0
 21
9.0
 12
0.0
 22
0.0
 32
0.0
 14
0.0
 24
0.0
 34
0.0
 15
0.0
 25
0.0
 35
0.0
146
0.0
 13
0.0
 23
0.0
 33
0.0
 16
1.0
 26
0.0
 36
0.0
 17
0.0
 27
1.0
 37
0.0
 76
     0
330
23
  0
LAYOUT
  5
22
102
{ACAD_REACTORS
330
1A
102
}
102
{ACAD_XDICTIONARY
360
9CC
102
}
330
1A
100
AcDbPlotSettings
  1

  2
X:\Program Files\AutoCAD2002\plotters\DWF ePlot (optimized for plotting).pc3
  4

  6

 40
0.0
 41
0.0
 42
0.0
 43
0.0
 44
0.0
 45
0.0
 46
0.0
 47
0.0
 48
0.0
 49
0.0
140
0.0
141
0.0
142
1.0
143
1.0
 70
  1712
 72
     0
 73
     0
 74
     0
  7

 75
     0
147
1.0
148
0.0
149
0.0
100
AcDbLayout
  1
Model
 70
     1
 71
     0
 10
0.0
 20
0.0
 11
12.0
 21
9.0
 12
0.0
 22
0.0
 32
0.0
 14
0.0
 24
0.0
 34
0.0
 15
0.0
 25
0.0
 35
0.0
146
0.0
 13
0.0
 23
0.0
 33
0.0
 16
1.0
 26
0.0
 36
0.0
 17
0.0
 27
1.0
 37
0.0
 76
     0
330
1F
  0
MLINESTYLE
  5
18
102
{ACAD_REACTORS
330
17
102
}
330
17
100
AcDbMlineStyle
  2
STANDARD
 70
     0
  3

 62
   256
 51
90.0
 52
90.0
 71
     2
 49
0.5
 62
   256
  6
BYLAYER
 49
-0.5
 62
   256
  6
BYLAYER
  0
ACDBPLACEHOLDER
  5
F
102
{ACAD_REACTORS
330
E
102
}
330
E
  0
ACAD_PROXY_OBJECT
  5
997
102
{ACAD_REACTORS
330
996
102
}
330
996
100
AcDbProxyObject
 90
      499
 91
      504
 95
   983063
 70
     0
 93
     1841
310
4214DD185B99185C9928B81E85EB51B8AE3F2E07A17AD46E2B8FC02B5E8DC0F42B1CFD028000000C1008070000C3001FDFF8000000C1003FBFF000000182007F7FE00000030400FEFFC00000060801FDFF8000000C1003FBFF00000018200000000000000681FA0B0000001820100E000186003FBFF000000182007F7FE000
310
00030400FEFFC00000060801FDFF8000000C1003FBFF000000182007F7FE000000304000AD7A3703D0AC73F4160000003040201C00030C007F7FE00000030400FEFFC00000060801FDFF8000000C1003FBFF000000182007F7FE00000030400FEFFC000000608000
340
11
340
11
340
11
 94
        0
  0
XRECORD
  5
9C6
102
{ACAD_REACTORS
330
9C5
102
}
330
9C5
100
AcDbXrecord
340
995
  0
XRECORD
  5
9C7
102
{ACAD_REACTORS
330
9C5
102
}
330
9C5
100
AcDbXrecord
340
994
  0
DICTIONARYVAR
  5
9AF
102
{ACAD_REACTORS
330
C0
102
}
330
C0
100
DictionaryVariables
280
     0
  1
STANDARD
  0
DICTIONARYVAR
  5
C2
102
{ACAD_REACTORS
330
C0
102
}
330
C0
100
DictionaryVariables
280
     0
  1
2
  0
DICTIONARYVAR
  5
C1
102
{ACAD_REACTORS
330
C0
102
}
330
C0
100
DictionaryVariables
280
     0
  1
1
  0
DICTIONARY
  5
9C8
330
1E
100
AcDbDictionary
280
     1
281
     1
  3
ACAD_XREC_ROUNDTRIP
360
9C9
  0
DICTIONARY
  5
9CA
330
26
100
AcDbDictionary
280
     1
281
     1
  3
ACAD_XREC_ROUNDTRIP
360
9CB
  0
DICTIONARY
  5
9CC
330
22
100
AcDbDictionary
280
     1
281
     1
  3
ACAD_XREC_ROUNDTRIP
360
9CD
  0
XRECORD
  5
9C9
102
{ACAD_REACTORS
330
9C8
102
}
330
9C8
100
AcDbXrecord
102
SHADEPLOT
 70
     0
102
SHADEPLOTRESLEVEL
 70
     2
102
SHADEPLOTCUSTOMDPI
 70
   300
  0
XRECORD
  5
9CB
102
{ACAD_REACTORS
330
9CA
102
}
330
9CA
100
AcDbXrecord
102
SHADEPLOT
 70
     0
102
SHADEPLOTRESLEVEL
 70
     2
102
SHADEPLOTCUSTOMDPI
 70
   300
  0
XRECORD
  5
9CD
102
{ACAD_REACTORS
330
9CC
102
}
330
9CC
100
AcDbXrecord
102
SHADEPLOT
 70
     0
102
SHADEPLOTRESLEVEL
 70
     2
102
SHADEPLOTCUSTOMDPI
 70
   300
  0
ENDSEC
  0
EOF
