  0
SECTION
  2
HEADER
  9
$ACADVER
  1
AC1015
  9
$ACADMAINTVER
 70
     6
  9
$DWGCODEPAGE
  3
ANSI_1252
  9
$INSBASE
 10
0.0
 20
0.0
 30
0.0
  9
$EXTMIN
 10
-0.4303923493126725
 20
-0.0258883476483202
 30
0.0
  9
$EXTMAX
 10
20.80998861682037
 20
13.75899063071069
 30
0.0
  9
$LIMMIN
 10
0.0
 20
0.0
  9
$LIMMAX
 10
12.0
 20
9.0
  9
$ORTHOMODE
 70
     1
  9
$REGENMODE
 70
     1
  9
$FILLMODE
 70
     1
  9
$QTEXTMODE
 70
     0
  9
$MIRRTEXT
 70
     1
  9
$LTSCALE
 40
1.0
  9
$ATTMODE
 70
     1
  9
$TEXTSIZE
 40
0.2
  9
$TRACEWID
 40
0.05
  9
$TEXTSTYLE
  7
Standard
  9
$CLAYER
  8
0
  9
$CELTYPE
  6
ByLayer
  9
$CECOLOR
 62
   256
  9
$CELTSCALE
 40
1.0
  9
$DISPSILH
 70
     0
  9
$DIMSCALE
 40
1.0
  9
$DIMASZ
 40
0.18
  9
$DIMEXO
 40
0.0625
  9
$DIMDLI
 40
0.38
  9
$DIMRND
 40
0.0
  9
$DIMDLE
 40
0.0
  9
$DIMEXE
 40
0.18
  9
$DIMTP
 40
0.0
  9
$DIMTM
 40
0.0
  9
$DIMTXT
 40
0.18
  9
$DIMCEN
 40
0.09
  9
$DIMTSZ
 40
0.0
  9
$DIMTOL
 70
     0
  9
$DIMLIM
 70
     0
  9
$DIMTIH
 70
     1
  9
$DIMTOH
 70
     1
  9
$DIMSE1
 70
     0
  9
$DIMSE2
 70
     0
  9
$DIMTAD
 70
     0
  9
$DIMZIN
 70
     0
  9
$DIMBLK
  1

  9
$DIMASO
 70
     1
  9
$DIMSHO
 70
     1
  9
$DIMPOST
  1

  9
$DIMAPOST
  1

  9
$DIMALT
 70
     0
  9
$DIMALTD
 70
     2
  9
$DIMALTF
 40
25.4
  9
$DIMLFAC
 40
1.0
  9
$DIMTOFL
 70
     0
  9
$DIMTVP
 40
0.0
  9
$DIMTIX
 70
     0
  9
$DIMSOXD
 70
     0
  9
$DIMSAH
 70
     0
  9
$DIMBLK1
  1

  9
$DIMBLK2
  1

  9
$DIMSTYLE
  2
Standard
  9
$DIMCLRD
 70
     0
  9
$DIMCLRE
 70
     0
  9
$DIMCLRT
 70
     0
  9
$DIMTFAC
 40
1.0
  9
$DIMGAP
 40
0.09
  9
$DIMJUST
 70
     0
  9
$DIMSD1
 70
     0
  9
$DIMSD2
 70
     0
  9
$DIMTOLJ
 70
     1
  9
$DIMTZIN
 70
     0
  9
$DIMALTZ
 70
     0
  9
$DIMALTTZ
 70
     0
  9
$DIMUPT
 70
     0
  9
$DIMDEC
 70
     4
  9
$DIMTDEC
 70
     4
  9
$DIMALTU
 70
     2
  9
$DIMALTTD
 70
     2
  9
$DIMTXSTY
  7
Standard
  9
$DIMAUNIT
 70
     0
  9
$DIMADEC
 70
     0
  9
$DIMALTRND
 40
0.0
  9
$DIMAZIN
 70
     0
  9
$DIMDSEP
 70
    46
  9
$DIMATFIT
 70
     3
  9
$DIMFRAC
 70
     0
  9
$DIMLDRBLK
  1

  9
$DIMLUNIT
 70
     2
  9
$DIMLWD
 70
    -2
  9
$DIMLWE
 70
    -2
  9
$DIMTMOVE
 70
     0
  9
$LUNITS
 70
     2
  9
$LUPREC
 70
     4
  9
$SKETCHINC
 40
0.1
  9
$FILLETRAD
 40
0.5
  9
$AUNITS
 70
     0
  9
$AUPREC
 70
     0
  9
$MENU
  1
.
  9
$ELEVATION
 40
0.0
  9
$PELEVATION
 40
0.0
  9
$THICKNESS
 40
0.0
  9
$LIMCHECK
 70
     0
  9
$CHAMFERA
 40
0.5
  9
$CHAMFERB
 40
0.5
  9
$CHAMFERC
 40
1.0
  9
$CHAMFERD
 40
0.0
  9
$SKPOLY
 70
     0
  9
$TDCREATE
 40
2453423.550611007
  9
$TDUCREATE
 40
2453423.88394434
  9
$TDUPDATE
 40
2454165.794903276
  9
$TDUUPDATE
 40
2454166.128236609
  9
$TDINDWG
 40
0.015181169
  9
$TDUSRTIMER
 40
0.015181169
  9
$USRTIMER
 70
     1
  9
$ANGBASE
 50
0.0
  9
$ANGDIR
 70
     0
  9
$PDMODE
 70
     0
  9
$PDSIZE
 40
0.0
  9
$PLINEWID
 40
0.0
  9
$SPLFRAME
 70
     0
  9
$SPLINETYPE
 70
     6
  9
$SPLINESEGS
 70
     8
  9
$HANDSEED
  5
9CE
  9
$SURFTAB1
 70
     6
  9
$SURFTAB2
 70
     6
  9
$SURFTYPE
 70
     6
  9
$SURFU
 70
     6
  9
$SURFV
 70
     6
  9
$UCSBASE
  2

  9
$UCSNAME
  2

  9
$UCSORG
 10
0.0
 20
0.0
 30
0.0
  9
$UCSXDIR
 10
1.0
 20
0.0
 30
0.0
  9
$UCSYDIR
 10
0.0
 20
1.0
 30
0.0
  9
$UCSORTHOREF
  2

  9
$UCSORTHOVIEW
 70
     0
  9
$UCSORGTOP
 10
0.0
 20
0.0
 30
0.0
  9
$UCSORGBOTTOM
 10
0.0
 20
0.0
 30
0.0
  9
$UCSORGLEFT
 10
0.0
 20
0.0
 30
0.0
  9
$UCSORGRIGHT
 10
0.0
 20
0.0
 30
0.0
  9
$UCSORGFRONT
 10
0.0
 20
0.0
 30
0.0
  9
$UCSORGBACK
 10
0.0
 20
0.0
 30
0.0
  9
$PUCSBASE
  2

  9
$PUCSNAME
  2

  9
$PUCSORG
 10
0.0
 20
0.0
 30
0.0
  9
$PUCSXDIR
 10
1.0
 20
0.0
 30
0.0
  9
$PUCSYDIR
 10
0.0
 20
1.0
 30
0.0
  9
$PUCSORTHOREF
  2

  9
$PUCSORTHOVIEW
 70
     0
  9
$PUCSORGTOP
 10
0.0
 20
0.0
 30
0.0
  9
$PUCSORGBOTTOM
 10
0.0
 20
0.0
 30
0.0
  9
$PUCSORGLEFT
 10
0.0
 20
0.0
 30
0.0
  9
$PUCSORGRIGHT
 10
0.0
 20
0.0
 30
0.0
  9
$PUCSORGFRONT
 10
0.0
 20
0.0
 30
0.0
  9
$PUCSORGBACK
 10
0.0
 20
0.0
 30
0.0
  9
$USERI1
 70
     0
  9
$USERI2
 70
     0
  9
$USERI3
 70
     0
  9
$USERI4
 70
     0
  9
$USERI5
 70
     0
  9
$USERR1
 40
0.0
  9
$USERR2
 40
0.0
  9
$USERR3
 40
0.0
  9
$USERR4
 40
0.0
  9
$USERR5
 40
0.0
  9
$WORLDVIEW
 70
     1
  9
$SHADEDGE
 70
     3
  9
$SHADEDIF
 70
    70
  9
$TILEMODE
 70
     1
  9
$MAXACTVP
 70
    64
  9
$PINSBASE
 10
0.0
 20
0.0
 30
0.0
  9
$PLIMCHECK
 70
     0
  9
$PEXTMIN
 10
1.000000000000000E+20
 20
1.000000000000000E+20
 30
1.000000000000000E+20
  9
$PEXTMAX
 10
-1.000000000000000E+20
 20
-1.000000000000000E+20
 30
-1.000000000000000E+20
  9
$PLIMMIN
 10
0.0
 20
0.0
  9
$PLIMMAX
 10
12.0
 20
9.0
  9
$UNITMODE
 70
     0
  9
$VISRETAIN
 70
     1
  9
$PLINEGEN
 70
     0
  9
$PSLTSCALE
 70
     1
  9
$TREEDEPTH
 70
  3020
  9
$CMLSTYLE
  2
Standard
  9
$CMLJUST
 70
     0
  9
$CMLSCALE
 40
1.0
  9
$PROXYGRAPHICS
 70
     1
  9
$MEASUREMENT
 70
     0
  9
$CELWEIGHT
370
    -1
  9
$ENDCAPS
280
     0
  9
$JOINSTYLE
280
     0
  9
$LWDISPLAY
290
     0
  9
$INSUNITS
 70
     1
  9
$HYPERLINKBASE
  1

  9
$STYLESHEET
  1

  9
$XEDIT
290
     1
  9
$CEPSNTYPE
380
     0
  9
$PSTYLEMODE
290
     1
  9
$FINGERPRINTGUID
  2
{ECA10E69-4C5B-4F16-AD25-61A2BC38045A}
  9
$VERSIONGUID
  2
{0BBDAD81-E505-4813-B8DD-8E9F8777EE96}
  9
$EXTNAMES
290
     1
  9
$PSVPSCALE
 40
0.0
  9
$OLESTARTUP
290
     0
  0
ENDSEC
  0
SECTION
  2
CLASSES
  0
CLASS
  1
ACDBDICTIONARYWDFLT
  2
AcDbDictionaryWithDefault
  3
AutoCAD 2000
 90
        0
280
     0
281
     0
  0
CLASS
  1
ACDBPLACEHOLDER
  2
AcDbPlaceHolder
  3
ObjectDBX Classes
 90
        0
280
     0
281
     0
  0
CLASS
  1
LAYOUT
  2
AcDbLayout
  3
ObjectDBX Classes
 90
        0
280
     0
281
     0
  0
CLASS
  1
DICTIONARYVAR
  2
AcDbDictionaryVar
  3
AutoCAD 2000
 90
        0
280
     0
281
     0
  0
CLASS
  1
TABLESTYLE
  2
AcDbTableStyle
  3
ObjectDBX Classes
 90
     2047
280
     1
281
     0
  0
ENDSEC
  0
SECTION
  2
TABLES
  0
TABLE
  2
VPORT
  5
8
330
0
100
AcDbSymbolTable
 70
     3
  0
VPORT
  5
9BD
330
8
100
AcDbSymbolTableRecord
100
AcDbViewportTableRecord
  2
*Active
 70
     0
 10
0.0
 20
0.0
 11
1.0
 21
1.0
 12
10.22248042389525
 22
6.610577130456136
 13
0.0
 23
0.0
 14
0.5
 24
0.5
 15
0.5
 25
0.5
 16
0.0
 26
0.0
 36
1.0
 17
0.0
 27
0.0
 37
0.0
 40
22.33275808991992
 41
1.814583333333333
 42
50.0
 43
0.0
 44
0.0
 50
0.0
 51
0.0
 71
     0
 72
   100
 73
     1
 74
     3
 75
     0
 76
     0
 77
     0
 78
     0
281
     0
 65
     1
110
0.0
120
0.0
130
0.0
111
1.0
121
0.0
131
0.0
112
0.0
122
1.0
132
0.0
 79
     0
146
0.0
  0
ENDTAB
  0
TABLE
  2
LTYPE
  5
5
330
0
100
AcDbSymbolTable
 70
     2
  0
LTYPE
  5
14
330
5
100
AcDbSymbolTableRecord
100
AcDbLinetypeTableRecord
  2
ByBlock
 70
     0
  3

 72
    65
 73
     0
 40
0.0
  0
LTYPE
  5
15
330
5
100
AcDbSymbolTableRecord
100
AcDbLinetypeTableRecord
  2
ByLayer
 70
     0
  3

 72
    65
 73
     0
 40
0.0
  0
LTYPE
  5
16
330
5
100
AcDbSymbolTableRecord
100
AcDbLinetypeTableRecord
  2
Continuous
 70
     0
  3
Solid line
 72
    65
 73
     0
 40
0.0
  0
LTYPE
  5
9A6
330
5
100
AcDbSymbolTableRecord
100
AcDbLinetypeTableRecord
  2
HIDDEN
 70
     0
  3
Hidden __ __ __ __ __ __ __ __ __ __ __ __ __ _
 72
    65
 73
     2
 40
0.375
 49
0.25
 74
     0
 49
-0.125
 74
     0
  0
ENDTAB
  0
TABLE
  2
LAYER
  5
2
330
0
100
AcDbSymbolTable
 70
     1
  0
LAYER
  5
10
330
2
100
AcDbSymbolTableRecord
100
AcDbLayerTableRecord
  2
0
 70
     0
 62
     7
  6
Continuous
370
    -3
390
F
  0
ENDTAB
  0
TABLE
  2
STYLE
  5
3
330
0
100
AcDbSymbolTable
 70
     2
  0
STYLE
  5
11
330
3
100
AcDbSymbolTableRecord
100
AcDbTextStyleTableRecord
  2
Standard
 70
     0
 40
0.0
 41
1.0
 50
0.0
 71
     0
 42
0.2
  3
txt
  4

  0
STYLE
  5
9A5
330
3
100
AcDbSymbolTableRecord
100
AcDbTextStyleTableRecord
  2

 70
     1
 40
0.0
 41
1.0
 50
0.0
 71
     0
 42
0.2
  3
ltypeshp.shx
  4

  0
ENDTAB
  0
TABLE
  2
VIEW
  5
6
330
0
100
AcDbSymbolTable
 70
     0
  0
ENDTAB
  0
TABLE
  2
UCS
  5
7
330
0
100
AcDbSymbolTable
 70
     0
  0
ENDTAB
  0
TABLE
  2
APPID
  5
9
330
0
100
AcDbSymbolTable
 70
     1
  0
APPID
  5
12
330
9
100
AcDbSymbolTableRecord
100
AcDbRegAppTableRecord
  2
ACAD
 70
     0
  0
ENDTAB
  0
TABLE
  2
DIMSTYLE
  5
A
330
0
100
AcDbSymbolTable
 70
     1
100
AcDbDimStyleTable
  0
DIMSTYLE
105
27
330
A
100
AcDbSymbolTableRecord
100
AcDbDimStyleTableRecord
  2
Standard
 70
     0
  3

  4

340
11
  0
ENDTAB
  0
TABLE
  2
BLOCK_RECORD
  5
1
330
0
100
AcDbSymbolTable
 70
     1
  0
BLOCK_RECORD
  5
1F
330
1
100
AcDbSymbolTableRecord
100
AcDbBlockTableRecord
  2
*Model_Space
340
22
  0
BLOCK_RECORD
  5
1B
330
1
100
AcDbSymbolTableRecord
100
AcDbBlockTableRecord
  2
*Paper_Space
340
1E
  0
BLOCK_RECORD
  5
23
330
1
100
AcDbSymbolTableRecord
100
AcDbBlockTableRecord
  2
*Paper_Space0
340
26
  0
ENDTAB
  0
ENDSEC
  0
SECTION
  2
BLOCKS
  0
BLOCK
  5
20
330
1F
100
AcDbEntity
  8
0
100
AcDbBlockBegin
  2
*Model_Space
 70
     0
 10
0.0
 20
0.0
 30
0.0
  3
*Model_Space
  1

  4

  0
ENDBLK
  5
21
330
1F
100
AcDbEntity
  8
0
100
AcDbBlockEnd
  0
BLOCK
  5
1C
330
1B
100
AcDbEntity
 67
     1
  8
0
100
AcDbBlockBegin
  2
*Paper_Space
 70
     0
 10
0.0
 20
0.0
 30
0.0
  3
*Paper_Space
  1

  4

  0
ENDBLK
  5
1D
330
1B
100
AcDbEntity
 67
     1
  8
0
100
AcDbBlockEnd
  0
BLOCK
  5
24
330
23
100
AcDbEntity
  8
0
100
AcDbBlockBegin
  2
*Paper_Space0
 70
     0
 10
0.0
 20
0.0
 30
0.0
  3
*Paper_Space0
  1

  4

  0
ENDBLK
  5
25
330
23
100
AcDbEntity
  8
0
100
AcDbBlockEnd
  0
ENDSEC
  0
SECTION
  2
ENTITIES
  0
LWPOLYLINE
  5
906
330
1F
100
AcDbEntity
  8
0
  6
Continuous
100
AcDbPolyline
 90
        7
 70
     1
 43
0.0
 10
1.595511995398621
 20
4.730402050178864
 10
1.758261995398609
 20
4.636438293868235
 42
-0.5773502691896388
 10
1.758261995398609
 20
4.582311706131701
 10
1.595511995398621
 20
4.488347949821085
 42
-0.5773502691896069
 10
1.548636995398621
 20
4.515411243689352
 10
1.548636995398621
 20
4.609374999999982
 10
1.548636995398621
 20
4.703338756310597
 42
-0.5773502691896409
  0
LINE
  5
907
330
1F
100
AcDbEntity
  8
0
  6
Continuous
100
AcDbLine
 10
1.071636995398645
 20
4.349300461042313
 30
0.0
 11
1.071636995398617
 21
4.974300461042315
 31
0.0
  0
LINE
  5
908
330
1F
100
AcDbEntity
  8
0
100
AcDbLine
 10
3.147326964499147
 20
7.156249999999869
 30
0.0
 11
3.147326964499133
 21
0.1692424821282543
 31
0.0
  0
LINE
  5
909
330
1F
100
AcDbEntity
  8
0
  6
Continuous
100
AcDbLine
 10
3.196636995398674
 20
0.2144555937132502
 30
0.0
 11
3.196636995398674
 21
7.156249999999869
 31
0.0
  0
LINE
  5
90A
330
1F
100
AcDbEntity
  8
0
100
AcDbLine
 10
-0.4303923493126725
 20
-0.0000000000000053
 30
0.0
 11
3.069607650687328
 21
-0.0000000000000053
 31
0.0
  0
LINE
  5
90B
330
1F
100
AcDbEntity
  8
0
  6
HIDDEN
100
AcDbLine
 10
-0.4018678589679219
 20
0.0624999999999947
 30
0.0
 11
3.069607650687328
 21
0.0624999999999947
 31
0.0
  0
CIRCLE
  5
90C
330
1F
100
AcDbEntity
  8
0
  6
Continuous
100
AcDbCircle
 10
1.634136995398631
 20
1.609375000000055
 30
0.0
 40
0.0855
  0
ARC
  5
90D
330
1F
100
AcDbEntity
  8
0
  6
Continuous
100
AcDbCircle
 10
0.0716369953986593
 20
1.975654439278651
 30
0.0
 40
1.000000000000003
100
AcDbArc
 50
315.000000000001
 51
0.0000000000024427
  0
LINE
  5
90E
330
1F
100
AcDbEntity
  8
0
  6
Continuous
100
AcDbLine
 10
-0.2533919048498952
 20
0.1776966094065902
 30
0.0
 11
0.7787437765852197
 21
1.268547658092114
 31
0.0
  0
ARC
  5
90F
330
1F
100
AcDbEntity
  8
0
  6
Continuous
100
AcDbCircle
 10
0.1001614857432962
 20
-0.1758567811866687
 30
0.0
 40
0.4999999999999432
100
AcDbArc
 50
134.9999999999953
 51
159.4078398862809
  0
LINE
  5
910
330
1F
100
AcDbEntity
  8
0
100
AcDbLine
 10
-0.3393678589679219
 20
0.0624999999999947
 30
0.0
 11
-0.4303923493126725
 21
0.0624999999999947
 31
0.0
  0
LINE
  5
911
330
1F
100
AcDbEntity
  8
0
100
AcDbLine
 10
-0.4303923493126725
 20
-0.0000000000000053
 30
0.0
 11
-0.4303923493126725
 21
0.0624999999999947
 31
0.0
  0
CIRCLE
  5
912
330
1F
100
AcDbEntity
  8
0
  6
Continuous
100
AcDbCircle
 10
1.196636995398631
 20
0.8750000000000551
 30
0.0
 40
0.0855
  0
CIRCLE
  5
913
330
1F
100
AcDbEntity
  8
0
  6
Continuous
100
AcDbCircle
 10
1.634136995398631
 20
3.109375000000002
 30
0.0
 40
0.0855
  0
LINE
  5
914
330
1F
100
AcDbEntity
  8
0
  6
Continuous
100
AcDbLine
 10
1.071636995398652
 20
1.97565443927868
 30
0.0
 11
1.071636995398617
 21
3.224300461042299
 31
0.0
  0
CIRCLE
  5
915
330
1F
100
AcDbEntity
  8
0
  6
Continuous
100
AcDbCircle
 10
1.946636995398631
 20
2.109375000000041
 30
0.0
 40
0.0855
  0
ARC
  5
916
330
1F
100
AcDbEntity
  8
0
  6
Continuous
100
AcDbCircle
 10
1.196636995398631
 20
4.349300461042306
 30
0.0
 40
0.1249999999999858
100
AcDbArc
 50
179.9999999999935
 51
269.9999999999935
  0
ARC
  5
917
330
1F
100
AcDbEntity
  8
0
  6
Continuous
100
AcDbCircle
 10
1.196636995398631
 20
3.224300461042306
 30
0.0
 40
0.1250000000000142
100
AcDbArc
 50
89.99999999999349
 51
180.0
  0
LINE
  5
918
330
1F
100
AcDbEntity
  8
0
  6
Continuous
100
AcDbLine
 10
1.384136995398645
 20
3.474300461042327
 30
0.0
 11
1.384136995398617
 21
4.099300461042313
 31
0.0
  0
ARC
  5
919
330
1F
100
AcDbEntity
  8
0
  6
Continuous
100
AcDbCircle
 10
1.259136995398631
 20
3.474300461042335
 30
0.0
 40
0.1250000000000142
100
AcDbArc
 50
269.9999999999935
 51
0.0
  0
LINE
  5
91A
330
1F
100
AcDbEntity
  8
0
  6
Continuous
100
AcDbLine
 10
1.196636995398645
 20
3.349300461042313
 30
0.0
 11
1.259136995398617
 21
3.349300461042313
 31
0.0
  0
CIRCLE
  5
91B
330
1F
100
AcDbEntity
  8
0
  6
Continuous
100
AcDbCircle
 10
1.946636995398631
 20
3.609374999999988
 30
0.0
 40
0.0855
  0
ARC
  5
91C
330
1F
100
AcDbEntity
  8
0
  6
Continuous
100
AcDbCircle
 10
1.259136995398631
 20
4.099300461042335
 30
0.0
 40
0.1249999999999858
100
AcDbArc
 50
359.9999999999934
 51
89.99999999999349
  0
LINE
  5
91D
330
1F
100
AcDbEntity
  8
0
  6
Continuous
100
AcDbLine
 10
1.259136995398645
 20
4.224300461042313
 30
0.0
 11
1.196636995398617
 21
4.224300461042313
 31
0.0
  0
ARC
  5
91E
330
1F
100
AcDbEntity
  8
0
  6
Continuous
100
AcDbCircle
 10
3.50913699539856
 20
-0.1758567811866687
 30
0.0
 40
0.4999999999999437
100
AcDbArc
 50
128.6821874534725
 51
151.5290213442328
  0
LINE
  5
91F
330
1F
100
AcDbEntity
  8
0
100
AcDbLine
 10
3.069607650687328
 20
0.0624999999999947
 30
0.0
 11
3.069607650687328
 21
-0.0000000000000053
 31
0.0
  0
CIRCLE
  5
920
330
1F
100
AcDbEntity
  8
0
  6
Continuous
100
AcDbCircle
 10
2.259136995398617
 20
1.109375000000055
 30
0.0
 40
0.0855
  0
CIRCLE
  5
921
330
1F
100
AcDbEntity
  8
0
  6
Continuous
100
AcDbCircle
 10
2.259136995398617
 20
2.609375000000002
 30
0.0
 40
0.0855
  0
ARC
  5
922
330
1F
100
AcDbEntity
  8
0
  6
Continuous
100
AcDbCircle
 10
3.196636995398659
 20
2.64162499999985
 30
0.0
 40
0.1875
100
AcDbArc
 50
105.247364245756
 51
254.752635754244
  0
ARC
  5
923
330
1F
100
AcDbEntity
  8
0
  6
Continuous
100
AcDbCircle
 10
3.006636995398647
 20
3.406249999999874
 30
0.0
 40
0.06
100
AcDbArc
 50
121.6311662755244
 51
238.368833724476
  0
LINE
  5
924
330
1F
100
AcDbEntity
  8
0
  6
Continuous
100
AcDbLine
 10
3.147326964499126
 20
3.249122719822827
 30
0.0
 11
2.975170047670357
 21
3.355163492968524
 31
0.0
  0
LINE
  5
925
330
1F
100
AcDbEntity
  8
0
  6
Continuous
100
AcDbLine
 10
3.147326964499126
 20
3.563377280176908
 30
0.0
 11
2.975170047670357
 21
3.457336507031224
 31
0.0
  0
LWPOLYLINE
  5
926
330
1F
100
AcDbEntity
  8
0
  6
Continuous
100
AcDbPolyline
 90
        7
 70
     1
 43
0.0
 10
2.220511995398621
 20
4.230402050178848
 10
2.383261995398623
 20
4.136438293868233
 42
-0.5773502691896388
 10
2.383261995398623
 20
4.0823117061317
 10
2.220511995398621
 20
3.988347949821113
 42
-0.5773502691895971
 10
2.173636995398621
 20
4.01541124368938
 10
2.173636995398621
 20
4.109374999999981
 10
2.173636995398621
 20
4.203338756310581
 42
-0.5773502691896308
  0
LWPOLYLINE
  5
927
330
1F
100
AcDbEntity
  8
0
100
AcDbPolyline
 90
        7
 70
     1
 43
0.0
 10
2.095511995398621
 20
5.949152050178736
 10
2.258261995398623
 20
5.855188293868121
 42
-0.5773502691896388
 10
2.258261995398623
 20
5.801061706131588
 10
2.095511995398621
 20
5.707097949821002
 42
-0.5773502691895971
 10
2.048636995398621
 20
5.734161243689268
 10
2.048636995398621
 20
5.828124999999869
 10
2.048636995398621
 20
5.922088756310469
 42
-0.5773502691896308
  0
LINE
  5
928
330
1F
100
AcDbEntity
  8
0
  6
Continuous
100
AcDbLine
 10
3.196636995398681
 20
7.156249999999869
 30
0.0
 11
1.384136995398674
 21
7.156249999999869
 31
0.0
  0
ARC
  5
929
330
1F
100
AcDbEntity
  8
0
  6
Continuous
100
AcDbCircle
 10
1.259136995398688
 20
5.849300461042422
 30
0.0
 40
0.1249999999999574
100
AcDbArc
 50
0.0000000000065138
 51
90.00000000000631
  0
ARC
  5
92A
330
1F
100
AcDbEntity
  8
0
  6
Continuous
100
AcDbCircle
 10
1.196636995398631
 20
4.974300461042308
 30
0.0
 40
0.1250000000000142
100
AcDbArc
 50
89.99999999999349
 51
179.9999999999935
  0
ARC
  5
92B
330
1F
100
AcDbEntity
  8
0
  6
Continuous
100
AcDbCircle
 10
1.259136995398631
 20
5.224300461042336
 30
0.0
 40
0.1250000000000142
100
AcDbArc
 50
269.9999999999935
 51
359.9999999999934
  0
LWPOLYLINE
  5
92C
330
1F
100
AcDbEntity
  8
0
  6
Continuous
100
AcDbPolyline
 90
        7
 70
     1
 43
0.0
 10
1.908011995398635
 20
5.230402050178835
 10
2.070761995398609
 20
5.136438293868249
 42
-0.5773502691896388
 10
2.070761995398609
 20
5.082311706131716
 10
1.908011995398635
 20
4.988347949821115
 42
-0.577350269189624
 10
1.861136995398635
 20
5.015411243689382
 10
1.861136995398621
 20
5.109374999999982
 10
1.861136995398635
 20
5.203338756310568
 42
-0.5773502691896237
  0
LINE
  5
92D
330
1F
100
AcDbEntity
  8
0
  6
Continuous
100
AcDbLine
 10
1.196636995398645
 20
5.099300461042315
 30
0.0
 11
1.259136995398617
 21
5.099300461042315
 31
0.0
  0
LINE
  5
92E
330
1F
100
AcDbEntity
  8
0
  6
Continuous
100
AcDbLine
 10
1.384136995398645
 20
5.224300461042315
 30
0.0
 11
1.384136995398645
 21
5.849300461042429
 31
0.0
  0
LINE
  5
92F
330
1F
100
AcDbEntity
  8
0
  6
Continuous
100
AcDbLine
 10
1.384136995398645
 20
5.849300461042429
 30
0.0
 11
1.384136995398645
 21
5.849300461042429
 31
0.0
  0
ARC
  5
930
330
1F
100
AcDbEntity
  8
0
  6
Continuous
100
AcDbCircle
 10
1.196636995398666
 20
6.724300461042358
 30
0.0
 40
0.1250000000000213
100
AcDbArc
 50
89.99999999999675
 51
179.9999999999902
  0
ARC
  5
931
330
1F
100
AcDbEntity
  8
0
  6
Continuous
100
AcDbCircle
 10
1.196636995398631
 20
6.099300461042393
 30
0.0
 40
0.1249999999999574
100
AcDbArc
 50
180.0000000000065
 51
270.0000000000065
  0
LINE
  5
932
330
1F
100
AcDbEntity
  8
0
  6
Continuous
100
AcDbLine
 10
1.071636995398674
 20
6.099300461042372
 30
0.0
 11
1.071636995398645
 21
6.724300461042372
 31
0.0
  0
LWPOLYLINE
  5
933
330
1F
100
AcDbEntity
  8
0
100
AcDbPolyline
 90
        7
 70
     1
 43
0.0
 10
1.314261995398699
 20
6.44915205017875
 10
1.477011995398687
 20
6.355188293868121
 42
-0.5773502691896388
 10
1.477011995398687
 20
6.301061706131588
 10
1.314261995398699
 20
6.207097949820973
 42
-0.5773502691896069
 10
1.267386995398699
 20
6.23416124368924
 10
1.267386995398699
 20
6.328124999999869
 10
1.267386995398699
 20
6.422088756310483
 42
-0.5773502691896409
  0
LINE
  5
934
330
1F
100
AcDbEntity
  8
0
  6
Continuous
100
AcDbLine
 10
1.259136995398674
 20
5.974300461042372
 30
0.0
 11
1.196636995398645
 21
5.974300461042429
 31
0.0
  0
LWPOLYLINE
  5
935
330
1F
100
AcDbEntity
  8
0
100
AcDbPolyline
 90
        7
 70
     1
 43
0.0
 10
1.601485794070204
 20
6.90227705017875
 10
1.764235794070192
 20
6.808313293868121
 42
-0.5773502691896388
 10
1.764235794070192
 20
6.754186706131588
 10
1.601485794070204
 20
6.660222949820973
 42
-0.5773502691896069
 10
1.554610794070204
 20
6.68728624368924
 10
1.554610794070204
 20
6.781249999999869
 10
1.554610794070204
 20
6.875213756310483
 42
-0.5773502691896409
  0
ARC
  5
936
330
1F
100
AcDbEntity
  8
0
  6
Continuous
100
AcDbCircle
 10
1.259136995398666
 20
6.974300461042393
 30
0.0
 40
0.1250000000000178
100
AcDbArc
 50
269.9999999999902
 51
359.9999999999984
  0
LINE
  5
937
330
1F
100
AcDbEntity
  8
0
  6
Continuous
100
AcDbLine
 10
1.196636995398674
 20
6.849300461042372
 30
0.0
 11
1.259136995398645
 21
6.849300461042372
 31
0.0
  0
LINE
  5
938
330
1F
100
AcDbEntity
  8
0
100
AcDbLine
 10
1.384136995398681
 20
6.97430046104239
 30
0.0
 11
1.384136995398674
 21
7.156249999999869
 31
0.0
  0
LINE
  5
939
330
1F
100
AcDbEntity
  8
0
  6
Continuous
100
AcDbLine
 10
3.14732696449914
 20
4.749122719822825
 30
0.0
 11
2.975170047670357
 21
4.855163492968526
 31
0.0
  0
ARC
  5
93A
330
1F
100
AcDbEntity
  8
0
  6
Continuous
100
AcDbCircle
 10
3.006636995398647
 20
4.906249999999876
 30
0.0
 40
0.06
100
AcDbArc
 50
121.6311662755244
 51
238.368833724476
  0
LINE
  5
93B
330
1F
100
AcDbEntity
  8
0
  6
Continuous
100
AcDbLine
 10
3.147326964499126
 20
5.063377280176908
 30
0.0
 11
2.975170047670357
 21
4.957336507031226
 31
0.0
  0
LINE
  5
93C
330
1F
100
AcDbEntity
  8
0
  6
Continuous
100
AcDbLine
 10
3.196636995398666
 20
6.609374999999925
 30
0.0
 11
2.975170047670357
 21
6.472961507031283
 31
0.0
  0
LINE
  5
93D
330
1F
100
AcDbEntity
  8
0
  6
Continuous
100
AcDbLine
 10
3.196636995398666
 20
6.234374999999925
 30
0.0
 11
2.975170047670357
 21
6.370788492968583
 31
0.0
  0
ARC
  5
93E
330
1F
100
AcDbEntity
  8
0
  6
Continuous
100
AcDbCircle
 10
3.006636995398655
 20
6.421874999999933
 30
0.0
 40
0.06
100
AcDbArc
 50
121.6311662755242
 51
238.3688337244758
  0
ENDSEC
  0
SECTION
  2
OBJECTS
  0
DICTIONARY
  5
C
330
0
100
AcDbDictionary
281
     1
  3
ACAD_COLOR
350
995
  3
ACAD_GROUP
350
D
  3
ACAD_LAYOUT
350
1A
  3
ACAD_MATERIAL
350
994
  3
ACAD_MLINESTYLE
350
17
  3
ACAD_PLOTSETTINGS
350
19
  3
ACAD_PLOTSTYLENAME
350
E
  3
ACAD_TABLESTYLE
350
996
  3
ACDBHEADERROUNDTRIPXREC
350
9C5
  3
AcDbVariableDictionary
350
C0
  0
DICTIONARY
  5
995
102
{ACAD_REACTORS
330
C
102
}
330
C
100
AcDbDictionary
281
     1
  0
DICTIONARY
  5
D
102
{ACAD_REACTORS
330
C
102
}
330
C
100
AcDbDictionary
281
     1
  0
DICTIONARY
  5
1A
102
{ACAD_REACTORS
330
C
102
}
330
C
100
AcDbDictionary
281
     1
  3
Layout1
350
1E
  3
Layout2
350
26
  3
Model
350
22
  0
DICTIONARY
  5
994
102
{ACAD_REACTORS
330
C
102
}
330
C
100
AcDbDictionary
281
     1
  0
DICTIONARY
  5
17
102
{ACAD_REACTORS
330
C
102
}
330
C
100
AcDbDictionary
281
     1
  3
Standard
350
18
  0
DICTIONARY
  5
19
102
{ACAD_REACTORS
330
C
102
}
330
C
100
AcDbDictionary
281
     1
  0
ACDBDICTIONARYWDFLT
  5
E
102
{ACAD_REACTORS
330
C
102
}
330
C
100
AcDbDictionary
281
     1
  3
Normal
350
F
100
AcDbDictionaryWithDefault
340
F
  0
DICTIONARY
  5
996
102
{ACAD_REACTORS
330
C
102
}
330
C
100
AcDbDictionary
281
     1
  3
Standard
350
997
  0
DICTIONARY
  5
9C5
102
{ACAD_REACTORS
330
C
102
}
330
C
100
AcDbDictionary
281
     1
  3
COLORDICT
350
9C6
  3
MATERIALDICT
350
9C7
  0
DICTIONARY
  5
C0
102
{ACAD_REACTORS
330
C
102
}
330
C
100
AcDbDictionary
281
     1
  3
CTABLESTYLE
350
9AF
  3
DIMASSOC
350
C2
  3
HIDETEXT
350
C1
  0
LAYOUT
  5
1E
102
{ACAD_REACTORS
330
1A
102
}
102
{ACAD_XDICTIONARY
360
9C8
102
}
330
1A
100
AcDbPlotSettings
  1

  2
X:\Program Files\AutoCAD2002\plotters\DWF ePlot (optimized for plotting).pc3
  4

  6

 40
0.0
 41
0.0
 42
0.0
 43
0.0
 44
0.0
 45
0.0
 46
0.0
 47
0.0
 48
0.0
 49
0.0
140
0.0
141
0.0
142
1.0
143
1.0
 70
   688
 72
     0
 73
     0
 74
     5
  7

 75
    16
147
1.0
148
0.0
149
0.0
100
AcDbLayout
  1
Layout1
 70
     1
 71
     1
 10
0.0
 20
0.0
 11
12.0
 21
9.0
 12
0.0
 22
0.0
 32
0.0
 14
1.000000000000000E+20
 24
1.000000000000000E+20
 34
1.000000000000000E+20
 15
-1.000000000000000E+20
 25
-1.000000000000000E+20
 35
-1.000000000000000E+20
146
0.0
 13
0.0
 23
0.0
 33
0.0
 16
1.0
 26
0.0
 36
0.0
 17
0.0
 27
1.0
 37
0.0
 76
     0
330
1B
  0
LAYOUT
  5
26
102
{ACAD_REACTORS
330
1A
102
}
102
{ACAD_XDICTIONARY
360
9CA
102
}
330
1A
100
AcDbPlotSettings
  1

  2
X:\Program Files\AutoCAD2002\plotters\DWF ePlot (optimized for plotting).pc3
  4

  6

 40
0.0
 41
0.0
 42
0.0
 43
0.0
 44
0.0
 45
0.0
 46
0.0
 47
0.0
 48
0.0
 49
0.0
140
0.0
141
0.0
142
1.0
143
1.0
 70
   688
 72
     0
 73
     0
 74
     5
  7

 75
    16
147
1.0
148
0.0
149
0.0
100
AcDbLayout
  1
Layout2
 70
     1
 71
     2
 10
0.0
 20
0.0
 11
12.0
 21
9.0
 12
0.0
 22
0.0
 32
0.0
 14
0.0
 24
0.0
 34
0.0
 15
0.0
 25
0.0
 35
0.0
146
0.0
 13
0.0
 23
0.0
 33
0.0
 16
1.0
 26
0.0
 36
0.0
 17
0.0
 27
1.0
 37
0.0
 76
     0
330
23
  0
LAYOUT
  5
22
102
{ACAD_REACTORS
330
1A
102
}
102
{ACAD_XDICTIONARY
360
9CC
102
}
330
1A
100
AcDbPlotSettings
  1

  2
X:\Program Files\AutoCAD2002\plotters\DWF ePlot (optimized for plotting).pc3
  4

  6

 40
0.0
 41
0.0
 42
0.0
 43
0.0
 44
0.0
 45
0.0
 46
0.0
 47
0.0
 48
0.0
 49
0.0
140
0.0
141
0.0
142
1.0
143
1.0
 70
  1712
 72
     0
 73
     0
 74
     0
  7

 75
     0
147
1.0
148
0.0
149
0.0
100
AcDbLayout
  1
Model
 70
     1
 71
     0
 10
0.0
 20
0.0
 11
12.0
 21
9.0
 12
0.0
 22
0.0
 32
0.0
 14
0.0
 24
0.0
 34
0.0
 15
0.0
 25
0.0
 35
0.0
146
0.0
 13
0.0
 23
0.0
 33
0.0
 16
1.0
 26
0.0
 36
0.0
 17
0.0
 27
1.0
 37
0.0
 76
     0
330
1F
  0
MLINESTYLE
  5
18
102
{ACAD_REACTORS
330
17
102
}
330
17
100
AcDbMlineStyle
  2
STANDARD
 70
     0
  3

 62
   256
 51
90.0
 52
90.0
 71
     2
 49
0.5
 62
   256
  6
BYLAYER
 49
-0.5
 62
   256
  6
BYLAYER
  0
ACDBPLACEHOLDER
  5
F
102
{ACAD_REACTORS
330
E
102
}
330
E
  0
ACAD_PROXY_OBJECT
  5
997
102
{ACAD_REACTORS
330
996
102
}
330
996
100
AcDbProxyObject
 90
      499
 91
      504
 95
   983063
 70
     0
 93
     1841
310
4214DD185B99185C9928B81E85EB51B8AE3F2E07A17AD46E2B8FC02B5E8DC0F42B1CFD028000000C1008070000C3001FDFF8000000C1003FBFF000000182007F7FE00000030400FEFFC00000060801FDFF8000000C1003FBFF00000018200000000000000681FA0B0000001820100E000186003FBFF000000182007F7FE000
310
00030400FEFFC00000060801FDFF8000000C1003FBFF000000182007F7FE000000304000AD7A3703D0AC73F4160000003040201C00030C007F7FE00000030400FEFFC00000060801FDFF8000000C1003FBFF000000182007F7FE00000030400FEFFC000000608000
340
11
340
11
340
11
 94
        0
  0
XRECORD
  5
9C6
102
{ACAD_REACTORS
330
9C5
102
}
330
9C5
100
AcDbXrecord
340
995
  0
XRECORD
  5
9C7
102
{ACAD_REACTORS
330
9C5
102
}
330
9C5
100
AcDbXrecord
340
994
  0
DICTIONARYVAR
  5
9AF
102
{ACAD_REACTORS
330
C0
102
}
330
C0
100
DictionaryVariables
280
     0
  1
STANDARD
  0
DICTIONARYVAR
  5
C2
102
{ACAD_REACTORS
330
C0
102
}
330
C0
100
DictionaryVariables
280
     0
  1
2
  0
DICTIONARYVAR
  5
C1
102
{ACAD_REACTORS
330
C0
102
}
330
C0
100
DictionaryVariables
280
     0
  1
1
  0
DICTIONARY
  5
9C8
330
1E
100
AcDbDictionary
280
     1
281
     1
  3
ACAD_XREC_ROUNDTRIP
360
9C9
  0
DICTIONARY
  5
9CA
330
26
100
AcDbDictionary
280
     1
281
     1
  3
ACAD_XREC_ROUNDTRIP
360
9CB
  0
DICTIONARY
  5
9CC
330
22
100
AcDbDictionary
280
     1
281
     1
  3
ACAD_XREC_ROUNDTRIP
360
9CD
  0
XRECORD
  5
9C9
102
{ACAD_REACTORS
330
9C8
102
}
330
9C8
100
AcDbXrecord
102
SHADEPLOT
 70
     0
102
SHADEPLOTRESLEVEL
 70
     2
102
SHADEPLOTCUSTOMDPI
 70
   300
  0
XRECORD
  5
9CB
102
{ACAD_REACTORS
330
9CA
102
}
330
9CA
100
AcDbXrecord
102
SHADEPLOT
 70
     0
102
SHADEPLOTRESLEVEL
 70
     2
102
SHADEPLOTCUSTOMDPI
 70
   300
  0
XRECORD
  5
9CD
102
{ACAD_REACTORS
330
9CC
102
}
330
9CC
100
AcDbXrecord
102
SHADEPLOT
 70
     0
102
SHADEPLOTRESLEVEL
 70
     2
102
SHADEPLOTCUSTOMDPI
 70
   300
  0
ENDSEC
  0
EOF
