  0
SECTION
  2
HEADER
  9
$ACADVER
  1
AC1015
  9
$ACADMAINTVER
 70
     6
  9
$DWGCODEPAGE
  3
ANSI_1252
  9
$INSBASE
 10
0.0
 20
0.0
 30
0.0
  9
$EXTMIN
 10
-10.73119369755101
 20
-0.1412116585521517
 30
-0.0000000349181948
  9
$EXTMAX
 10
11.37543018586973
 20
14.94514044125805
 30
0.0000000814935746
  9
$LIMMIN
 10
0.0
 20
0.0
  9
$LIMMAX
 10
42.0
 20
32.0
  9
$ORTHOMODE
 70
     1
  9
$REGENMODE
 70
     1
  9
$FILLMODE
 70
     1
  9
$QTEXTMODE
 70
     0
  9
$MIRRTEXT
 70
     0
  9
$LTSCALE
 40
0.5
  9
$ATTMODE
 70
     1
  9
$TEXTSIZE
 40
0.36
  9
$TRACEWID
 40
0.05
  9
$TEXTSTYLE
  7
STANDARD
  9
$CLAYER
  8
0
  9
$CELTYPE
  6
BYLAYER
  9
$CECOLOR
 62
   256
  9
$CELTSCALE
 40
1.0
  9
$DISPSILH
 70
     0
  9
$DIMSCALE
 40
4.0
  9
$DIMASZ
 40
0.125
  9
$DIMEXO
 40
0.062
  9
$DIMDLI
 40
0.375
  9
$DIMRND
 40
0.0
  9
$DIMDLE
 40
0.0
  9
$DIMEXE
 40
0.08
  9
$DIMTP
 40
0.0
  9
$DIMTM
 40
0.0
  9
$DIMTXT
 40
0.09
  9
$DIMCEN
 40
-0.06
  9
$DIMTSZ
 40
0.0
  9
$DIMTOL
 70
     0
  9
$DIMLIM
 70
     0
  9
$DIMTIH
 70
     1
  9
$DIMTOH
 70
     1
  9
$DIMSE1
 70
     0
  9
$DIMSE2
 70
     0
  9
$DIMTAD
 70
     0
  9
$DIMZIN
 70
     0
  9
$DIMBLK
  1

  9
$DIMASO
 70
     0
  9
$DIMSHO
 70
     0
  9
$DIMPOST
  1

  9
$DIMAPOST
  1

  9
$DIMALT
 70
     0
  9
$DIMALTD
 70
     2
  9
$DIMALTF
 40
25.4
  9
$DIMLFAC
 40
1.0
  9
$DIMTOFL
 70
     0
  9
$DIMTVP
 40
0.0
  9
$DIMTIX
 70
     0
  9
$DIMSOXD
 70
     0
  9
$DIMSAH
 70
     0
  9
$DIMBLK1
  1

  9
$DIMBLK2
  1

  9
$DIMSTYLE
  2
STANDARD
  9
$DIMCLRD
 70
     0
  9
$DIMCLRE
 70
     0
  9
$DIMCLRT
 70
     0
  9
$DIMTFAC
 40
1.0
  9
$DIMGAP
 40
0.09
  9
$DIMJUST
 70
     0
  9
$DIMSD1
 70
     0
  9
$DIMSD2
 70
     0
  9
$DIMTOLJ
 70
     1
  9
$DIMTZIN
 70
     0
  9
$DIMALTZ
 70
     0
  9
$DIMALTTZ
 70
     0
  9
$DIMUPT
 70
     0
  9
$DIMDEC
 70
     6
  9
$DIMTDEC
 70
     6
  9
$DIMALTU
 70
     2
  9
$DIMALTTD
 70
     2
  9
$DIMTXSTY
  7
STANDARD
  9
$DIMAUNIT
 70
     0
  9
$DIMADEC
 70
     0
  9
$DIMALTRND
 40
0.0
  9
$DIMAZIN
 70
     0
  9
$DIMDSEP
 70
    46
  9
$DIMATFIT
 70
     3
  9
$DIMFRAC
 70
     2
  9
$DIMLDRBLK
  1

  9
$DIMLUNIT
 70
     5
  9
$DIMLWD
 70
    -2
  9
$DIMLWE
 70
    -2
  9
$DIMTMOVE
 70
     2
  9
$LUNITS
 70
     2
  9
$LUPREC
 70
     4
  9
$SKETCHINC
 40
0.1
  9
$FILLETRAD
 40
0.0
  9
$AUNITS
 70
     0
  9
$AUPREC
 70
     0
  9
$MENU
  1
acad
  9
$ELEVATION
 40
0.0
  9
$PELEVATION
 40
0.0
  9
$THICKNESS
 40
0.0
  9
$LIMCHECK
 70
     0
  9
$CHAMFERA
 40
0.0
  9
$CHAMFERB
 40
0.0
  9
$CHAMFERC
 40
0.0
  9
$CHAMFERD
 40
0.0
  9
$SKPOLY
 70
     0
  9
$TDCREATE
 40
2448880.712842593
  9
$TDUCREATE
 40
2448881.046175926
  9
$TDUPDATE
 40
2454165.793178727
  9
$TDUUPDATE
 40
2454166.12651206
  9
$TDINDWG
 40
0.5703161806
  9
$TDUSRTIMER
 40
0.5703161806
  9
$USRTIMER
 70
     1
  9
$ANGBASE
 50
0.0
  9
$ANGDIR
 70
     0
  9
$PDMODE
 70
     0
  9
$PDSIZE
 40
0.0
  9
$PLINEWID
 40
0.0
  9
$SPLFRAME
 70
     0
  9
$SPLINETYPE
 70
     6
  9
$SPLINESEGS
 70
     8
  9
$HANDSEED
  5
33A
  9
$SURFTAB1
 70
     6
  9
$SURFTAB2
 70
     6
  9
$SURFTYPE
 70
     6
  9
$SURFU
 70
     6
  9
$SURFV
 70
     6
  9
$UCSBASE
  2

  9
$UCSNAME
  2

  9
$UCSORG
 10
0.0
 20
0.0
 30
0.0
  9
$UCSXDIR
 10
1.0
 20
0.0
 30
0.0
  9
$UCSYDIR
 10
0.0
 20
1.0
 30
0.0
  9
$UCSORTHOREF
  2

  9
$UCSORTHOVIEW
 70
     0
  9
$UCSORGTOP
 10
0.0
 20
0.0
 30
0.0
  9
$UCSORGBOTTOM
 10
0.0
 20
0.0
 30
0.0
  9
$UCSORGLEFT
 10
0.0
 20
0.0
 30
0.0
  9
$UCSORGRIGHT
 10
0.0
 20
0.0
 30
0.0
  9
$UCSORGFRONT
 10
0.0
 20
0.0
 30
0.0
  9
$UCSORGBACK
 10
0.0
 20
0.0
 30
0.0
  9
$PUCSBASE
  2

  9
$PUCSNAME
  2

  9
$PUCSORG
 10
0.0
 20
0.0
 30
0.0
  9
$PUCSXDIR
 10
1.0
 20
0.0
 30
0.0
  9
$PUCSYDIR
 10
0.0
 20
1.0
 30
0.0
  9
$PUCSORTHOREF
  2

  9
$PUCSORTHOVIEW
 70
     0
  9
$PUCSORGTOP
 10
0.0
 20
0.0
 30
0.0
  9
$PUCSORGBOTTOM
 10
0.0
 20
0.0
 30
0.0
  9
$PUCSORGLEFT
 10
0.0
 20
0.0
 30
0.0
  9
$PUCSORGRIGHT
 10
0.0
 20
0.0
 30
0.0
  9
$PUCSORGFRONT
 10
0.0
 20
0.0
 30
0.0
  9
$PUCSORGBACK
 10
0.0
 20
0.0
 30
0.0
  9
$USERI1
 70
     0
  9
$USERI2
 70
     0
  9
$USERI3
 70
     0
  9
$USERI4
 70
     0
  9
$USERI5
 70
     0
  9
$USERR1
 40
0.0
  9
$USERR2
 40
0.0
  9
$USERR3
 40
0.0
  9
$USERR4
 40
0.0
  9
$USERR5
 40
0.0
  9
$WORLDVIEW
 70
     1
  9
$SHADEDGE
 70
     3
  9
$SHADEDIF
 70
    70
  9
$TILEMODE
 70
     1
  9
$MAXACTVP
 70
    16
  9
$PINSBASE
 10
0.0
 20
0.0
 30
0.0
  9
$PLIMCHECK
 70
     0
  9
$PEXTMIN
 10
1.000000000000000E+20
 20
1.000000000000000E+20
 30
1.000000000000000E+20
  9
$PEXTMAX
 10
-1.000000000000000E+20
 20
-1.000000000000000E+20
 30
-1.000000000000000E+20
  9
$PLIMMIN
 10
0.0
 20
0.0
  9
$PLIMMAX
 10
12.0
 20
9.0
  9
$UNITMODE
 70
     0
  9
$VISRETAIN
 70
     0
  9
$PLINEGEN
 70
     0
  9
$PSLTSCALE
 70
     0
  9
$TREEDEPTH
 70
  3020
  9
$CMLSTYLE
  2
STANDARD
  9
$CMLJUST
 70
     0
  9
$CMLSCALE
 40
1.0
  9
$PROXYGRAPHICS
 70
     1
  9
$MEASUREMENT
 70
     0
  9
$CELWEIGHT
370
    -1
  9
$ENDCAPS
280
     0
  9
$JOINSTYLE
280
     0
  9
$LWDISPLAY
290
     0
  9
$INSUNITS
 70
     0
  9
$HYPERLINKBASE
  1

  9
$STYLESHEET
  1

  9
$XEDIT
290
     1
  9
$CEPSNTYPE
380
     0
  9
$PSTYLEMODE
290
     1
  9
$FINGERPRINTGUID
  2
{D2F66ADB-A264-4ADF-B7D5-0BD741C9DFA9}
  9
$VERSIONGUID
  2
{B169BFA9-95B4-4FEE-A464-8F4937D807D5}
  9
$EXTNAMES
290
     1
  9
$PSVPSCALE
 40
0.0
  9
$OLESTARTUP
290
     0
  0
ENDSEC
  0
SECTION
  2
CLASSES
  0
CLASS
  1
DICTIONARYVAR
  2
AcDbDictionaryVar
  3
AutoCAD 2000
 90
        0
280
     0
281
     0
  0
CLASS
  1
LWPOLYLINE
  2
AcDbPolyline
  3
AutoCAD 2000
 90
        0
280
     0
281
     1
  0
CLASS
  1
ACDBDICTIONARYWDFLT
  2
AcDbDictionaryWithDefault
  3
AutoCAD 2000
 90
        0
280
     0
281
     0
  0
CLASS
  1
ACDBPLACEHOLDER
  2
AcDbPlaceHolder
  3
ObjectDBX Classes
 90
        0
280
     0
281
     0
  0
CLASS
  1
LAYOUT
  2
AcDbLayout
  3
ObjectDBX Classes
 90
        0
280
     0
281
     0
  0
CLASS
  1
LONG_TRANSACTION
  2
AcDbLongTransaction
  3
ObjectDBX Classes
 90
   -65536
280
     1
281
     0
  0
CLASS
  1
LWPOLYLINE
  2
AcDbPolyline
  3
AutoCAD 2000
 90
        0
280
     0
281
     1
  0
CLASS
  1
HATCH
  2
AcDbHatch
  3
AutoCAD 2000
 90
        0
280
     0
281
     1
  0
CLASS
  1
XRECORD
  2
AcDbXrecord
  3
AutoCAD 2000
 90
        0
280
     0
281
     0
  0
CLASS
  1
LONG_TRANSACTION
  2
AcDbLongTransaction
  3
ObjectDBX Classes
 90
   -65536
280
     1
281
     0
  0
CLASS
  1
LWPOLYLINE
  2
AcDbPolyline
  3
AutoCAD 2000
 90
        0
280
     0
281
     1
  0
CLASS
  1
HATCH
  2
AcDbHatch
  3
AutoCAD 2000
 90
        0
280
     0
281
     1
  0
CLASS
  1
XRECORD
  2
AcDbXrecord
  3
AutoCAD 2000
 90
        0
280
     0
281
     0
  0
CLASS
  1
LONG_TRANSACTION
  2
AcDbLongTransaction
  3
ObjectDBX Classes
 90
   -65536
280
     1
281
     0
  0
CLASS
  1
LWPOLYLINE
  2
AcDbPolyline
  3
AutoCAD 2000
 90
        0
280
     0
281
     1
  0
CLASS
  1
HATCH
  2
AcDbHatch
  3
AutoCAD 2000
 90
        0
280
     0
281
     1
  0
CLASS
  1
XRECORD
  2
AcDbXrecord
  3
AutoCAD 2000
 90
        0
280
     0
281
     0
  0
CLASS
  1
LONG_TRANSACTION
  2
AcDbLongTransaction
  3
ObjectDBX Classes
 90
   -65536
280
     1
281
     0
  0
CLASS
  1
LWPOLYLINE
  2
AcDbPolyline
  3
AutoCAD 2000
 90
        0
280
     0
281
     1
  0
CLASS
  1
HATCH
  2
AcDbHatch
  3
AutoCAD 2000
 90
        0
280
     0
281
     1
  0
CLASS
  1
XRECORD
  2
AcDbXrecord
  3
AutoCAD 2000
 90
        0
280
     0
281
     0
  0
CLASS
  1
LONG_TRANSACTION
  2
AcDbLongTransaction
  3
ObjectDBX Classes
 90
   -65536
280
     1
281
     0
  0
CLASS
  1
LWPOLYLINE
  2
AcDbPolyline
  3
AutoCAD 2000
 90
        0
280
     0
281
     1
  0
CLASS
  1
HATCH
  2
AcDbHatch
  3
AutoCAD 2000
 90
        0
280
     0
281
     1
  0
CLASS
  1
XRECORD
  2
AcDbXrecord
  3
AutoCAD 2000
 90
        0
280
     0
281
     0
  0
CLASS
  1
LONG_TRANSACTION
  2
AcDbLongTransaction
  3
ObjectDBX Classes
 90
   -65536
280
     1
281
     0
  0
CLASS
  1
LWPOLYLINE
  2
AcDbPolyline
  3
AutoCAD 2000
 90
        0
280
     0
281
     1
  0
CLASS
  1
HATCH
  2
AcDbHatch
  3
AutoCAD 2000
 90
        0
280
     0
281
     1
  0
CLASS
  1
XRECORD
  2
AcDbXrecord
  3
AutoCAD 2000
 90
        0
280
     0
281
     0
  0
CLASS
  1
LONG_TRANSACTION
  2
AcDbLongTransaction
  3
ObjectDBX Classes
 90
   -65536
280
     1
281
     0
  0
CLASS
  1
LWPOLYLINE
  2
AcDbPolyline
  3
AutoCAD 2000
 90
        0
280
     0
281
     1
  0
CLASS
  1
HATCH
  2
AcDbHatch
  3
AutoCAD 2000
 90
        0
280
     0
281
     1
  0
CLASS
  1
XRECORD
  2
AcDbXrecord
  3
AutoCAD 2000
 90
        0
280
     0
281
     0
  0
CLASS
  1
LONG_TRANSACTION
  2
AcDbLongTransaction
  3
ObjectDBX Classes
 90
   -65536
280
     1
281
     0
  0
CLASS
  1
LWPOLYLINE
  2
AcDbPolyline
  3
AutoCAD 2000
 90
        0
280
     0
281
     1
  0
CLASS
  1
HATCH
  2
AcDbHatch
  3
AutoCAD 2000
 90
        0
280
     0
281
     1
  0
CLASS
  1
XRECORD
  2
AcDbXrecord
  3
AutoCAD 2000
 90
        0
280
     0
281
     0
  0
CLASS
  1
LONG_TRANSACTION
  2
AcDbLongTransaction
  3
ObjectDBX Classes
 90
   -65536
280
     1
281
     0
  0
CLASS
  1
LWPOLYLINE
  2
AcDbPolyline
  3
AutoCAD 2000
 90
        0
280
     0
281
     1
  0
CLASS
  1
HATCH
  2
AcDbHatch
  3
AutoCAD 2000
 90
        0
280
     0
281
     1
  0
CLASS
  1
XRECORD
  2
AcDbXrecord
  3
AutoCAD 2000
 90
        0
280
     0
281
     0
  0
CLASS
  1
LONG_TRANSACTION
  2
AcDbLongTransaction
  3
ObjectDBX Classes
 90
   -65536
280
     1
281
     0
  0
CLASS
  1
LWPOLYLINE
  2
AcDbPolyline
  3
AutoCAD 2000
 90
        0
280
     0
281
     1
  0
CLASS
  1
HATCH
  2
AcDbHatch
  3
AutoCAD 2000
 90
        0
280
     0
281
     1
  0
CLASS
  1
XRECORD
  2
AcDbXrecord
  3
AutoCAD 2000
 90
        0
280
     0
281
     0
  0
CLASS
  1
LONG_TRANSACTION
  2
AcDbLongTransaction
  3
ObjectDBX Classes
 90
   -65536
280
     1
281
     0
  0
CLASS
  1
LWPOLYLINE
  2
AcDbPolyline
  3
AutoCAD 2000
 90
        0
280
     0
281
     1
  0
CLASS
  1
HATCH
  2
AcDbHatch
  3
AutoCAD 2000
 90
        0
280
     0
281
     1
  0
CLASS
  1
XRECORD
  2
AcDbXrecord
  3
AutoCAD 2000
 90
        0
280
     0
281
     0
  0
CLASS
  1
LONG_TRANSACTION
  2
AcDbLongTransaction
  3
ObjectDBX Classes
 90
   -65536
280
     1
281
     0
  0
CLASS
  1
LWPOLYLINE
  2
AcDbPolyline
  3
AutoCAD 2000
 90
        0
280
     0
281
     1
  0
CLASS
  1
HATCH
  2
AcDbHatch
  3
AutoCAD 2000
 90
        0
280
     0
281
     1
  0
CLASS
  1
XRECORD
  2
AcDbXrecord
  3
AutoCAD 2000
 90
        0
280
     0
281
     0
  0
CLASS
  1
LONG_TRANSACTION
  2
AcDbLongTransaction
  3
ObjectDBX Classes
 90
   -65536
280
     1
281
     0
  0
CLASS
  1
LWPOLYLINE
  2
AcDbPolyline
  3
AutoCAD 2000
 90
        0
280
     0
281
     1
  0
CLASS
  1
HATCH
  2
AcDbHatch
  3
AutoCAD 2000
 90
        0
280
     0
281
     1
  0
CLASS
  1
XRECORD
  2
AcDbXrecord
  3
AutoCAD 2000
 90
        0
280
     0
281
     0
  0
CLASS
  1
LONG_TRANSACTION
  2
AcDbLongTransaction
  3
ObjectDBX Classes
 90
   -65536
280
     1
281
     0
  0
CLASS
  1
LWPOLYLINE
  2
AcDbPolyline
  3
AutoCAD 2000
 90
        0
280
     0
281
     1
  0
CLASS
  1
HATCH
  2
AcDbHatch
  3
AutoCAD 2000
 90
        0
280
     0
281
     1
  0
CLASS
  1
XRECORD
  2
AcDbXrecord
  3
AutoCAD 2000
 90
        0
280
     0
281
     0
  0
CLASS
  1
LONG_TRANSACTION
  2
AcDbLongTransaction
  3
ObjectDBX Classes
 90
   -65536
280
     1
281
     0
  0
CLASS
  1
LWPOLYLINE
  2
AcDbPolyline
  3
AutoCAD 2000
 90
        0
280
     0
281
     1
  0
CLASS
  1
HATCH
  2
AcDbHatch
  3
AutoCAD 2000
 90
        0
280
     0
281
     1
  0
CLASS
  1
XRECORD
  2
AcDbXrecord
  3
AutoCAD 2000
 90
        0
280
     0
281
     0
  0
CLASS
  1
LONG_TRANSACTION
  2
AcDbLongTransaction
  3
ObjectDBX Classes
 90
   -65536
280
     1
281
     0
  0
CLASS
  1
LWPOLYLINE
  2
AcDbPolyline
  3
AutoCAD 2000
 90
        0
280
     0
281
     1
  0
CLASS
  1
HATCH
  2
AcDbHatch
  3
AutoCAD 2000
 90
        0
280
     0
281
     1
  0
CLASS
  1
XRECORD
  2
AcDbXrecord
  3
AutoCAD 2000
 90
        0
280
     0
281
     0
  0
CLASS
  1
LONG_TRANSACTION
  2
AcDbLongTransaction
  3
ObjectDBX Classes
 90
   -65536
280
     1
281
     0
  0
CLASS
  1
LWPOLYLINE
  2
AcDbPolyline
  3
AutoCAD 2000
 90
        0
280
     0
281
     1
  0
CLASS
  1
HATCH
  2
AcDbHatch
  3
AutoCAD 2000
 90
        0
280
     0
281
     1
  0
CLASS
  1
XRECORD
  2
AcDbXrecord
  3
AutoCAD 2000
 90
        0
280
     0
281
     0
  0
CLASS
  1
LONG_TRANSACTION
  2
AcDbLongTransaction
  3
ObjectDBX Classes
 90
   -65536
280
     1
281
     0
  0
CLASS
  1
LWPOLYLINE
  2
AcDbPolyline
  3
AutoCAD 2000
 90
        0
280
     0
281
     1
  0
CLASS
  1
HATCH
  2
AcDbHatch
  3
AutoCAD 2000
 90
        0
280
     0
281
     1
  0
CLASS
  1
XRECORD
  2
AcDbXrecord
  3
AutoCAD 2000
 90
        0
280
     0
281
     0
  0
CLASS
  1
LONG_TRANSACTION
  2
AcDbLongTransaction
  3
ObjectDBX Classes
 90
   -65536
280
     1
281
     0
  0
CLASS
  1
LWPOLYLINE
  2
AcDbPolyline
  3
AutoCAD 2000
 90
        0
280
     0
281
     1
  0
CLASS
  1
HATCH
  2
AcDbHatch
  3
AutoCAD 2000
 90
        0
280
     0
281
     1
  0
CLASS
  1
XRECORD
  2
AcDbXrecord
  3
AutoCAD 2000
 90
        0
280
     0
281
     0
  0
CLASS
  1
LONG_TRANSACTION
  2
AcDbLongTransaction
  3
ObjectDBX Classes
 90
   -65536
280
     1
281
     0
  0
CLASS
  1
LWPOLYLINE
  2
AcDbPolyline
  3
AutoCAD 2000
 90
        0
280
     0
281
     1
  0
CLASS
  1
HATCH
  2
AcDbHatch
  3
AutoCAD 2000
 90
        0
280
     0
281
     1
  0
CLASS
  1
XRECORD
  2
AcDbXrecord
  3
AutoCAD 2000
 90
        0
280
     0
281
     0
  0
CLASS
  1
LONG_TRANSACTION
  2
AcDbLongTransaction
  3
ObjectDBX Classes
 90
   -65536
280
     1
281
     0
  0
CLASS
  1
LWPOLYLINE
  2
AcDbPolyline
  3
AutoCAD 2000
 90
        0
280
     0
281
     1
  0
CLASS
  1
HATCH
  2
AcDbHatch
  3
AutoCAD 2000
 90
        0
280
     0
281
     1
  0
CLASS
  1
XRECORD
  2
AcDbXrecord
  3
AutoCAD 2000
 90
        0
280
     0
281
     0
  0
CLASS
  1
LONG_TRANSACTION
  2
AcDbLongTransaction
  3
ObjectDBX Classes
 90
   -65536
280
     1
281
     0
  0
CLASS
  1
LWPOLYLINE
  2
AcDbPolyline
  3
AutoCAD 2000
 90
        0
280
     0
281
     1
  0
CLASS
  1
HATCH
  2
AcDbHatch
  3
AutoCAD 2000
 90
        0
280
     0
281
     1
  0
CLASS
  1
XRECORD
  2
AcDbXrecord
  3
AutoCAD 2000
 90
        0
280
     0
281
     0
  0
CLASS
  1
LONG_TRANSACTION
  2
AcDbLongTransaction
  3
ObjectDBX Classes
 90
   -65536
280
     1
281
     0
  0
CLASS
  1
LWPOLYLINE
  2
AcDbPolyline
  3
AutoCAD 2000
 90
        0
280
     0
281
     1
  0
CLASS
  1
HATCH
  2
AcDbHatch
  3
AutoCAD 2000
 90
        0
280
     0
281
     1
  0
CLASS
  1
XRECORD
  2
AcDbXrecord
  3
AutoCAD 2000
 90
        0
280
     0
281
     0
  0
CLASS
  1
LONG_TRANSACTION
  2
AcDbLongTransaction
  3
ObjectDBX Classes
 90
   -65536
280
     1
281
     0
  0
CLASS
  1
LWPOLYLINE
  2
AcDbPolyline
  3
AutoCAD 2000
 90
        0
280
     0
281
     1
  0
CLASS
  1
HATCH
  2
AcDbHatch
  3
AutoCAD 2000
 90
        0
280
     0
281
     1
  0
CLASS
  1
XRECORD
  2
AcDbXrecord
  3
AutoCAD 2000
 90
        0
280
     0
281
     0
  0
CLASS
  1
LONG_TRANSACTION
  2
AcDbLongTransaction
  3
ObjectDBX Classes
 90
   -65536
280
     1
281
     0
  0
CLASS
  1
LWPOLYLINE
  2
AcDbPolyline
  3
AutoCAD 2000
 90
        0
280
     0
281
     1
  0
CLASS
  1
HATCH
  2
AcDbHatch
  3
AutoCAD 2000
 90
        0
280
     0
281
     1
  0
CLASS
  1
XRECORD
  2
AcDbXrecord
  3
AutoCAD 2000
 90
        0
280
     0
281
     0
  0
CLASS
  1
TABLESTYLE
  2
AcDbTableStyle
  3
ObjectDBX Classes
 90
     2047
280
     1
281
     0
  0
ENDSEC
  0
SECTION
  2
TABLES
  0
TABLE
  2
VPORT
  5
1D
330
0
100
AcDbSymbolTable
 70
     4
  0
VPORT
  5
32A
330
1D
100
AcDbSymbolTableRecord
100
AcDbViewportTableRecord
  2
*Active
 70
     0
 10
0.0
 20
0.0
 11
1.0
 21
1.0
 12
12.10900455288763
 22
10.03113102217451
 13
0.0
 23
0.0
 14
0.063
 24
0.063
 15
0.25
 25
0.25
 16
0.0
 26
0.0
 36
1.0
 17
0.0
 27
0.0
 37
0.0
 40
32.54214150331551
 41
1.814583333333333
 42
50.0
 43
0.0
 44
0.0
 50
0.0
 51
0.0
 71
     0
 72
   100
 73
     1
 74
     1
 75
     0
 76
     0
 77
     0
 78
     0
281
     0
 65
     1
110
0.0
120
0.0
130
0.0
111
1.0
121
0.0
131
0.0
112
0.0
122
1.0
132
0.0
 79
     0
146
0.0
  0
ENDTAB
  0
TABLE
  2
LTYPE
  5
18
330
0
100
AcDbSymbolTable
 70
     2
  0
LTYPE
  5
19
330
18
100
AcDbSymbolTableRecord
100
AcDbLinetypeTableRecord
  2
BYBLOCK
 70
     0
  3

 72
    65
 73
     0
 40
0.0
  0
LTYPE
  5
1A
330
18
100
AcDbSymbolTableRecord
100
AcDbLinetypeTableRecord
  2
BYLAYER
 70
     0
  3

 72
    65
 73
     0
 40
0.0
  0
LTYPE
  5
A
330
18
100
AcDbSymbolTableRecord
100
AcDbLinetypeTableRecord
  2
CONTINUOUS
 70
     0
  3
Solid line
 72
    65
 73
     0
 40
0.0
  0
LTYPE
  5
319
330
18
100
AcDbSymbolTableRecord
100
AcDbLinetypeTableRecord
  2
HIDDEN
 70
     0
  3
Hidden __ __ __ __ __ __ __ __ __ __ __ __ __ _
 72
    65
 73
     2
 40
0.375
 49
0.25
 74
     0
 49
-0.125
 74
     0
  0
ENDTAB
  0
TABLE
  2
LAYER
  5
14
330
0
100
AcDbSymbolTable
 70
     1
  0
LAYER
  5
6
330
14
100
AcDbSymbolTableRecord
100
AcDbLayerTableRecord
  2
0
 70
     0
 62
     7
  6
CONTINUOUS
370
    -3
390
7
  0
ENDTAB
  0
TABLE
  2
STYLE
  5
15
330
0
100
AcDbSymbolTable
 70
     2
  0
STYLE
  5
16
330
15
100
AcDbSymbolTableRecord
100
AcDbTextStyleTableRecord
  2
STANDARD
 70
     0
 40
0.0
 41
1.0
 50
0.0
 71
     0
 42
0.36
  3
TXT
  4

  0
STYLE
  5
318
330
15
100
AcDbSymbolTableRecord
100
AcDbTextStyleTableRecord
  2

 70
     1
 40
0.0
 41
1.0
 50
0.0
 71
     0
 42
0.36
  3
ltypeshp.shx
  4

  0
ENDTAB
  0
TABLE
  2
VIEW
  5
1B
330
0
100
AcDbSymbolTable
 70
     0
  0
ENDTAB
  0
TABLE
  2
UCS
  5
1C
330
0
100
AcDbSymbolTable
 70
     0
  0
ENDTAB
  0
TABLE
  2
APPID
  5
1F
330
0
100
AcDbSymbolTable
 70
     1
  0
APPID
  5
20
330
1F
100
AcDbSymbolTableRecord
100
AcDbRegAppTableRecord
  2
ACAD
 70
     0
  0
ENDTAB
  0
TABLE
  2
DIMSTYLE
  5
21
330
0
100
AcDbSymbolTable
 70
     1
100
AcDbDimStyleTable
  0
DIMSTYLE
105
28
330
21
100
AcDbSymbolTableRecord
100
AcDbDimStyleTableRecord
  2
STANDARD
 70
     0
  3

  4

340
16
  0
ENDTAB
  0
TABLE
  2
BLOCK_RECORD
  5
1
330
0
100
AcDbSymbolTable
 70
     0
  0
BLOCK_RECORD
  5
2
330
1
100
AcDbSymbolTableRecord
100
AcDbBlockTableRecord
  2
*MODEL_SPACE
340
C
  0
BLOCK_RECORD
  5
E
330
1
100
AcDbSymbolTableRecord
100
AcDbBlockTableRecord
  2
*PAPER_SPACE
340
13
  0
ENDTAB
  0
ENDSEC
  0
SECTION
  2
BLOCKS
  0
BLOCK
  5
5
330
2
100
AcDbEntity
  8
0
100
AcDbBlockBegin
  2
*MODEL_SPACE
 70
     0
 10
0.0
 20
0.0
 30
0.0
  3
*MODEL_SPACE
  1

  4

  0
ENDBLK
  5
B
330
2
100
AcDbEntity
  8
0
100
AcDbBlockEnd
  0
BLOCK
  5
11
330
E
100
AcDbEntity
 67
     1
  8
0
100
AcDbBlockBegin
  2
*PAPER_SPACE
 70
     0
 10
0.0
 20
0.0
 30
0.0
  3
*PAPER_SPACE
  1

  4

  0
ENDBLK
  5
12
330
E
100
AcDbEntity
 67
     1
  8
0
100
AcDbBlockEnd
  0
ENDSEC
  0
SECTION
  2
ENTITIES
  0
LINE
  5
22B
330
2
100
AcDbEntity
  8
0
  6
Continuous
100
AcDbLine
 10
2.515083533644333
 20
4.890685776853804
 30
0.0
 11
2.515083533644361
 21
4.265685776853802
 31
0.0
  0
LINE
  5
22C
330
2
100
AcDbEntity
  8
0
100
AcDbLine
 10
1.01508353364439
 20
0.0101353158114694
 30
0.0
 11
1.01508353364439
 21
7.072635315811365
 31
0.0
  0
LINE
  5
22D
330
2
100
AcDbEntity
  8
0
100
AcDbLine
 10
1.07758353364439
 20
0.0101353158114623
 30
0.0
 11
1.077583533644386
 21
7.072635315811365
 31
0.0
  0
LINE
  5
22E
330
2
100
AcDbEntity
  8
0
  6
Continuous
100
AcDbLine
 10
-2.109916466355532
 20
4.890685776853804
 30
0.0
 11
-2.109916466355561
 21
4.265685776853802
 31
0.0
  0
LINE
  5
22F
330
2
100
AcDbEntity
  8
0
100
AcDbLine
 10
-0.6099164663555889
 20
0.0101353158114712
 30
0.0
 11
-0.6099164663555925
 21
7.072635315811368
 31
0.0
  0
LINE
  5
230
330
2
100
AcDbEntity
  8
0
100
AcDbLine
 10
-0.6724164663555889
 20
0.0101353158114641
 30
0.0
 11
-0.6724164663555925
 21
7.072635315811365
 31
0.0
  0
LINE
  5
231
330
2
100
AcDbEntity
  8
0
  6
Continuous
100
AcDbLine
 10
2.22219031483095
 20
1.28376342822134
 30
0.0
 11
1.07758353364439
 21
0.1980947106598858
 31
0.0
  0
LINE
  5
232
330
2
100
AcDbEntity
  8
0
  6
Continuous
100
AcDbLine
 10
1.077583533644393
 20
3.471638179340228
 30
0.0
 11
1.236550481372706
 21
3.373721822842711
 31
0.0
  0
LINE
  5
233
330
2
100
AcDbEntity
  8
0
  6
Continuous
100
AcDbLine
 10
1.077583533644393
 20
3.17363245228248
 30
0.0
 11
1.236550481372706
 21
3.271548808780011
 31
0.0
  0
ARC
  5
234
330
2
100
AcDbEntity
  8
0
  6
Continuous
100
AcDbCircle
 10
1.015083533644376
 20
2.558010315811337
 30
0.0
 40
0.1875
100
AcDbArc
 50
289.4712206344954
 51
70.52877936550463
  0
ARC
  5
235
330
2
100
AcDbEntity
  8
0
100
AcDbCircle
 10
0.9525835336443898
 20
0.0101353158114623
 30
0.0
 40
0.125
100
AcDbArc
 50
270.0000000000001
 51
0.000000000000007
  0
ARC
  5
236
330
2
100
AcDbEntity
  8
0
  6
Continuous
100
AcDbCircle
 10
-1.109916466355589
 20
1.990870209407875
 30
0.0
 40
1.0
100
AcDbArc
 50
179.9999999999976
 51
224.999999999999
  0
LINE
  5
237
330
2
100
AcDbEntity
  8
0
  6
Continuous
100
AcDbLine
 10
-1.817023247542149
 20
1.28376342822134
 30
0.0
 11
-0.6724164663555889
 21
0.1980947106598858
 31
0.0
  0
CIRCLE
  5
238
330
2
100
AcDbEntity
  8
0
  6
Continuous
100
AcDbCircle
 10
-1.172416466355575
 20
1.058010315811339
 30
0.0
 40
0.0855
  0
CIRCLE
  5
239
330
2
100
AcDbEntity
  8
0
  6
Continuous
100
AcDbCircle
 10
-1.641166466355575
 20
1.558010315811339
 30
0.0
 40
0.0855
  0
LINE
  5
23A
330
2
100
AcDbEntity
  8
0
100
AcDbLine
 10
0.9525835336443898
 20
-0.1148646841885377
 30
0.0
 11
-0.5474164663555889
 21
-0.1148646841885359
 31
0.0
  0
LINE
  5
23B
330
2
100
AcDbEntity
  8
0
100
AcDbLine
 10
0.9525835336443898
 20
-0.0523646841885306
 30
0.0
 11
-0.5474164663555889
 21
-0.0523646841885288
 31
0.0
  0
ARC
  5
23C
330
2
100
AcDbEntity
  8
0
100
AcDbCircle
 10
-0.5474164663555889
 20
0.0101353158114641
 30
0.0
 40
0.125
100
AcDbArc
 50
180.0
 51
269.9999999999999
  0
ARC
  5
23D
330
2
100
AcDbEntity
  8
0
100
AcDbCircle
 10
-0.5474164663555889
 20
0.0101353158114712
 30
0.0
 40
0.0625
100
AcDbArc
 50
180.0
 51
269.9999999999998
  0
ARC
  5
23E
330
2
100
AcDbEntity
  8
0
100
AcDbCircle
 10
0.9525835336443898
 20
0.0101353158114694
 30
0.0
 40
0.0625
100
AcDbArc
 50
270.0000000000002
 51
0.000000000000007
  0
CIRCLE
  5
23F
330
2
100
AcDbEntity
  8
0
  6
Continuous
100
AcDbCircle
 10
-1.172416466355575
 20
4.057010315811363
 30
0.0
 40
0.0855
  0
CIRCLE
  5
240
330
2
100
AcDbEntity
  8
0
  6
Continuous
100
AcDbCircle
 10
-1.172416466355575
 20
2.058010315811339
 30
0.0
 40
0.0855
  0
CIRCLE
  5
241
330
2
100
AcDbEntity
  8
0
  6
Continuous
100
AcDbCircle
 10
-1.172416466355575
 20
3.058010315811339
 30
0.0
 40
0.0855
  0
ARC
  5
242
330
2
100
AcDbEntity
  8
0
  6
Continuous
100
AcDbCircle
 10
-2.234916466355539
 20
3.140685776853795
 30
0.0
 40
0.1250000000000142
100
AcDbArc
 50
0.000000000000007
 51
90.00000000000976
  0
LINE
  5
243
330
2
100
AcDbEntity
  8
0
  6
Continuous
100
AcDbLine
 10
-2.109916466355525
 20
3.140685776853788
 30
0.0
 11
-2.109916466355564
 21
1.990870209407913
 31
0.0
  0
CIRCLE
  5
244
330
2
100
AcDbEntity
  8
0
  6
Continuous
100
AcDbCircle
 10
-1.641166466355575
 20
2.558010315811339
 30
0.0
 40
0.0855
  0
LINE
  5
245
330
2
100
AcDbEntity
  8
0
  6
Continuous
100
AcDbLine
 10
-2.234916466355532
 20
4.140685776853802
 30
0.0
 11
-2.297416466355561
 21
4.140685776853802
 31
0.0
  0
LINE
  5
246
330
2
100
AcDbEntity
  8
0
  6
Continuous
100
AcDbLine
 10
-2.297416466355532
 20
3.265685776853802
 30
0.0
 11
-2.234916466355561
 21
3.265685776853802
 31
0.0
  0
LINE
  5
247
330
2
100
AcDbEntity
  8
0
  6
Continuous
100
AcDbLine
 10
-2.422416466355532
 20
4.015685776853802
 30
0.0
 11
-2.422416466355561
 21
3.390685776853816
 31
0.0
  0
ARC
  5
248
330
2
100
AcDbEntity
  8
0
  6
Continuous
100
AcDbCircle
 10
-2.297416466355546
 20
3.390685776853823
 30
0.0
 40
0.1250000000000142
100
AcDbArc
 50
180.0
 51
270.0000000000065
  0
ARC
  5
249
330
2
100
AcDbEntity
  8
0
  6
Continuous
100
AcDbCircle
 10
-2.297416466355546
 20
4.015685776853823
 30
0.0
 40
0.1249999999999858
100
AcDbArc
 50
90.00000000000649
 51
180.0000000000066
  0
CIRCLE
  5
24A
330
2
100
AcDbEntity
  8
0
  6
Continuous
100
AcDbCircle
 10
-2.141166466355582
 20
3.85388531581142
 30
0.0
 40
0.0855
  0
CIRCLE
  5
24B
330
2
100
AcDbEntity
  8
0
  6
Continuous
100
AcDbCircle
 10
-1.641166466355575
 20
3.558010315811339
 30
0.0
 40
0.0855
  0
ARC
  5
24C
330
2
100
AcDbEntity
  8
0
  6
Continuous
100
AcDbCircle
 10
-2.234916466355546
 20
4.265685776853795
 30
0.0
 40
0.1249999999999858
100
AcDbArc
 50
270.0000000000065
 51
0.0000000000064699
  0
LINE
  5
24D
330
2
100
AcDbEntity
  8
0
  6
Continuous
100
AcDbLine
 10
-0.6724164663555925
 20
3.173632452282481
 30
0.0
 11
-0.8313834140839056
 21
3.271548808780013
 31
0.0
  0
ARC
  5
24E
330
2
100
AcDbEntity
  8
0
  6
Continuous
100
AcDbCircle
 10
-0.6099164663555747
 20
2.558010315811339
 30
0.0
 40
0.1875
100
AcDbArc
 50
109.4712206344954
 51
250.5287793655046
  0
ARC
  5
24F
330
2
100
AcDbEntity
  8
0
  6
Continuous
100
AcDbCircle
 10
-0.799916466355608
 20
3.322635315811363
 30
0.0
 40
0.06
100
AcDbArc
 50
121.631166275524
 51
238.368833724476
  0
LINE
  5
250
330
2
100
AcDbEntity
  8
0
  6
Continuous
100
AcDbLine
 10
-0.6724164663555925
 20
3.47163817934023
 30
0.0
 11
-0.8313834140839056
 21
3.373721822842713
 31
0.0
  0
ARC
  5
251
330
2
100
AcDbEntity
  8
0
  6
Continuous
100
AcDbCircle
 10
1.51508353364439
 20
1.990870209407875
 30
0.0
 40
1.0
100
AcDbArc
 50
315.000000000001
 51
0.0000000000024497
  0
CIRCLE
  5
252
330
2
100
AcDbEntity
  8
0
  6
Continuous
100
AcDbCircle
 10
1.577583533644376
 20
1.058010315811339
 30
0.0
 40
0.0855
  0
CIRCLE
  5
253
330
2
100
AcDbEntity
  8
0
  6
Continuous
100
AcDbCircle
 10
2.046333533644376
 20
1.558010315811339
 30
0.0
 40
0.0855
  0
ARC
  5
254
330
2
100
AcDbEntity
  8
0
  6
Continuous
100
AcDbCircle
 10
2.64008353364434
 20
3.140685776853795
 30
0.0
 40
0.1250000000000142
100
AcDbArc
 50
89.99999999999025
 51
180.0
  0
CIRCLE
  5
255
330
2
100
AcDbEntity
  8
0
  6
Continuous
100
AcDbCircle
 10
2.046333533644376
 20
2.558010315811339
 30
0.0
 40
0.0855
  0
CIRCLE
  5
256
330
2
100
AcDbEntity
  8
0
  6
Continuous
100
AcDbCircle
 10
1.577583533644376
 20
2.058010315811339
 30
0.0
 40
0.0855
  0
CIRCLE
  5
257
330
2
100
AcDbEntity
  8
0
  6
Continuous
100
AcDbCircle
 10
1.577583533644376
 20
3.058010315811339
 30
0.0
 40
0.0855
  0
LINE
  5
258
330
2
100
AcDbEntity
  8
0
  6
Continuous
100
AcDbLine
 10
2.515083533644326
 20
3.140685776853788
 30
0.0
 11
2.515083533644365
 21
1.990870209407913
 31
0.0
  0
ARC
  5
259
330
2
100
AcDbEntity
  8
0
  6
Continuous
100
AcDbCircle
 10
1.205083533644409
 20
3.322635315811361
 30
0.0
 40
0.06
100
AcDbArc
 50
301.631166275524
 51
58.36883372447599
  0
CIRCLE
  5
25A
330
2
100
AcDbEntity
  8
0
  6
Continuous
100
AcDbCircle
 10
2.046333533644376
 20
3.558010315811339
 30
0.0
 40
0.0855
  0
CIRCLE
  5
25B
330
2
100
AcDbEntity
  8
0
  6
Continuous
100
AcDbCircle
 10
1.577583533644376
 20
4.057010315811363
 30
0.0
 40
0.0855
  0
CIRCLE
  5
25C
330
2
100
AcDbEntity
  8
0
  6
Continuous
100
AcDbCircle
 10
2.546333533644383
 20
3.85388531581142
 30
0.0
 40
0.0855
  0
LINE
  5
25D
330
2
100
AcDbEntity
  8
0
  6
Continuous
100
AcDbLine
 10
2.827583533644333
 20
4.015685776853802
 30
0.0
 11
2.827583533644361
 21
3.390685776853816
 31
0.0
  0
ARC
  5
25E
330
2
100
AcDbEntity
  8
0
  6
Continuous
100
AcDbCircle
 10
2.702583533644347
 20
3.390685776853823
 30
0.0
 40
0.1250000000000142
100
AcDbArc
 50
269.9999999999935
 51
0.000000000000007
  0
LINE
  5
25F
330
2
100
AcDbEntity
  8
0
  6
Continuous
100
AcDbLine
 10
2.702583533644333
 20
3.265685776853802
 30
0.0
 11
2.640083533644361
 21
3.265685776853802
 31
0.0
  0
ARC
  5
260
330
2
100
AcDbEntity
  8
0
  6
Continuous
100
AcDbCircle
 10
2.702583533644347
 20
4.015685776853823
 30
0.0
 40
0.1249999999999858
100
AcDbArc
 50
359.9999999999934
 51
89.99999999999351
  0
ARC
  5
261
330
2
100
AcDbEntity
  8
0
  6
Continuous
100
AcDbCircle
 10
2.640083533644347
 20
4.265685776853795
 30
0.0
 40
0.1249999999999858
100
AcDbArc
 50
179.9999999999936
 51
269.9999999999935
  0
LINE
  5
262
330
2
100
AcDbEntity
  8
0
  6
Continuous
100
AcDbLine
 10
2.640083533644333
 20
4.140685776853802
 30
0.0
 11
2.702583533644361
 21
4.140685776853802
 31
0.0
  0
LINE
  5
263
330
2
100
AcDbEntity
  8
0
  6
Continuous
100
AcDbLine
 10
2.827583533644383
 20
7.072635315811358
 30
0.0
 11
1.01508353364439
 21
7.072635315811365
 31
0.0
  0
LINE
  5
264
330
2
100
AcDbEntity
  8
0
  6
Continuous
100
AcDbLine
 10
1.077583533644393
 20
6.565388179340228
 30
0.0
 11
1.236550481372706
 21
6.467471822842715
 31
0.0
  0
LINE
  5
265
330
2
100
AcDbEntity
  8
0
  6
Continuous
100
AcDbLine
 10
1.077583533644393
 20
6.26738245228248
 30
0.0
 11
1.236550481372706
 21
6.365298808780015
 31
0.0
  0
LINE
  5
266
330
2
100
AcDbEntity
  8
0
  6
Continuous
100
AcDbLine
 10
1.077583533644393
 20
4.971638179340228
 30
0.0
 11
1.236550481372706
 21
4.873721822842711
 31
0.0
  0
LINE
  5
267
330
2
100
AcDbEntity
  8
0
  6
Continuous
100
AcDbLine
 10
1.077583533644393
 20
4.67363245228248
 30
0.0
 11
1.236550481372706
 21
4.771548808780011
 31
0.0
  0
LINE
  5
268
330
2
100
AcDbEntity
  8
0
100
AcDbLine
 10
-2.422416466355582
 20
7.072635315811358
 30
0.0
 11
-2.422416466355589
 21
6.890685776853875
 31
0.0
  0
CIRCLE
  5
269
330
2
100
AcDbEntity
  8
0
100
AcDbCircle
 10
-1.172416466355568
 20
6.775760315811358
 30
0.0
 40
0.0855
  0
CIRCLE
  5
26A
330
2
100
AcDbEntity
  8
0
  6
Continuous
100
AcDbCircle
 10
-1.172416466355575
 20
5.057010315811365
 30
0.0
 40
0.0855
  0
CIRCLE
  5
26B
330
2
100
AcDbEntity
  8
0
100
AcDbCircle
 10
-2.141166466355582
 20
5.603885315811358
 30
0.0
 40
0.0855
  0
LINE
  5
26C
330
2
100
AcDbEntity
  8
0
  6
Continuous
100
AcDbLine
 10
-2.422416466355561
 20
5.765685776853918
 30
0.0
 11
-2.422416466355561
 21
5.140685776853804
 31
0.0
  0
LINE
  5
26D
330
2
100
AcDbEntity
  8
0
  6
Continuous
100
AcDbLine
 10
-2.297416466355532
 20
5.015685776853804
 30
0.0
 11
-2.234916466355561
 21
5.015685776853804
 31
0.0
  0
ARC
  5
26E
330
2
100
AcDbEntity
  8
0
  6
Continuous
100
AcDbCircle
 10
-2.297416466355546
 20
5.140685776853825
 30
0.0
 40
0.1250000000000142
100
AcDbArc
 50
180.0000000000066
 51
270.0000000000065
  0
CIRCLE
  5
26F
330
2
100
AcDbEntity
  8
0
  6
Continuous
100
AcDbCircle
 10
-1.641166466355575
 20
4.558010315811341
 30
0.0
 40
0.0855
  0
ARC
  5
270
330
2
100
AcDbEntity
  8
0
  6
Continuous
100
AcDbCircle
 10
-2.234916466355546
 20
4.890685776853797
 30
0.0
 40
0.1250000000000142
100
AcDbArc
 50
0.0000000000064699
 51
90.00000000000649
  0
LINE
  5
271
330
2
100
AcDbEntity
  8
0
100
AcDbLine
 10
-2.297416466355561
 20
6.765685776853861
 30
0.0
 11
-2.234916466355589
 21
6.765685776853861
 31
0.0
  0
LINE
  5
272
330
2
100
AcDbEntity
  8
0
100
AcDbLine
 10
-2.234916466355561
 20
5.890685776853918
 30
0.0
 11
-2.297416466355589
 21
5.890685776853861
 31
0.0
  0
ARC
  5
273
330
2
100
AcDbEntity
  8
0
100
AcDbCircle
 10
-2.297416466355603
 20
5.765685776853903
 30
0.0
 40
0.1249999999999574
100
AcDbArc
 50
89.99999999999351
 51
179.9999999999935
  0
ARC
  5
274
330
2
100
AcDbEntity
  8
0
100
AcDbCircle
 10
-2.297416466355575
 20
6.890685776853875
 30
0.0
 40
0.1250000000000142
100
AcDbArc
 50
180.0
 51
270.0000000000065
  0
CIRCLE
  5
275
330
2
100
AcDbEntity
  8
0
100
AcDbCircle
 10
-1.641166466355568
 20
6.276760315811334
 30
0.0
 40
0.0855
  0
LINE
  5
276
330
2
100
AcDbEntity
  8
0
100
AcDbLine
 10
-2.109916466355568
 20
6.640685776853847
 30
0.0
 11
-2.109916466355589
 21
6.015685776853861
 31
0.0
  0
ARC
  5
277
330
2
100
AcDbEntity
  8
0
100
AcDbCircle
 10
-2.234916466355546
 20
6.015685776853875
 30
0.0
 40
0.1249999999999574
100
AcDbArc
 50
269.9999999999935
 51
359.9999999999935
  0
ARC
  5
278
330
2
100
AcDbEntity
  8
0
100
AcDbCircle
 10
-2.234916466355582
 20
6.640685776853847
 30
0.0
 40
0.1250000000000107
100
AcDbArc
 50
359.9999999999984
 51
90.00000000000328
  0
ARC
  5
279
330
2
100
AcDbEntity
  8
0
  6
Continuous
100
AcDbCircle
 10
-0.799916466355608
 20
4.822635315811365
 30
0.0
 40
0.06
100
AcDbArc
 50
121.631166275524
 51
238.368833724476
  0
LINE
  5
27A
330
2
100
AcDbEntity
  8
0
  6
Continuous
100
AcDbLine
 10
-0.6724164663555925
 20
4.67363245228248
 30
0.0
 11
-0.8313834140839056
 21
4.771548808780015
 31
0.0
  0
LINE
  5
27B
330
2
100
AcDbEntity
  8
0
  6
Continuous
100
AcDbLine
 10
-0.6724164663555925
 20
4.971638179340228
 30
0.0
 11
-0.8313834140839056
 21
4.873721822842715
 31
0.0
  0
LINE
  5
27C
330
2
100
AcDbEntity
  8
0
  6
Continuous
100
AcDbLine
 10
-0.6724164663555925
 20
6.26738245228248
 30
0.0
 11
-0.8313834140839056
 21
6.365298808780015
 31
0.0
  0
ARC
  5
27D
330
2
100
AcDbEntity
  8
0
  6
Continuous
100
AcDbCircle
 10
-0.799916466355608
 20
6.416385315811365
 30
0.0
 40
0.06
100
AcDbArc
 50
121.631166275524
 51
238.368833724476
  0
LINE
  5
27E
330
2
100
AcDbEntity
  8
0
  6
Continuous
100
AcDbLine
 10
-0.6724164663555925
 20
6.565388179340228
 30
0.0
 11
-0.8313834140839056
 21
6.467471822842715
 31
0.0
  0
LINE
  5
27F
330
2
100
AcDbEntity
  8
0
  6
Continuous
100
AcDbLine
 10
-2.422416466355582
 20
7.072635315811358
 30
0.0
 11
-0.6099164663555889
 21
7.072635315811365
 31
0.0
  0
LINE
  5
280
330
2
100
AcDbEntity
  8
0
100
AcDbLine
 10
2.827583533644383
 20
7.072635315811358
 30
0.0
 11
2.82758353364439
 21
6.890685776853875
 31
0.0
  0
LINE
  5
281
330
2
100
AcDbEntity
  8
0
  6
Continuous
100
AcDbLine
 10
2.827583533644361
 20
5.765685776853918
 30
0.0
 11
2.827583533644361
 21
5.140685776853804
 31
0.0
  0
CIRCLE
  5
282
330
2
100
AcDbEntity
  8
0
100
AcDbCircle
 10
2.546333533644383
 20
5.603885315811358
 30
0.0
 40
0.0855
  0
CIRCLE
  5
283
330
2
100
AcDbEntity
  8
0
  6
Continuous
100
AcDbCircle
 10
1.577583533644376
 20
5.057010315811365
 30
0.0
 40
0.0855
  0
ARC
  5
284
330
2
100
AcDbEntity
  8
0
  6
Continuous
100
AcDbCircle
 10
1.205083533644409
 20
4.822635315811361
 30
0.0
 40
0.06
100
AcDbArc
 50
301.631166275524
 51
58.36883372447599
  0
CIRCLE
  5
285
330
2
100
AcDbEntity
  8
0
  6
Continuous
100
AcDbCircle
 10
2.046333533644376
 20
4.558010315811341
 30
0.0
 40
0.0855
  0
ARC
  5
286
330
2
100
AcDbEntity
  8
0
  6
Continuous
100
AcDbCircle
 10
2.702583533644347
 20
5.140685776853825
 30
0.0
 40
0.1250000000000142
100
AcDbArc
 50
269.9999999999935
 51
359.9999999999934
  0
ARC
  5
287
330
2
100
AcDbEntity
  8
0
  6
Continuous
100
AcDbCircle
 10
2.640083533644347
 20
4.890685776853797
 30
0.0
 40
0.1250000000000142
100
AcDbArc
 50
89.99999999999351
 51
179.9999999999936
  0
LINE
  5
288
330
2
100
AcDbEntity
  8
0
  6
Continuous
100
AcDbLine
 10
2.702583533644333
 20
5.015685776853804
 30
0.0
 11
2.640083533644361
 21
5.015685776853804
 31
0.0
  0
CIRCLE
  5
289
330
2
100
AcDbEntity
  8
0
100
AcDbCircle
 10
2.046333533644368
 20
6.276760315811334
 30
0.0
 40
0.0855
  0
CIRCLE
  5
28A
330
2
100
AcDbEntity
  8
0
100
AcDbCircle
 10
1.577583533644368
 20
6.775760315811358
 30
0.0
 40
0.0855
  0
ARC
  5
28B
330
2
100
AcDbEntity
  8
0
  6
Continuous
100
AcDbCircle
 10
1.205083533644409
 20
6.416385315811365
 30
0.0
 40
0.06
100
AcDbArc
 50
301.631166275524
 51
58.36883372447599
  0
LINE
  5
28C
330
2
100
AcDbEntity
  8
0
100
AcDbLine
 10
2.515083533644368
 20
6.640685776853847
 30
0.0
 11
2.51508353364439
 21
6.015685776853861
 31
0.0
  0
ARC
  5
28D
330
2
100
AcDbEntity
  8
0
100
AcDbCircle
 10
2.702583533644404
 20
5.765685776853903
 30
0.0
 40
0.1249999999999574
100
AcDbArc
 50
0.0000000000065208
 51
90.00000000000649
  0
ARC
  5
28E
330
2
100
AcDbEntity
  8
0
100
AcDbCircle
 10
2.640083533644347
 20
6.015685776853875
 30
0.0
 40
0.1249999999999574
100
AcDbArc
 50
180.0000000000066
 51
270.0000000000065
  0
LINE
  5
28F
330
2
100
AcDbEntity
  8
0
100
AcDbLine
 10
2.640083533644361
 20
5.890685776853918
 30
0.0
 11
2.70258353364439
 21
5.890685776853861
 31
0.0
  0
ARC
  5
290
330
2
100
AcDbEntity
  8
0
100
AcDbCircle
 10
2.702583533644376
 20
6.890685776853875
 30
0.0
 40
0.1250000000000142
100
AcDbArc
 50
269.9999999999935
 51
0.000000000000007
  0
ARC
  5
291
330
2
100
AcDbEntity
  8
0
100
AcDbCircle
 10
2.640083533644383
 20
6.640685776853847
 30
0.0
 40
0.1250000000000107
100
AcDbArc
 50
89.99999999999673
 51
180.0000000000016
  0
LINE
  5
292
330
2
100
AcDbEntity
  8
0
100
AcDbLine
 10
2.702583533644361
 20
6.765685776853861
 30
0.0
 11
2.64008353364439
 21
6.765685776853861
 31
0.0
  0
ENDSEC
  0
SECTION
  2
OBJECTS
  0
DICTIONARY
  5
9
330
0
100
AcDbDictionary
281
     1
  3
ACAD_COLOR
350
311
  3
ACAD_GROUP
350
23
  3
ACAD_LAYOUT
350
D
  3
ACAD_MATERIAL
350
310
  3
ACAD_MLINESTYLE
350
24
  3
ACAD_PLOTSETTINGS
350
25
  3
ACAD_PLOTSTYLENAME
350
8
  3
ACAD_TABLESTYLE
350
312
  3
ACDBHEADERROUNDTRIPXREC
350
333
  3
AcDbVariableDictionary
350
135
  0
DICTIONARY
  5
311
102
{ACAD_REACTORS
330
9
102
}
330
9
100
AcDbDictionary
281
     1
  0
DICTIONARY
  5
23
102
{ACAD_REACTORS
330
9
102
}
330
9
100
AcDbDictionary
281
     1
  0
DICTIONARY
  5
D
102
{ACAD_REACTORS
330
9
102
}
330
9
100
AcDbDictionary
281
     1
  3
Layout1
350
13
  3
Model
350
C
  0
DICTIONARY
  5
310
102
{ACAD_REACTORS
330
9
102
}
330
9
100
AcDbDictionary
281
     1
  0
DICTIONARY
  5
24
102
{ACAD_REACTORS
330
9
102
}
330
9
100
AcDbDictionary
281
     1
  3
STANDARD
350
27
  0
DICTIONARY
  5
25
102
{ACAD_REACTORS
330
9
102
}
330
9
100
AcDbDictionary
281
     1
  0
ACDBDICTIONARYWDFLT
  5
8
102
{ACAD_REACTORS
330
9
102
}
330
9
100
AcDbDictionary
281
     1
  3
Normal
350
7
100
AcDbDictionaryWithDefault
340
7
  0
DICTIONARY
  5
312
102
{ACAD_REACTORS
330
9
102
}
330
9
100
AcDbDictionary
281
     1
  3
Standard
350
313
  0
DICTIONARY
  5
333
102
{ACAD_REACTORS
330
9
102
}
330
9
100
AcDbDictionary
281
     1
  3
COLORDICT
350
334
  3
MATERIALDICT
350
335
  0
DICTIONARY
  5
135
102
{ACAD_REACTORS
330
9
102
}
330
9
100
AcDbDictionary
281
     1
  3
CTABLESTYLE
350
330
  3
HIDETEXT
350
332
  0
LAYOUT
  5
13
102
{ACAD_REACTORS
330
D
102
}
102
{ACAD_XDICTIONARY
360
336
102
}
330
D
100
AcDbPlotSettings
  1

  2
C:\ACAD2000\plotters\HP LaserJet 2100 Series PS.pc3
  4

  6

 40
0.0
 41
0.0
 42
0.0
 43
0.0
 44
0.0
 45
0.0
 46
0.0
 47
0.0
 48
0.0
 49
0.0
140
0.0
141
0.0
142
1.0
143
1.0
 70
   688
 72
     0
 73
     0
 74
     5
  7

 75
    16
147
1.0
148
0.0
149
0.0
100
AcDbLayout
  1
Layout1
 70
     0
 71
     1
 10
0.0
 20
0.0
 11
12.0
 21
9.0
 12
0.0
 22
0.0
 32
0.0
 14
1.000000000000000E+20
 24
1.000000000000000E+20
 34
1.000000000000000E+20
 15
-1.000000000000000E+20
 25
-1.000000000000000E+20
 35
-1.000000000000000E+20
146
0.0
 13
0.0
 23
0.0
 33
0.0
 16
1.0
 26
0.0
 36
0.0
 17
0.0
 27
1.0
 37
0.0
 76
     0
330
E
  0
LAYOUT
  5
C
102
{ACAD_REACTORS
330
D
102
}
102
{ACAD_XDICTIONARY
360
338
102
}
330
D
100
AcDbPlotSettings
  1

  2
HP LaserJet 2100 Series PS
  4
Letter
  6

 40
3.174999952316284
 41
3.174999952316284
 42
3.175003051757813
 43
3.17498779296875
 44
215.9000091552734
 45
279.3999938964844
 46
0.0
 47
0.0
 48
0.0
 49
0.0
140
0.0
141
0.0
142
1.0
143
5.090908941468881
 70
 28336
 72
     0
 73
     1
 74
     2
  7

 75
     0
147
0.1964285771946001
148
0.0
149
0.0
100
AcDbLayout
  1
Model
 70
     1
 71
     0
 10
0.0
 20
0.0
 11
12.0
 21
9.0
 12
0.0
 22
0.0
 32
0.0
 14
0.0
 24
0.0
 34
0.0
 15
0.0
 25
0.0
 35
0.0
146
0.0
 13
0.0
 23
0.0
 33
0.0
 16
1.0
 26
0.0
 36
0.0
 17
0.0
 27
1.0
 37
0.0
 76
     0
330
2
  0
MLINESTYLE
  5
27
102
{ACAD_REACTORS
330
24
102
}
330
24
100
AcDbMlineStyle
  2
STANDARD
 70
     0
  3

 62
   256
 51
90.0
 52
90.0
 71
     2
 49
0.5
 62
   256
  6
BYLAYER
 49
-0.5
 62
   256
  6
BYLAYER
  0
ACDBPLACEHOLDER
  5
7
102
{ACAD_REACTORS
330
8
102
}
330
8
  0
ACAD_PROXY_OBJECT
  5
313
102
{ACAD_REACTORS
330
312
102
}
330
312
100
AcDbProxyObject
 90
      499
 91
      605
 95
   983063
 70
     0
 93
     1841
310
4214DD185B99185C9928B81E85EB51B8AE3F2E07A17AD46E2B8FC02B5E8DC0F42B1CFD028000000C1008070000C3001FDFF8000000C1003FBFF000000182007F7FE00000030400FEFFC00000060801FDFF8000000C1003FBFF00000018200000000000000681FA0B0000001820100E000186003FBFF000000182007F7FE000
310
00030400FEFFC00000060801FDFF8000000C1003FBFF000000182007F7FE000000304000AD7A3703D0AC73F4160000003040201C00030C007F7FE00000030400FEFFC00000060801FDFF8000000C1003FBFF000000182007F7FE00000030400FEFFC000000608000
340
16
340
16
340
16
 94
        0
  0
XRECORD
  5
334
102
{ACAD_REACTORS
330
333
102
}
330
333
100
AcDbXrecord
340
311
  0
XRECORD
  5
335
102
{ACAD_REACTORS
330
333
102
}
330
333
100
AcDbXrecord
340
310
  0
DICTIONARYVAR
  5
330
102
{ACAD_REACTORS
330
135
102
}
330
135
100
DictionaryVariables
280
     0
  1
STANDARD
  0
DICTIONARYVAR
  5
332
102
{ACAD_REACTORS
330
135
102
}
330
135
100
DictionaryVariables
280
     0
  1
0
  0
DICTIONARY
  5
336
330
13
100
AcDbDictionary
280
     1
281
     1
  3
ACAD_XREC_ROUNDTRIP
360
337
  0
DICTIONARY
  5
338
330
C
100
AcDbDictionary
280
     1
281
     1
  3
ACAD_XREC_ROUNDTRIP
360
339
  0
XRECORD
  5
337
102
{ACAD_REACTORS
330
336
102
}
330
336
100
AcDbXrecord
102
SHADEPLOT
 70
     0
102
SHADEPLOTRESLEVEL
 70
     2
102
SHADEPLOTCUSTOMDPI
 70
   300
  0
XRECORD
  5
339
102
{ACAD_REACTORS
330
338
102
}
330
338
100
AcDbXrecord
102
SHADEPLOT
 70
     0
102
SHADEPLOTRESLEVEL
 70
     2
102
SHADEPLOTCUSTOMDPI
 70
   300
  0
ENDSEC
  0
EOF
