  0
SECTION
  2
HEADER
  9
$ACADVER
  1
AC1015
  9
$ACADMAINTVER
 70
     6
  9
$DWGCODEPAGE
  3
ANSI_1252
  9
$INSBASE
 10
0.0
 20
0.0
 30
0.0
  9
$EXTMIN
 10
-10.73119369755101
 20
-0.1412116585521517
 30
-0.0000000349181948
  9
$EXTMAX
 10
11.37543018586973
 20
14.94514044125805
 30
0.0000000814935746
  9
$LIMMIN
 10
0.0
 20
0.0
  9
$LIMMAX
 10
42.0
 20
32.0
  9
$ORTHOMODE
 70
     1
  9
$REGENMODE
 70
     1
  9
$FILLMODE
 70
     1
  9
$QTEXTMODE
 70
     0
  9
$MIRRTEXT
 70
     0
  9
$LTSCALE
 40
0.5
  9
$ATTMODE
 70
     1
  9
$TEXTSIZE
 40
0.36
  9
$TRACEWID
 40
0.05
  9
$TEXTSTYLE
  7
STANDARD
  9
$CLAYER
  8
0
  9
$CELTYPE
  6
BYLAYER
  9
$CECOLOR
 62
   256
  9
$CELTSCALE
 40
1.0
  9
$DISPSILH
 70
     0
  9
$DIMSCALE
 40
4.0
  9
$DIMASZ
 40
0.125
  9
$DIMEXO
 40
0.062
  9
$DIMDLI
 40
0.375
  9
$DIMRND
 40
0.0
  9
$DIMDLE
 40
0.0
  9
$DIMEXE
 40
0.08
  9
$DIMTP
 40
0.0
  9
$DIMTM
 40
0.0
  9
$DIMTXT
 40
0.09
  9
$DIMCEN
 40
-0.06
  9
$DIMTSZ
 40
0.0
  9
$DIMTOL
 70
     0
  9
$DIMLIM
 70
     0
  9
$DIMTIH
 70
     1
  9
$DIMTOH
 70
     1
  9
$DIMSE1
 70
     0
  9
$DIMSE2
 70
     0
  9
$DIMTAD
 70
     0
  9
$DIMZIN
 70
     0
  9
$DIMBLK
  1

  9
$DIMASO
 70
     0
  9
$DIMSHO
 70
     0
  9
$DIMPOST
  1

  9
$DIMAPOST
  1

  9
$DIMALT
 70
     0
  9
$DIMALTD
 70
     2
  9
$DIMALTF
 40
25.4
  9
$DIMLFAC
 40
1.0
  9
$DIMTOFL
 70
     0
  9
$DIMTVP
 40
0.0
  9
$DIMTIX
 70
     0
  9
$DIMSOXD
 70
     0
  9
$DIMSAH
 70
     0
  9
$DIMBLK1
  1

  9
$DIMBLK2
  1

  9
$DIMSTYLE
  2
STANDARD
  9
$DIMCLRD
 70
     0
  9
$DIMCLRE
 70
     0
  9
$DIMCLRT
 70
     0
  9
$DIMTFAC
 40
1.0
  9
$DIMGAP
 40
0.09
  9
$DIMJUST
 70
     0
  9
$DIMSD1
 70
     0
  9
$DIMSD2
 70
     0
  9
$DIMTOLJ
 70
     1
  9
$DIMTZIN
 70
     0
  9
$DIMALTZ
 70
     0
  9
$DIMALTTZ
 70
     0
  9
$DIMUPT
 70
     0
  9
$DIMDEC
 70
     6
  9
$DIMTDEC
 70
     6
  9
$DIMALTU
 70
     2
  9
$DIMALTTD
 70
     2
  9
$DIMTXSTY
  7
STANDARD
  9
$DIMAUNIT
 70
     0
  9
$DIMADEC
 70
     0
  9
$DIMALTRND
 40
0.0
  9
$DIMAZIN
 70
     0
  9
$DIMDSEP
 70
    46
  9
$DIMATFIT
 70
     3
  9
$DIMFRAC
 70
     2
  9
$DIMLDRBLK
  1

  9
$DIMLUNIT
 70
     5
  9
$DIMLWD
 70
    -2
  9
$DIMLWE
 70
    -2
  9
$DIMTMOVE
 70
     2
  9
$LUNITS
 70
     2
  9
$LUPREC
 70
     4
  9
$SKETCHINC
 40
0.1
  9
$FILLETRAD
 40
0.0
  9
$AUNITS
 70
     0
  9
$AUPREC
 70
     0
  9
$MENU
  1
acad
  9
$ELEVATION
 40
0.0
  9
$PELEVATION
 40
0.0
  9
$THICKNESS
 40
0.0
  9
$LIMCHECK
 70
     0
  9
$CHAMFERA
 40
0.0
  9
$CHAMFERB
 40
0.0
  9
$CHAMFERC
 40
0.0
  9
$CHAMFERD
 40
0.0
  9
$SKPOLY
 70
     0
  9
$TDCREATE
 40
2448880.712842593
  9
$TDUCREATE
 40
2448881.046175926
  9
$TDUPDATE
 40
2454165.793016146
  9
$TDUUPDATE
 40
2454166.126349479
  9
$TDINDWG
 40
0.5701535995
  9
$TDUSRTIMER
 40
0.5701535995
  9
$USRTIMER
 70
     1
  9
$ANGBASE
 50
0.0
  9
$ANGDIR
 70
     0
  9
$PDMODE
 70
     0
  9
$PDSIZE
 40
0.0
  9
$PLINEWID
 40
0.0
  9
$SPLFRAME
 70
     0
  9
$SPLINETYPE
 70
     6
  9
$SPLINESEGS
 70
     8
  9
$HANDSEED
  5
32A
  9
$SURFTAB1
 70
     6
  9
$SURFTAB2
 70
     6
  9
$SURFTYPE
 70
     6
  9
$SURFU
 70
     6
  9
$SURFV
 70
     6
  9
$UCSBASE
  2

  9
$UCSNAME
  2

  9
$UCSORG
 10
0.0
 20
0.0
 30
0.0
  9
$UCSXDIR
 10
1.0
 20
0.0
 30
0.0
  9
$UCSYDIR
 10
0.0
 20
1.0
 30
0.0
  9
$UCSORTHOREF
  2

  9
$UCSORTHOVIEW
 70
     0
  9
$UCSORGTOP
 10
0.0
 20
0.0
 30
0.0
  9
$UCSORGBOTTOM
 10
0.0
 20
0.0
 30
0.0
  9
$UCSORGLEFT
 10
0.0
 20
0.0
 30
0.0
  9
$UCSORGRIGHT
 10
0.0
 20
0.0
 30
0.0
  9
$UCSORGFRONT
 10
0.0
 20
0.0
 30
0.0
  9
$UCSORGBACK
 10
0.0
 20
0.0
 30
0.0
  9
$PUCSBASE
  2

  9
$PUCSNAME
  2

  9
$PUCSORG
 10
0.0
 20
0.0
 30
0.0
  9
$PUCSXDIR
 10
1.0
 20
0.0
 30
0.0
  9
$PUCSYDIR
 10
0.0
 20
1.0
 30
0.0
  9
$PUCSORTHOREF
  2

  9
$PUCSORTHOVIEW
 70
     0
  9
$PUCSORGTOP
 10
0.0
 20
0.0
 30
0.0
  9
$PUCSORGBOTTOM
 10
0.0
 20
0.0
 30
0.0
  9
$PUCSORGLEFT
 10
0.0
 20
0.0
 30
0.0
  9
$PUCSORGRIGHT
 10
0.0
 20
0.0
 30
0.0
  9
$PUCSORGFRONT
 10
0.0
 20
0.0
 30
0.0
  9
$PUCSORGBACK
 10
0.0
 20
0.0
 30
0.0
  9
$USERI1
 70
     0
  9
$USERI2
 70
     0
  9
$USERI3
 70
     0
  9
$USERI4
 70
     0
  9
$USERI5
 70
     0
  9
$USERR1
 40
0.0
  9
$USERR2
 40
0.0
  9
$USERR3
 40
0.0
  9
$USERR4
 40
0.0
  9
$USERR5
 40
0.0
  9
$WORLDVIEW
 70
     1
  9
$SHADEDGE
 70
     3
  9
$SHADEDIF
 70
    70
  9
$TILEMODE
 70
     1
  9
$MAXACTVP
 70
    16
  9
$PINSBASE
 10
0.0
 20
0.0
 30
0.0
  9
$PLIMCHECK
 70
     0
  9
$PEXTMIN
 10
1.000000000000000E+20
 20
1.000000000000000E+20
 30
1.000000000000000E+20
  9
$PEXTMAX
 10
-1.000000000000000E+20
 20
-1.000000000000000E+20
 30
-1.000000000000000E+20
  9
$PLIMMIN
 10
0.0
 20
0.0
  9
$PLIMMAX
 10
12.0
 20
9.0
  9
$UNITMODE
 70
     0
  9
$VISRETAIN
 70
     0
  9
$PLINEGEN
 70
     0
  9
$PSLTSCALE
 70
     0
  9
$TREEDEPTH
 70
  3020
  9
$CMLSTYLE
  2
STANDARD
  9
$CMLJUST
 70
     0
  9
$CMLSCALE
 40
1.0
  9
$PROXYGRAPHICS
 70
     1
  9
$MEASUREMENT
 70
     0
  9
$CELWEIGHT
370
    -1
  9
$ENDCAPS
280
     0
  9
$JOINSTYLE
280
     0
  9
$LWDISPLAY
290
     0
  9
$INSUNITS
 70
     0
  9
$HYPERLINKBASE
  1

  9
$STYLESHEET
  1

  9
$XEDIT
290
     1
  9
$CEPSNTYPE
380
     0
  9
$PSTYLEMODE
290
     1
  9
$FINGERPRINTGUID
  2
{D2F66ADB-A264-4ADF-B7D5-0BD741C9DFA9}
  9
$VERSIONGUID
  2
{37D92B21-3761-4860-A19A-5EBB53099151}
  9
$EXTNAMES
290
     1
  9
$PSVPSCALE
 40
0.0
  9
$OLESTARTUP
290
     0
  0
ENDSEC
  0
SECTION
  2
CLASSES
  0
CLASS
  1
DICTIONARYVAR
  2
AcDbDictionaryVar
  3
AutoCAD 2000
 90
        0
280
     0
281
     0
  0
CLASS
  1
LWPOLYLINE
  2
AcDbPolyline
  3
AutoCAD 2000
 90
        0
280
     0
281
     1
  0
CLASS
  1
ACDBDICTIONARYWDFLT
  2
AcDbDictionaryWithDefault
  3
AutoCAD 2000
 90
        0
280
     0
281
     0
  0
CLASS
  1
ACDBPLACEHOLDER
  2
AcDbPlaceHolder
  3
ObjectDBX Classes
 90
        0
280
     0
281
     0
  0
CLASS
  1
LAYOUT
  2
AcDbLayout
  3
ObjectDBX Classes
 90
        0
280
     0
281
     0
  0
CLASS
  1
LONG_TRANSACTION
  2
AcDbLongTransaction
  3
ObjectDBX Classes
 90
   -65536
280
     1
281
     0
  0
CLASS
  1
LWPOLYLINE
  2
AcDbPolyline
  3
AutoCAD 2000
 90
        0
280
     0
281
     1
  0
CLASS
  1
HATCH
  2
AcDbHatch
  3
AutoCAD 2000
 90
        0
280
     0
281
     1
  0
CLASS
  1
XRECORD
  2
AcDbXrecord
  3
AutoCAD 2000
 90
        0
280
     0
281
     0
  0
CLASS
  1
LONG_TRANSACTION
  2
AcDbLongTransaction
  3
ObjectDBX Classes
 90
   -65536
280
     1
281
     0
  0
CLASS
  1
LWPOLYLINE
  2
AcDbPolyline
  3
AutoCAD 2000
 90
        0
280
     0
281
     1
  0
CLASS
  1
HATCH
  2
AcDbHatch
  3
AutoCAD 2000
 90
        0
280
     0
281
     1
  0
CLASS
  1
XRECORD
  2
AcDbXrecord
  3
AutoCAD 2000
 90
        0
280
     0
281
     0
  0
CLASS
  1
LONG_TRANSACTION
  2
AcDbLongTransaction
  3
ObjectDBX Classes
 90
   -65536
280
     1
281
     0
  0
CLASS
  1
LWPOLYLINE
  2
AcDbPolyline
  3
AutoCAD 2000
 90
        0
280
     0
281
     1
  0
CLASS
  1
HATCH
  2
AcDbHatch
  3
AutoCAD 2000
 90
        0
280
     0
281
     1
  0
CLASS
  1
XRECORD
  2
AcDbXrecord
  3
AutoCAD 2000
 90
        0
280
     0
281
     0
  0
CLASS
  1
LONG_TRANSACTION
  2
AcDbLongTransaction
  3
ObjectDBX Classes
 90
   -65536
280
     1
281
     0
  0
CLASS
  1
LWPOLYLINE
  2
AcDbPolyline
  3
AutoCAD 2000
 90
        0
280
     0
281
     1
  0
CLASS
  1
HATCH
  2
AcDbHatch
  3
AutoCAD 2000
 90
        0
280
     0
281
     1
  0
CLASS
  1
XRECORD
  2
AcDbXrecord
  3
AutoCAD 2000
 90
        0
280
     0
281
     0
  0
CLASS
  1
LONG_TRANSACTION
  2
AcDbLongTransaction
  3
ObjectDBX Classes
 90
   -65536
280
     1
281
     0
  0
CLASS
  1
LWPOLYLINE
  2
AcDbPolyline
  3
AutoCAD 2000
 90
        0
280
     0
281
     1
  0
CLASS
  1
HATCH
  2
AcDbHatch
  3
AutoCAD 2000
 90
        0
280
     0
281
     1
  0
CLASS
  1
XRECORD
  2
AcDbXrecord
  3
AutoCAD 2000
 90
        0
280
     0
281
     0
  0
CLASS
  1
LONG_TRANSACTION
  2
AcDbLongTransaction
  3
ObjectDBX Classes
 90
   -65536
280
     1
281
     0
  0
CLASS
  1
LWPOLYLINE
  2
AcDbPolyline
  3
AutoCAD 2000
 90
        0
280
     0
281
     1
  0
CLASS
  1
HATCH
  2
AcDbHatch
  3
AutoCAD 2000
 90
        0
280
     0
281
     1
  0
CLASS
  1
XRECORD
  2
AcDbXrecord
  3
AutoCAD 2000
 90
        0
280
     0
281
     0
  0
CLASS
  1
LONG_TRANSACTION
  2
AcDbLongTransaction
  3
ObjectDBX Classes
 90
   -65536
280
     1
281
     0
  0
CLASS
  1
LWPOLYLINE
  2
AcDbPolyline
  3
AutoCAD 2000
 90
        0
280
     0
281
     1
  0
CLASS
  1
HATCH
  2
AcDbHatch
  3
AutoCAD 2000
 90
        0
280
     0
281
     1
  0
CLASS
  1
XRECORD
  2
AcDbXrecord
  3
AutoCAD 2000
 90
        0
280
     0
281
     0
  0
CLASS
  1
LONG_TRANSACTION
  2
AcDbLongTransaction
  3
ObjectDBX Classes
 90
   -65536
280
     1
281
     0
  0
CLASS
  1
LWPOLYLINE
  2
AcDbPolyline
  3
AutoCAD 2000
 90
        0
280
     0
281
     1
  0
CLASS
  1
HATCH
  2
AcDbHatch
  3
AutoCAD 2000
 90
        0
280
     0
281
     1
  0
CLASS
  1
XRECORD
  2
AcDbXrecord
  3
AutoCAD 2000
 90
        0
280
     0
281
     0
  0
CLASS
  1
LONG_TRANSACTION
  2
AcDbLongTransaction
  3
ObjectDBX Classes
 90
   -65536
280
     1
281
     0
  0
CLASS
  1
LWPOLYLINE
  2
AcDbPolyline
  3
AutoCAD 2000
 90
        0
280
     0
281
     1
  0
CLASS
  1
HATCH
  2
AcDbHatch
  3
AutoCAD 2000
 90
        0
280
     0
281
     1
  0
CLASS
  1
XRECORD
  2
AcDbXrecord
  3
AutoCAD 2000
 90
        0
280
     0
281
     0
  0
CLASS
  1
LONG_TRANSACTION
  2
AcDbLongTransaction
  3
ObjectDBX Classes
 90
   -65536
280
     1
281
     0
  0
CLASS
  1
LWPOLYLINE
  2
AcDbPolyline
  3
AutoCAD 2000
 90
        0
280
     0
281
     1
  0
CLASS
  1
HATCH
  2
AcDbHatch
  3
AutoCAD 2000
 90
        0
280
     0
281
     1
  0
CLASS
  1
XRECORD
  2
AcDbXrecord
  3
AutoCAD 2000
 90
        0
280
     0
281
     0
  0
CLASS
  1
LONG_TRANSACTION
  2
AcDbLongTransaction
  3
ObjectDBX Classes
 90
   -65536
280
     1
281
     0
  0
CLASS
  1
LWPOLYLINE
  2
AcDbPolyline
  3
AutoCAD 2000
 90
        0
280
     0
281
     1
  0
CLASS
  1
HATCH
  2
AcDbHatch
  3
AutoCAD 2000
 90
        0
280
     0
281
     1
  0
CLASS
  1
XRECORD
  2
AcDbXrecord
  3
AutoCAD 2000
 90
        0
280
     0
281
     0
  0
CLASS
  1
LONG_TRANSACTION
  2
AcDbLongTransaction
  3
ObjectDBX Classes
 90
   -65536
280
     1
281
     0
  0
CLASS
  1
LWPOLYLINE
  2
AcDbPolyline
  3
AutoCAD 2000
 90
        0
280
     0
281
     1
  0
CLASS
  1
HATCH
  2
AcDbHatch
  3
AutoCAD 2000
 90
        0
280
     0
281
     1
  0
CLASS
  1
XRECORD
  2
AcDbXrecord
  3
AutoCAD 2000
 90
        0
280
     0
281
     0
  0
CLASS
  1
LONG_TRANSACTION
  2
AcDbLongTransaction
  3
ObjectDBX Classes
 90
   -65536
280
     1
281
     0
  0
CLASS
  1
LWPOLYLINE
  2
AcDbPolyline
  3
AutoCAD 2000
 90
        0
280
     0
281
     1
  0
CLASS
  1
HATCH
  2
AcDbHatch
  3
AutoCAD 2000
 90
        0
280
     0
281
     1
  0
CLASS
  1
XRECORD
  2
AcDbXrecord
  3
AutoCAD 2000
 90
        0
280
     0
281
     0
  0
CLASS
  1
LONG_TRANSACTION
  2
AcDbLongTransaction
  3
ObjectDBX Classes
 90
   -65536
280
     1
281
     0
  0
CLASS
  1
LWPOLYLINE
  2
AcDbPolyline
  3
AutoCAD 2000
 90
        0
280
     0
281
     1
  0
CLASS
  1
HATCH
  2
AcDbHatch
  3
AutoCAD 2000
 90
        0
280
     0
281
     1
  0
CLASS
  1
XRECORD
  2
AcDbXrecord
  3
AutoCAD 2000
 90
        0
280
     0
281
     0
  0
CLASS
  1
LONG_TRANSACTION
  2
AcDbLongTransaction
  3
ObjectDBX Classes
 90
   -65536
280
     1
281
     0
  0
CLASS
  1
LWPOLYLINE
  2
AcDbPolyline
  3
AutoCAD 2000
 90
        0
280
     0
281
     1
  0
CLASS
  1
HATCH
  2
AcDbHatch
  3
AutoCAD 2000
 90
        0
280
     0
281
     1
  0
CLASS
  1
XRECORD
  2
AcDbXrecord
  3
AutoCAD 2000
 90
        0
280
     0
281
     0
  0
CLASS
  1
LONG_TRANSACTION
  2
AcDbLongTransaction
  3
ObjectDBX Classes
 90
   -65536
280
     1
281
     0
  0
CLASS
  1
LWPOLYLINE
  2
AcDbPolyline
  3
AutoCAD 2000
 90
        0
280
     0
281
     1
  0
CLASS
  1
HATCH
  2
AcDbHatch
  3
AutoCAD 2000
 90
        0
280
     0
281
     1
  0
CLASS
  1
XRECORD
  2
AcDbXrecord
  3
AutoCAD 2000
 90
        0
280
     0
281
     0
  0
CLASS
  1
LONG_TRANSACTION
  2
AcDbLongTransaction
  3
ObjectDBX Classes
 90
   -65536
280
     1
281
     0
  0
CLASS
  1
LWPOLYLINE
  2
AcDbPolyline
  3
AutoCAD 2000
 90
        0
280
     0
281
     1
  0
CLASS
  1
HATCH
  2
AcDbHatch
  3
AutoCAD 2000
 90
        0
280
     0
281
     1
  0
CLASS
  1
XRECORD
  2
AcDbXrecord
  3
AutoCAD 2000
 90
        0
280
     0
281
     0
  0
CLASS
  1
LONG_TRANSACTION
  2
AcDbLongTransaction
  3
ObjectDBX Classes
 90
   -65536
280
     1
281
     0
  0
CLASS
  1
LWPOLYLINE
  2
AcDbPolyline
  3
AutoCAD 2000
 90
        0
280
     0
281
     1
  0
CLASS
  1
HATCH
  2
AcDbHatch
  3
AutoCAD 2000
 90
        0
280
     0
281
     1
  0
CLASS
  1
XRECORD
  2
AcDbXrecord
  3
AutoCAD 2000
 90
        0
280
     0
281
     0
  0
CLASS
  1
LONG_TRANSACTION
  2
AcDbLongTransaction
  3
ObjectDBX Classes
 90
   -65536
280
     1
281
     0
  0
CLASS
  1
LWPOLYLINE
  2
AcDbPolyline
  3
AutoCAD 2000
 90
        0
280
     0
281
     1
  0
CLASS
  1
HATCH
  2
AcDbHatch
  3
AutoCAD 2000
 90
        0
280
     0
281
     1
  0
CLASS
  1
XRECORD
  2
AcDbXrecord
  3
AutoCAD 2000
 90
        0
280
     0
281
     0
  0
CLASS
  1
LONG_TRANSACTION
  2
AcDbLongTransaction
  3
ObjectDBX Classes
 90
   -65536
280
     1
281
     0
  0
CLASS
  1
LWPOLYLINE
  2
AcDbPolyline
  3
AutoCAD 2000
 90
        0
280
     0
281
     1
  0
CLASS
  1
HATCH
  2
AcDbHatch
  3
AutoCAD 2000
 90
        0
280
     0
281
     1
  0
CLASS
  1
XRECORD
  2
AcDbXrecord
  3
AutoCAD 2000
 90
        0
280
     0
281
     0
  0
CLASS
  1
LONG_TRANSACTION
  2
AcDbLongTransaction
  3
ObjectDBX Classes
 90
   -65536
280
     1
281
     0
  0
CLASS
  1
LWPOLYLINE
  2
AcDbPolyline
  3
AutoCAD 2000
 90
        0
280
     0
281
     1
  0
CLASS
  1
HATCH
  2
AcDbHatch
  3
AutoCAD 2000
 90
        0
280
     0
281
     1
  0
CLASS
  1
XRECORD
  2
AcDbXrecord
  3
AutoCAD 2000
 90
        0
280
     0
281
     0
  0
CLASS
  1
LONG_TRANSACTION
  2
AcDbLongTransaction
  3
ObjectDBX Classes
 90
   -65536
280
     1
281
     0
  0
CLASS
  1
LWPOLYLINE
  2
AcDbPolyline
  3
AutoCAD 2000
 90
        0
280
     0
281
     1
  0
CLASS
  1
HATCH
  2
AcDbHatch
  3
AutoCAD 2000
 90
        0
280
     0
281
     1
  0
CLASS
  1
XRECORD
  2
AcDbXrecord
  3
AutoCAD 2000
 90
        0
280
     0
281
     0
  0
CLASS
  1
LONG_TRANSACTION
  2
AcDbLongTransaction
  3
ObjectDBX Classes
 90
   -65536
280
     1
281
     0
  0
CLASS
  1
LWPOLYLINE
  2
AcDbPolyline
  3
AutoCAD 2000
 90
        0
280
     0
281
     1
  0
CLASS
  1
HATCH
  2
AcDbHatch
  3
AutoCAD 2000
 90
        0
280
     0
281
     1
  0
CLASS
  1
XRECORD
  2
AcDbXrecord
  3
AutoCAD 2000
 90
        0
280
     0
281
     0
  0
CLASS
  1
LONG_TRANSACTION
  2
AcDbLongTransaction
  3
ObjectDBX Classes
 90
   -65536
280
     1
281
     0
  0
CLASS
  1
LWPOLYLINE
  2
AcDbPolyline
  3
AutoCAD 2000
 90
        0
280
     0
281
     1
  0
CLASS
  1
HATCH
  2
AcDbHatch
  3
AutoCAD 2000
 90
        0
280
     0
281
     1
  0
CLASS
  1
XRECORD
  2
AcDbXrecord
  3
AutoCAD 2000
 90
        0
280
     0
281
     0
  0
CLASS
  1
LONG_TRANSACTION
  2
AcDbLongTransaction
  3
ObjectDBX Classes
 90
   -65536
280
     1
281
     0
  0
CLASS
  1
LWPOLYLINE
  2
AcDbPolyline
  3
AutoCAD 2000
 90
        0
280
     0
281
     1
  0
CLASS
  1
HATCH
  2
AcDbHatch
  3
AutoCAD 2000
 90
        0
280
     0
281
     1
  0
CLASS
  1
XRECORD
  2
AcDbXrecord
  3
AutoCAD 2000
 90
        0
280
     0
281
     0
  0
CLASS
  1
TABLESTYLE
  2
AcDbTableStyle
  3
ObjectDBX Classes
 90
     2047
280
     1
281
     0
  0
ENDSEC
  0
SECTION
  2
TABLES
  0
TABLE
  2
VPORT
  5
1D
330
0
100
AcDbSymbolTable
 70
     2
  0
VPORT
  5
31A
330
1D
100
AcDbSymbolTableRecord
100
AcDbViewportTableRecord
  2
*Active
 70
     0
 10
0.0
 20
0.0
 11
1.0
 21
1.0
 12
15.63440315122449
 22
15.92939417072392
 13
0.0
 23
0.0
 14
0.063
 24
0.063
 15
0.25
 25
0.25
 16
0.0
 26
0.0
 36
1.0
 17
0.0
 27
0.0
 37
0.0
 40
32.5421415337108
 41
1.814583333333333
 42
50.0
 43
0.0
 44
0.0
 50
0.0
 51
0.0
 71
     0
 72
   100
 73
     1
 74
     1
 75
     0
 76
     0
 77
     0
 78
     0
281
     0
 65
     1
110
0.0
120
0.0
130
0.0
111
1.0
121
0.0
131
0.0
112
0.0
122
1.0
132
0.0
 79
     0
146
0.0
  0
ENDTAB
  0
TABLE
  2
LTYPE
  5
18
330
0
100
AcDbSymbolTable
 70
     2
  0
LTYPE
  5
19
330
18
100
AcDbSymbolTableRecord
100
AcDbLinetypeTableRecord
  2
BYBLOCK
 70
     0
  3

 72
    65
 73
     0
 40
0.0
  0
LTYPE
  5
1A
330
18
100
AcDbSymbolTableRecord
100
AcDbLinetypeTableRecord
  2
BYLAYER
 70
     0
  3

 72
    65
 73
     0
 40
0.0
  0
LTYPE
  5
A
330
18
100
AcDbSymbolTableRecord
100
AcDbLinetypeTableRecord
  2
CONTINUOUS
 70
     0
  3
Solid line
 72
    65
 73
     0
 40
0.0
  0
LTYPE
  5
319
330
18
100
AcDbSymbolTableRecord
100
AcDbLinetypeTableRecord
  2
HIDDEN
 70
     0
  3
Hidden __ __ __ __ __ __ __ __ __ __ __ __ __ _
 72
    65
 73
     2
 40
0.375
 49
0.25
 74
     0
 49
-0.125
 74
     0
  0
ENDTAB
  0
TABLE
  2
LAYER
  5
14
330
0
100
AcDbSymbolTable
 70
     1
  0
LAYER
  5
6
330
14
100
AcDbSymbolTableRecord
100
AcDbLayerTableRecord
  2
0
 70
     0
 62
     7
  6
CONTINUOUS
370
    -3
390
7
  0
ENDTAB
  0
TABLE
  2
STYLE
  5
15
330
0
100
AcDbSymbolTable
 70
     2
  0
STYLE
  5
16
330
15
100
AcDbSymbolTableRecord
100
AcDbTextStyleTableRecord
  2
STANDARD
 70
     0
 40
0.0
 41
1.0
 50
0.0
 71
     0
 42
0.36
  3
TXT
  4

  0
STYLE
  5
318
330
15
100
AcDbSymbolTableRecord
100
AcDbTextStyleTableRecord
  2

 70
     1
 40
0.0
 41
1.0
 50
0.0
 71
     0
 42
0.36
  3
ltypeshp.shx
  4

  0
ENDTAB
  0
TABLE
  2
VIEW
  5
1B
330
0
100
AcDbSymbolTable
 70
     0
  0
ENDTAB
  0
TABLE
  2
UCS
  5
1C
330
0
100
AcDbSymbolTable
 70
     0
  0
ENDTAB
  0
TABLE
  2
APPID
  5
1F
330
0
100
AcDbSymbolTable
 70
     1
  0
APPID
  5
20
330
1F
100
AcDbSymbolTableRecord
100
AcDbRegAppTableRecord
  2
ACAD
 70
     0
  0
ENDTAB
  0
TABLE
  2
DIMSTYLE
  5
21
330
0
100
AcDbSymbolTable
 70
     1
100
AcDbDimStyleTable
  0
DIMSTYLE
105
28
330
21
100
AcDbSymbolTableRecord
100
AcDbDimStyleTableRecord
  2
STANDARD
 70
     0
  3

  4

340
16
  0
ENDTAB
  0
TABLE
  2
BLOCK_RECORD
  5
1
330
0
100
AcDbSymbolTable
 70
     0
  0
BLOCK_RECORD
  5
2
330
1
100
AcDbSymbolTableRecord
100
AcDbBlockTableRecord
  2
*MODEL_SPACE
340
C
  0
BLOCK_RECORD
  5
E
330
1
100
AcDbSymbolTableRecord
100
AcDbBlockTableRecord
  2
*PAPER_SPACE
340
13
  0
ENDTAB
  0
ENDSEC
  0
SECTION
  2
BLOCKS
  0
BLOCK
  5
5
330
2
100
AcDbEntity
  8
0
100
AcDbBlockBegin
  2
*MODEL_SPACE
 70
     0
 10
0.0
 20
0.0
 30
0.0
  3
*MODEL_SPACE
  1

  4

  0
ENDBLK
  5
B
330
2
100
AcDbEntity
  8
0
100
AcDbBlockEnd
  0
BLOCK
  5
11
330
E
100
AcDbEntity
 67
     1
  8
0
100
AcDbBlockBegin
  2
*PAPER_SPACE
 70
     0
 10
0.0
 20
0.0
 30
0.0
  3
*PAPER_SPACE
  1

  4

  0
ENDBLK
  5
12
330
E
100
AcDbEntity
 67
     1
  8
0
100
AcDbBlockEnd
  0
ENDSEC
  0
SECTION
  2
ENTITIES
  0
LINE
  5
1B9
330
2
100
AcDbEntity
  8
0
100
AcDbLine
 10
-10.67920157480676
 20
7.041385315811372
 30
0.0
 11
-10.67920157480675
 21
0.0543777979397504
 31
0.0
  0
LINE
  5
1BA
330
2
100
AcDbEntity
  8
0
  6
Continuous
100
AcDbLine
 10
-10.72851160570629
 20
0.0995909095247463
 30
0.0
 11
-10.72851160570629
 21
7.041385315811372
 31
0.0
  0
LINE
  5
1BB
330
2
100
AcDbEntity
  8
0
  6
Continuous
100
AcDbLine
 10
-8.603511605706263
 20
4.265685776853809
 30
0.0
 11
-8.603511605706235
 21
4.890685776853811
 31
0.0
  0
LINE
  5
1BC
330
2
100
AcDbEntity
  8
0
100
AcDbLine
 10
-7.104207770650188
 20
-0.114864684188527
 30
0.0
 11
-10.60148226099495
 21
-0.1148646841885093
 31
0.0
  0
LINE
  5
1BD
330
2
100
AcDbEntity
  8
0
  6
Continuous
100
AcDbLine
 10
-7.132732260994949
 20
-0.052364684188527
 30
0.0
 11
-10.60148226099495
 21
-0.0523646841885093
 31
0.0
  0
ARC
  5
1BE
330
2
100
AcDbEntity
  8
0
  6
Continuous
100
AcDbCircle
 10
-11.04101160570618
 20
-0.2907214653751726
 30
0.0
 40
0.4999999999999437
100
AcDbArc
 50
28.47097865576724
 51
51.31781254652735
  0
LINE
  5
1BF
330
2
100
AcDbEntity
  8
0
100
AcDbLine
 10
-10.60148226099495
 20
-0.0523646841885093
 30
0.0
 11
-10.60148226099495
 21
-0.1148646841885093
 31
0.0
  0
LINE
  5
1C0
330
2
100
AcDbEntity
  8
0
  6
Continuous
100
AcDbLine
 10
-10.67920157480674
 20
3.165508035634323
 30
0.0
 11
-10.50704465797798
 21
3.27154880878002
 31
0.0
  0
ARC
  5
1C1
330
2
100
AcDbEntity
  8
0
  6
Continuous
100
AcDbCircle
 10
-10.72851160570628
 20
2.558010315811346
 30
0.0
 40
0.1875
100
AcDbArc
 50
285.2473642457561
 51
74.75263575424388
  0
LINE
  5
1C2
330
2
100
AcDbEntity
  8
0
  6
Continuous
100
AcDbLine
 10
-10.67920157480674
 20
3.479762595988404
 30
0.0
 11
-10.50704465797798
 21
3.37372182284272
 31
0.0
  0
ARC
  5
1C3
330
2
100
AcDbEntity
  8
0
  6
Continuous
100
AcDbCircle
 10
-10.53851160570627
 20
3.32263531581137
 30
0.0
 40
0.06
100
AcDbArc
 50
301.631166275524
 51
58.36883372447566
  0
LINE
  5
1C4
330
2
100
AcDbEntity
  8
0
  6
Continuous
100
AcDbLine
 10
-8.603511605706281
 20
1.859796887358934
 30
0.0
 11
-8.603511605706235
 21
3.140685776853795
 31
0.0
  0
ARC
  5
1C5
330
2
100
AcDbEntity
  8
0
  6
Continuous
100
AcDbCircle
 10
-7.603511605706277
 20
1.859796887358892
 30
0.0
 40
1.000000000000003
100
AcDbArc
 50
179.9999999999976
 51
224.999999999999
  0
CIRCLE
  5
1C6
330
2
100
AcDbEntity
  8
0
  6
Continuous
100
AcDbCircle
 10
-9.47851160570627
 20
1.244510315811469
 30
0.0
 40
0.0855
  0
CIRCLE
  5
1C7
330
2
100
AcDbEntity
  8
0
  6
Continuous
100
AcDbCircle
 10
-9.790511605706218
 20
1.744510315811469
 30
0.0
 40
0.0855
  0
CIRCLE
  5
1C8
330
2
100
AcDbEntity
  8
0
  6
Continuous
100
AcDbCircle
 10
-9.004423662728893
 20
1.150760315811469
 30
0.0
 40
0.0855
  0
LINE
  5
1C9
330
2
100
AcDbEntity
  8
0
  6
Continuous
100
AcDbLine
 10
-7.281208215112972
 20
0.0628319252180898
 30
0.0
 11
-8.308908252763079
 21
1.150760315811469
 31
0.0
  0
ARC
  5
1CA
330
2
100
AcDbEntity
  8
0
  6
Continuous
100
AcDbCircle
 10
-7.634761605706178
 20
-0.2907214653751726
 30
0.0
 40
0.4999999999999432
100
AcDbArc
 50
20.59216011371906
 51
45.00000000000468
  0
LINE
  5
1CB
330
2
100
AcDbEntity
  8
0
100
AcDbLine
 10
-7.104207770650188
 20
-0.114864684188527
 30
0.0
 11
-7.104207770650188
 21
-0.052364684188527
 31
0.0
  0
LINE
  5
1CC
330
2
100
AcDbEntity
  8
0
100
AcDbLine
 10
-7.195232260994946
 20
-0.052364684188527
 30
0.0
 11
-7.104207770650188
 21
-0.052364684188527
 31
0.0
  0
ARC
  5
1CD
330
2
100
AcDbEntity
  8
0
  6
Continuous
100
AcDbCircle
 10
-8.728511605706249
 20
3.140685776853802
 30
0.0
 40
0.1250000000000142
100
AcDbArc
 50
0.000000000000007
 51
90.00000000000649
  0
CIRCLE
  5
1CE
330
2
100
AcDbEntity
  8
0
  6
Continuous
100
AcDbCircle
 10
-9.790511605706218
 20
3.244510315811469
 30
0.0
 40
0.0855
  0
CIRCLE
  5
1CF
330
2
100
AcDbEntity
  8
0
  6
Continuous
100
AcDbCircle
 10
-8.884761605706292
 20
2.619510315811469
 30
0.0
 40
0.0855
  0
CIRCLE
  5
1D0
330
2
100
AcDbEntity
  8
0
  6
Continuous
100
AcDbCircle
 10
-9.197261605706277
 20
2.244510315811469
 30
0.0
 40
0.0855
  0
LINE
  5
1D2
330
2
100
AcDbEntity
  8
0
  6
Continuous
100
AcDbLine
 10
-8.916011605706263
 20
3.390685776853823
 30
0.0
 11
-8.916011605706235
 21
4.015685776853809
 31
0.0
  0
CIRCLE
  5
1D3
330
2
100
AcDbEntity
  8
0
  6
Continuous
100
AcDbCircle
 10
-9.197261605706277
 20
3.744510315811469
 30
0.0
 40
0.0855
  0
ARC
  5
1D4
330
2
100
AcDbEntity
  8
0
  6
Continuous
100
AcDbCircle
 10
-8.791011605706249
 20
3.390685776853831
 30
0.0
 40
0.1250000000000142
100
AcDbArc
 50
180.0
 51
270.0000000000065
  0
LINE
  5
1D5
330
2
100
AcDbEntity
  8
0
  6
Continuous
100
AcDbLine
 10
-8.728511605706263
 20
3.265685776853809
 30
0.0
 11
-8.791011605706235
 21
3.265685776853809
 31
0.0
  0
ARC
  5
1D6
330
2
100
AcDbEntity
  8
0
  6
Continuous
100
AcDbCircle
 10
-8.791011605706249
 20
4.015685776853831
 30
0.0
 40
0.1249999999999858
100
AcDbArc
 50
90.00000000000649
 51
180.0000000000066
  0
LINE
  5
1D7
330
2
100
AcDbEntity
  8
0
  6
Continuous
100
AcDbLine
 10
-8.791011605706263
 20
4.140685776853809
 30
0.0
 11
-8.728511605706235
 21
4.140685776853809
 31
0.0
  0
ARC
  5
1D8
330
2
100
AcDbEntity
  8
0
  6
Continuous
100
AcDbCircle
 10
-8.728511605706249
 20
4.265685776853802
 30
0.0
 40
0.1249999999999858
100
AcDbArc
 50
270.0000000000065
 51
0.0000000000064699
  0
LINE
  5
1D9
330
2
100
AcDbEntity
  8
0
  6
Continuous
100
AcDbLine
 10
-10.72851160570629
 20
7.072635315811372
 30
0.0
 11
-8.916011605706292
 21
7.072635315811365
 31
0.0
  0
LINE
  5
1DA
330
2
100
AcDbEntity
  8
0
  6
Continuous
100
AcDbLine
 10
-10.67920157480676
 20
4.665508035634321
 30
0.0
 11
-10.50704465797798
 21
4.771548808780022
 31
0.0
  0
LINE
  5
1DB
330
2
100
AcDbEntity
  8
0
  6
Continuous
100
AcDbLine
 10
-10.67920157480674
 20
4.979762595988404
 30
0.0
 11
-10.50704465797798
 21
4.873721822842722
 31
0.0
  0
ARC
  5
1DC
330
2
100
AcDbEntity
  8
0
  6
Continuous
100
AcDbCircle
 10
-10.53851160570627
 20
4.822635315811372
 30
0.0
 40
0.06
100
AcDbArc
 50
301.631166275524
 51
58.36883372447566
  0
ARC
  5
1DD
330
2
100
AcDbEntity
  8
0
  6
Continuous
100
AcDbCircle
 10
-10.53851160570627
 20
6.338260315811365
 30
0.0
 40
0.06
100
AcDbArc
 50
301.631166275524
 51
58.36883372447566
  0
LINE
  5
1DE
330
2
100
AcDbEntity
  8
0
  6
Continuous
100
AcDbLine
 10
-10.67920157480677
 20
6.181133035634314
 30
0.0
 11
-10.50704465797798
 21
6.287173808780015
 31
0.0
  0
LINE
  5
1DF
330
2
100
AcDbEntity
  8
0
  6
Continuous
100
AcDbLine
 10
-10.67920157480675
 20
6.495387595988397
 30
0.0
 11
-10.50704465797798
 21
6.389346822842715
 31
0.0
  0
LINE
  5
1E0
330
2
100
AcDbEntity
  8
0
  6
Continuous
100
AcDbLine
 10
-8.916011605706299
 20
6.890685776853882
 30
0.0
 11
-8.916011605706292
 21
7.072635315811365
 31
0.0
  0
LINE
  5
1E1
330
2
100
AcDbEntity
  8
0
  6
Continuous
100
AcDbLine
 10
-8.916011605706263
 20
5.140685776853811
 30
0.0
 11
-8.916011605706263
 21
5.765685776853925
 31
0.0
  0
ARC
  5
1E3
330
2
100
AcDbEntity
  8
0
  6
Continuous
100
AcDbCircle
 10
-8.791011605706249
 20
5.140685776853832
 30
0.0
 40
0.1250000000000142
100
AcDbArc
 50
180.0000000000066
 51
270.0000000000065
  0
LINE
  5
1E5
330
2
100
AcDbEntity
  8
0
  6
Continuous
100
AcDbLine
 10
-8.728511605706263
 20
5.015685776853811
 30
0.0
 11
-8.791011605706235
 21
5.015685776853811
 31
0.0
  0
ARC
  5
1E6
330
2
100
AcDbEntity
  8
0
  6
Continuous
100
AcDbCircle
 10
-8.728511605706249
 20
4.890685776853804
 30
0.0
 40
0.1250000000000142
100
AcDbArc
 50
0.0000000000064699
 51
90.00000000000649
  0
LINE
  5
1EA
330
2
100
AcDbEntity
  8
0
  6
Continuous
100
AcDbLine
 10
-8.603511605706292
 20
6.015685776853868
 30
0.0
 11
-8.603511605706263
 21
6.640685776853868
 31
0.0
  0
ARC
  5
1EB
330
2
100
AcDbEntity
  8
0
  6
Continuous
100
AcDbCircle
 10
-8.791011605706306
 20
5.765685776853911
 30
0.0
 40
0.1249999999999574
100
AcDbArc
 50
89.99999999999351
 51
179.9999999999935
  0
ARC
  5
1EC
330
2
100
AcDbEntity
  8
0
  6
Continuous
100
AcDbCircle
 10
-8.728511605706249
 20
6.015685776853882
 30
0.0
 40
0.1249999999999574
100
AcDbArc
 50
269.9999999999935
 51
359.9999999999935
  0
LINE
  5
1ED
330
2
100
AcDbEntity
  8
0
  6
Continuous
100
AcDbLine
 10
-8.791011605706292
 20
5.890685776853868
 30
0.0
 11
-8.728511605706263
 21
5.890685776853925
 31
0.0
  0
LINE
  5
1EE
330
2
100
AcDbEntity
  8
0
  6
Continuous
100
AcDbLine
 10
-8.916011605706263
 20
5.765685776853925
 30
0.0
 11
-8.916011605706263
 21
5.765685776853925
 31
0.0
  0
ARC
  5
1EF
330
2
100
AcDbEntity
  8
0
  6
Continuous
100
AcDbCircle
 10
-8.791011605706284
 20
6.890685776853882
 30
0.0
 40
0.1250000000000178
100
AcDbArc
 50
180.0000000000016
 51
270.0000000000098
  0
LINE
  5
1F0
330
2
100
AcDbEntity
  8
0
  6
Continuous
100
AcDbLine
 10
-8.728511605706292
 20
6.765685776853868
 30
0.0
 11
-8.791011605706263
 21
6.765685776853868
 31
0.0
  0
ARC
  5
1F1
330
2
100
AcDbEntity
  8
0
  6
Continuous
100
AcDbCircle
 10
-8.728511605706284
 20
6.640685776853847
 30
0.0
 40
0.1250000000000213
100
AcDbArc
 50
0.0000000000097777
 51
90.00000000000328
  0
LINE
  5
1F2
330
2
100
AcDbEntity
  8
0
100
AcDbLine
 10
11.32380396503736
 20
7.072635315811365
 30
0.0
 11
11.32380396503735
 21
0.0856277979397504
 31
0.0
  0
LINE
  5
1F3
330
2
100
AcDbEntity
  8
0
  6
Continuous
100
AcDbLine
 10
11.37311399593692
 20
0.0995909095247747
 30
0.0
 11
11.37311399593689
 21
7.072635315811365
 31
0.0
  0
LINE
  5
1F5
330
2
100
AcDbEntity
  8
0
  6
Continuous
100
AcDbLine
 10
9.248113995936858
 20
4.265685776853809
 30
0.0
 11
9.24811399593683
 21
4.890685776853811
 31
0.0
  0
LINE
  5
1F6
330
2
100
AcDbEntity
  8
0
  6
Continuous
100
AcDbLine
 10
7.774609141570291
 20
-0.0523646841885093
 30
0.0
 11
11.24608465122554
 21
-0.0523646841885093
 31
0.0
  0
LINE
  5
1F7
330
2
100
AcDbEntity
  8
0
100
AcDbLine
 10
7.746084651225541
 20
-0.1148646841885093
 30
0.0
 11
11.24608465122554
 21
-0.1148646841885093
 31
0.0
  0
CIRCLE
  5
1F8
330
2
100
AcDbEntity
  8
0
  6
Continuous
100
AcDbCircle
 10
10.12311399593684
 20
1.994510315811537
 30
0.0
 40
0.0855
  0
LINE
  5
1F9
330
2
100
AcDbEntity
  8
0
  6
Continuous
100
AcDbLine
 10
9.248113995936866
 20
1.892039755090176
 30
0.0
 11
9.24811399593683
 21
3.140685776853795
 31
0.0
  0
LINE
  5
1FA
330
2
100
AcDbEntity
  8
0
  6
Continuous
100
AcDbLine
 10
7.923085095688318
 20
0.0940819252180862
 30
0.0
 11
8.955220777123433
 21
1.18493297390361
 31
0.0
  0
LINE
  5
1FB
330
2
100
AcDbEntity
  8
0
100
AcDbLine
 10
7.837109141570291
 20
-0.0523646841885093
 30
0.0
 11
7.746084651225541
 21
-0.0523646841885093
 31
0.0
  0
ARC
  5
1FC
330
2
100
AcDbEntity
  8
0
  6
Continuous
100
AcDbCircle
 10
8.276638486281524
 20
-0.2907214653751762
 30
0.0
 40
0.4999999999999432
100
AcDbArc
 50
134.9999999999953
 51
159.4078398862809
  0
LINE
  5
1FD
330
2
100
AcDbEntity
  8
0
100
AcDbLine
 10
7.746084651225541
 20
-0.1148646841885093
 30
0.0
 11
7.746084651225541
 21
-0.0523646841885093
 31
0.0
  0
CIRCLE
  5
1FE
330
2
100
AcDbEntity
  8
0
  6
Continuous
100
AcDbCircle
 10
9.498113995936844
 20
0.7601353158115511
 30
0.0
 40
0.0855
  0
ARC
  5
1FF
330
2
100
AcDbEntity
  8
0
  6
Continuous
100
AcDbCircle
 10
8.248113995936873
 20
1.892039755090147
 30
0.0
 40
1.000000000000003
100
AcDbArc
 50
315.000000000001
 51
0.0000000000024427
  0
CIRCLE
  5
200
330
2
100
AcDbEntity
  8
0
  6
Continuous
100
AcDbCircle
 10
9.810613995936844
 20
1.494510315811551
 30
0.0
 40
0.0855
  0
ARC
  5
201
330
2
100
AcDbEntity
  8
0
  6
Continuous
100
AcDbCircle
 10
9.373113995936844
 20
3.140685776853802
 30
0.0
 40
0.1250000000000142
100
AcDbArc
 50
89.99999999999351
 51
180.0
  0
CIRCLE
  5
202
330
2
100
AcDbEntity
  8
0
  6
Continuous
100
AcDbCircle
 10
9.810613995936844
 20
2.994510315811498
 30
0.0
 40
0.0855
  0
ARC
  5
203
330
2
100
AcDbEntity
  8
0
  6
Continuous
100
AcDbCircle
 10
9.435613995936844
 20
4.015685776853831
 30
0.0
 40
0.1249999999999858
100
AcDbArc
 50
359.9999999999934
 51
89.99999999999351
  0
ARC
  5
204
330
2
100
AcDbEntity
  8
0
  6
Continuous
100
AcDbCircle
 10
9.435613995936844
 20
3.390685776853831
 30
0.0
 40
0.1250000000000142
100
AcDbArc
 50
269.9999999999935
 51
0.000000000000007
  0
LINE
  5
205
330
2
100
AcDbEntity
  8
0
  6
Continuous
100
AcDbLine
 10
9.373113995936858
 20
3.265685776853809
 30
0.0
 11
9.43561399593683
 21
3.265685776853809
 31
0.0
  0
LINE
  5
206
330
2
100
AcDbEntity
  8
0
  6
Continuous
100
AcDbLine
 10
9.435613995936858
 20
4.140685776853809
 30
0.0
 11
9.37311399593683
 21
4.140685776853809
 31
0.0
  0
ARC
  5
207
330
2
100
AcDbEntity
  8
0
  6
Continuous
100
AcDbCircle
 10
9.373113995936844
 20
4.265685776853802
 30
0.0
 40
0.1249999999999858
100
AcDbArc
 50
179.9999999999936
 51
269.9999999999935
  0
LINE
  5
208
330
2
100
AcDbEntity
  8
0
  6
Continuous
100
AcDbLine
 10
9.560613995936858
 20
3.390685776853823
 30
0.0
 11
9.56061399593683
 21
4.015685776853809
 31
0.0
  0
CIRCLE
  5
209
330
2
100
AcDbEntity
  8
0
  6
Continuous
100
AcDbCircle
 10
10.12311399593684
 20
3.494510315811484
 30
0.0
 40
0.0855
  0
ARC
  5
20A
330
2
100
AcDbEntity
  8
0
  6
Continuous
100
AcDbCircle
 10
11.41418264431953
 20
-0.0638147363269592
 30
0.0
 40
0.1684875039170453
100
AcDbArc
 50
104.1079112915042
 51
176.1032975062033
  0
LINE
  5
20B
330
2
100
AcDbEntity
  8
0
100
AcDbLine
 10
11.24608465122554
 20
-0.0523646841885093
 30
0.0
 11
11.24608465122554
 21
-0.1148646841885093
 31
0.0
  0
CIRCLE
  5
20C
330
2
100
AcDbEntity
  8
0
  6
Continuous
100
AcDbCircle
 10
10.43561399593683
 20
0.9945103158115511
 30
0.0
 40
0.0855
  0
LINE
  5
20D
330
2
100
AcDbEntity
  8
0
  6
Continuous
100
AcDbLine
 10
11.32380396503734
 20
3.165508035634323
 30
0.0
 11
11.15164704820857
 21
3.27154880878002
 31
0.0
  0
CIRCLE
  5
20E
330
2
100
AcDbEntity
  8
0
  6
Continuous
100
AcDbCircle
 10
10.43561399593683
 20
2.494510315811498
 30
0.0
 40
0.0855
  0
ARC
  5
20F
330
2
100
AcDbEntity
  8
0
  6
Continuous
100
AcDbCircle
 10
11.37311399593687
 20
2.558010315811346
 30
0.0
 40
0.1875
100
AcDbArc
 50
105.2473642457561
 51
254.7526357542439
  0
LINE
  5
211
330
2
100
AcDbEntity
  8
0
  6
Continuous
100
AcDbLine
 10
11.32380396503734
 20
3.479762595988404
 30
0.0
 11
11.15164704820857
 21
3.37372182284272
 31
0.0
  0
ARC
  5
212
330
2
100
AcDbEntity
  8
0
  6
Continuous
100
AcDbCircle
 10
11.18311399593686
 20
3.32263531581137
 30
0.0
 40
0.06
100
AcDbArc
 50
121.6311662755244
 51
238.368833724476
  0
LINE
  5
213
330
2
100
AcDbEntity
  8
0
  6
Continuous
100
AcDbLine
 10
11.37311399593689
 20
7.072635315811365
 30
0.0
 11
9.560613995936887
 21
7.072635315811365
 31
0.0
  0
LINE
  5
215
330
2
100
AcDbEntity
  8
0
100
AcDbLine
 10
9.560613995936894
 20
6.890685776853886
 30
0.0
 11
9.560613995936887
 21
7.072635315811365
 31
0.0
  0
LINE
  5
216
330
2
100
AcDbEntity
  8
0
  6
Continuous
100
AcDbLine
 10
9.560613995936858
 20
5.140685776853811
 30
0.0
 11
9.560613995936858
 21
5.765685776853925
 31
0.0
  0
ARC
  5
217
330
2
100
AcDbEntity
  8
0
  6
Continuous
100
AcDbCircle
 10
9.435613995936844
 20
5.140685776853832
 30
0.0
 40
0.1250000000000142
100
AcDbArc
 50
269.9999999999935
 51
359.9999999999934
  0
ARC
  5
218
330
2
100
AcDbEntity
  8
0
  6
Continuous
100
AcDbCircle
 10
9.373113995936844
 20
4.890685776853804
 30
0.0
 40
0.1250000000000142
100
AcDbArc
 50
89.99999999999351
 51
179.9999999999936
  0
LINE
  5
219
330
2
100
AcDbEntity
  8
0
  6
Continuous
100
AcDbLine
 10
9.373113995936858
 20
5.015685776853811
 30
0.0
 11
9.43561399593683
 21
5.015685776853811
 31
0.0
  0
ARC
  5
21B
330
2
100
AcDbEntity
  8
0
  6
Continuous
100
AcDbCircle
 10
9.43561399593688
 20
6.890685776853889
 30
0.0
 40
0.1250000000000178
100
AcDbArc
 50
269.9999999999902
 51
359.9999999999984
  0
ARC
  5
21C
330
2
100
AcDbEntity
  8
0
  6
Continuous
100
AcDbCircle
 10
9.435613995936901
 20
5.765685776853918
 30
0.0
 40
0.1249999999999574
100
AcDbArc
 50
0.0000000000065208
 51
90.00000000000645
  0
LINE
  5
21E
330
2
100
AcDbEntity
  8
0
  6
Continuous
100
AcDbLine
 10
9.248113995936887
 20
6.015685776853868
 30
0.0
 11
9.248113995936858
 21
6.640685776853868
 31
0.0
  0
ARC
  5
21F
330
2
100
AcDbEntity
  8
0
  6
Continuous
100
AcDbCircle
 10
9.373113995936844
 20
6.015685776853889
 30
0.0
 40
0.1249999999999574
100
AcDbArc
 50
180.0000000000066
 51
270.0000000000065
  0
LINE
  5
220
330
2
100
AcDbEntity
  8
0
  6
Continuous
100
AcDbLine
 10
9.435613995936887
 20
5.890685776853868
 30
0.0
 11
9.373113995936858
 21
5.890685776853925
 31
0.0
  0
LINE
  5
221
330
2
100
AcDbEntity
  8
0
  6
Continuous
100
AcDbLine
 10
9.373113995936887
 20
6.765685776853868
 30
0.0
 11
9.435613995936858
 21
6.765685776853868
 31
0.0
  0
ARC
  5
222
330
2
100
AcDbEntity
  8
0
  6
Continuous
100
AcDbCircle
 10
9.37311399593688
 20
6.640685776853854
 30
0.0
 40
0.1250000000000213
100
AcDbArc
 50
89.99999999999676
 51
179.9999999999903
  0
LINE
  5
223
330
2
100
AcDbEntity
  8
0
  6
Continuous
100
AcDbLine
 10
9.560613995936858
 20
5.765685776853925
 30
0.0
 11
9.560613995936858
 21
5.765685776853925
 31
0.0
  0
LINE
  5
225
330
2
100
AcDbEntity
  8
0
  6
Continuous
100
AcDbLine
 10
11.32380396503734
 20
4.979762595988404
 30
0.0
 11
11.15164704820857
 21
4.873721822842722
 31
0.0
  0
LINE
  5
226
330
2
100
AcDbEntity
  8
0
  6
Continuous
100
AcDbLine
 10
11.32380396503735
 20
4.665508035634321
 30
0.0
 11
11.15164704820857
 21
4.771548808780022
 31
0.0
  0
ARC
  5
227
330
2
100
AcDbEntity
  8
0
  6
Continuous
100
AcDbCircle
 10
11.18311399593686
 20
4.822635315811372
 30
0.0
 40
0.06
100
AcDbArc
 50
121.6311662755244
 51
238.368833724476
  0
ARC
  5
228
330
2
100
AcDbEntity
  8
0
  6
Continuous
100
AcDbCircle
 10
11.18311399593687
 20
6.353885315811429
 30
0.0
 40
0.06
100
AcDbArc
 50
121.6311662755242
 51
238.3688337244758
  0
LINE
  5
229
330
2
100
AcDbEntity
  8
0
  6
Continuous
100
AcDbLine
 10
11.37311399593688
 20
6.166385315811422
 30
0.0
 11
11.15164704820857
 21
6.302798808780079
 31
0.0
  0
LINE
  5
22A
330
2
100
AcDbEntity
  8
0
  6
Continuous
100
AcDbLine
 10
11.37311399593688
 20
6.541385315811422
 30
0.0
 11
11.15164704820857
 21
6.404971822842779
 31
0.0
  0
LINE
  5
22B
330
2
100
AcDbEntity
  8
0
  6
Continuous
100
AcDbLine
 10
2.515083533644333
 20
4.890685776853804
 30
0.0
 11
2.515083533644361
 21
4.265685776853802
 31
0.0
  0
LINE
  5
22C
330
2
100
AcDbEntity
  8
0
100
AcDbLine
 10
1.01508353364439
 20
0.0101353158114694
 30
0.0
 11
1.01508353364439
 21
7.072635315811365
 31
0.0
  0
LINE
  5
22D
330
2
100
AcDbEntity
  8
0
100
AcDbLine
 10
1.07758353364439
 20
0.0101353158114623
 30
0.0
 11
1.077583533644386
 21
7.072635315811365
 31
0.0
  0
LINE
  5
22E
330
2
100
AcDbEntity
  8
0
  6
Continuous
100
AcDbLine
 10
-2.109916466355532
 20
4.890685776853804
 30
0.0
 11
-2.109916466355561
 21
4.265685776853802
 31
0.0
  0
LINE
  5
22F
330
2
100
AcDbEntity
  8
0
100
AcDbLine
 10
-0.6099164663555889
 20
0.0101353158114712
 30
0.0
 11
-0.6099164663555925
 21
7.072635315811368
 31
0.0
  0
LINE
  5
230
330
2
100
AcDbEntity
  8
0
100
AcDbLine
 10
-0.6724164663555889
 20
0.0101353158114641
 30
0.0
 11
-0.6724164663555925
 21
7.072635315811365
 31
0.0
  0
LINE
  5
231
330
2
100
AcDbEntity
  8
0
  6
Continuous
100
AcDbLine
 10
2.22219031483095
 20
1.28376342822134
 30
0.0
 11
1.07758353364439
 21
0.1980947106598858
 31
0.0
  0
LINE
  5
232
330
2
100
AcDbEntity
  8
0
  6
Continuous
100
AcDbLine
 10
1.077583533644393
 20
3.471638179340228
 30
0.0
 11
1.236550481372706
 21
3.373721822842711
 31
0.0
  0
LINE
  5
233
330
2
100
AcDbEntity
  8
0
  6
Continuous
100
AcDbLine
 10
1.077583533644393
 20
3.17363245228248
 30
0.0
 11
1.236550481372706
 21
3.271548808780011
 31
0.0
  0
ARC
  5
234
330
2
100
AcDbEntity
  8
0
  6
Continuous
100
AcDbCircle
 10
1.015083533644376
 20
2.558010315811337
 30
0.0
 40
0.1875
100
AcDbArc
 50
289.4712206344954
 51
70.52877936550463
  0
ARC
  5
235
330
2
100
AcDbEntity
  8
0
100
AcDbCircle
 10
0.9525835336443898
 20
0.0101353158114623
 30
0.0
 40
0.125
100
AcDbArc
 50
270.0000000000001
 51
0.000000000000007
  0
ARC
  5
236
330
2
100
AcDbEntity
  8
0
  6
Continuous
100
AcDbCircle
 10
-1.109916466355589
 20
1.990870209407875
 30
0.0
 40
1.0
100
AcDbArc
 50
179.9999999999976
 51
224.999999999999
  0
LINE
  5
237
330
2
100
AcDbEntity
  8
0
  6
Continuous
100
AcDbLine
 10
-1.817023247542149
 20
1.28376342822134
 30
0.0
 11
-0.6724164663555889
 21
0.1980947106598858
 31
0.0
  0
CIRCLE
  5
238
330
2
100
AcDbEntity
  8
0
  6
Continuous
100
AcDbCircle
 10
-1.172416466355575
 20
1.058010315811339
 30
0.0
 40
0.0855
  0
CIRCLE
  5
239
330
2
100
AcDbEntity
  8
0
  6
Continuous
100
AcDbCircle
 10
-1.641166466355575
 20
1.558010315811339
 30
0.0
 40
0.0855
  0
LINE
  5
23A
330
2
100
AcDbEntity
  8
0
100
AcDbLine
 10
0.9525835336443898
 20
-0.1148646841885377
 30
0.0
 11
-0.5474164663555889
 21
-0.1148646841885359
 31
0.0
  0
LINE
  5
23B
330
2
100
AcDbEntity
  8
0
100
AcDbLine
 10
0.9525835336443898
 20
-0.0523646841885306
 30
0.0
 11
-0.5474164663555889
 21
-0.0523646841885288
 31
0.0
  0
ARC
  5
23C
330
2
100
AcDbEntity
  8
0
100
AcDbCircle
 10
-0.5474164663555889
 20
0.0101353158114641
 30
0.0
 40
0.125
100
AcDbArc
 50
180.0
 51
269.9999999999999
  0
ARC
  5
23D
330
2
100
AcDbEntity
  8
0
100
AcDbCircle
 10
-0.5474164663555889
 20
0.0101353158114712
 30
0.0
 40
0.0625
100
AcDbArc
 50
180.0
 51
269.9999999999998
  0
ARC
  5
23E
330
2
100
AcDbEntity
  8
0
100
AcDbCircle
 10
0.9525835336443898
 20
0.0101353158114694
 30
0.0
 40
0.0625
100
AcDbArc
 50
270.0000000000002
 51
0.000000000000007
  0
CIRCLE
  5
23F
330
2
100
AcDbEntity
  8
0
  6
Continuous
100
AcDbCircle
 10
-1.172416466355575
 20
4.057010315811363
 30
0.0
 40
0.0855
  0
CIRCLE
  5
240
330
2
100
AcDbEntity
  8
0
  6
Continuous
100
AcDbCircle
 10
-1.172416466355575
 20
2.058010315811339
 30
0.0
 40
0.0855
  0
CIRCLE
  5
241
330
2
100
AcDbEntity
  8
0
  6
Continuous
100
AcDbCircle
 10
-1.172416466355575
 20
3.058010315811339
 30
0.0
 40
0.0855
  0
ARC
  5
242
330
2
100
AcDbEntity
  8
0
  6
Continuous
100
AcDbCircle
 10
-2.234916466355539
 20
3.140685776853795
 30
0.0
 40
0.1250000000000142
100
AcDbArc
 50
0.000000000000007
 51
90.00000000000976
  0
LINE
  5
243
330
2
100
AcDbEntity
  8
0
  6
Continuous
100
AcDbLine
 10
-2.109916466355525
 20
3.140685776853788
 30
0.0
 11
-2.109916466355564
 21
1.990870209407913
 31
0.0
  0
CIRCLE
  5
244
330
2
100
AcDbEntity
  8
0
  6
Continuous
100
AcDbCircle
 10
-1.641166466355575
 20
2.558010315811339
 30
0.0
 40
0.0855
  0
LINE
  5
245
330
2
100
AcDbEntity
  8
0
  6
Continuous
100
AcDbLine
 10
-2.234916466355532
 20
4.140685776853802
 30
0.0
 11
-2.297416466355561
 21
4.140685776853802
 31
0.0
  0
LINE
  5
246
330
2
100
AcDbEntity
  8
0
  6
Continuous
100
AcDbLine
 10
-2.297416466355532
 20
3.265685776853802
 30
0.0
 11
-2.234916466355561
 21
3.265685776853802
 31
0.0
  0
LINE
  5
247
330
2
100
AcDbEntity
  8
0
  6
Continuous
100
AcDbLine
 10
-2.422416466355532
 20
4.015685776853802
 30
0.0
 11
-2.422416466355561
 21
3.390685776853816
 31
0.0
  0
ARC
  5
248
330
2
100
AcDbEntity
  8
0
  6
Continuous
100
AcDbCircle
 10
-2.297416466355546
 20
3.390685776853823
 30
0.0
 40
0.1250000000000142
100
AcDbArc
 50
180.0
 51
270.0000000000065
  0
ARC
  5
249
330
2
100
AcDbEntity
  8
0
  6
Continuous
100
AcDbCircle
 10
-2.297416466355546
 20
4.015685776853823
 30
0.0
 40
0.1249999999999858
100
AcDbArc
 50
90.00000000000649
 51
180.0000000000066
  0
CIRCLE
  5
24A
330
2
100
AcDbEntity
  8
0
  6
Continuous
100
AcDbCircle
 10
-2.141166466355582
 20
3.85388531581142
 30
0.0
 40
0.0855
  0
CIRCLE
  5
24B
330
2
100
AcDbEntity
  8
0
  6
Continuous
100
AcDbCircle
 10
-1.641166466355575
 20
3.558010315811339
 30
0.0
 40
0.0855
  0
ARC
  5
24C
330
2
100
AcDbEntity
  8
0
  6
Continuous
100
AcDbCircle
 10
-2.234916466355546
 20
4.265685776853795
 30
0.0
 40
0.1249999999999858
100
AcDbArc
 50
270.0000000000065
 51
0.0000000000064699
  0
LINE
  5
24D
330
2
100
AcDbEntity
  8
0
  6
Continuous
100
AcDbLine
 10
-0.6724164663555925
 20
3.173632452282481
 30
0.0
 11
-0.8313834140839056
 21
3.271548808780013
 31
0.0
  0
ARC
  5
24E
330
2
100
AcDbEntity
  8
0
  6
Continuous
100
AcDbCircle
 10
-0.6099164663555747
 20
2.558010315811339
 30
0.0
 40
0.1875
100
AcDbArc
 50
109.4712206344954
 51
250.5287793655046
  0
ARC
  5
24F
330
2
100
AcDbEntity
  8
0
  6
Continuous
100
AcDbCircle
 10
-0.799916466355608
 20
3.322635315811363
 30
0.0
 40
0.06
100
AcDbArc
 50
121.631166275524
 51
238.368833724476
  0
LINE
  5
250
330
2
100
AcDbEntity
  8
0
  6
Continuous
100
AcDbLine
 10
-0.6724164663555925
 20
3.47163817934023
 30
0.0
 11
-0.8313834140839056
 21
3.373721822842713
 31
0.0
  0
ARC
  5
251
330
2
100
AcDbEntity
  8
0
  6
Continuous
100
AcDbCircle
 10
1.51508353364439
 20
1.990870209407875
 30
0.0
 40
1.0
100
AcDbArc
 50
315.000000000001
 51
0.0000000000024497
  0
CIRCLE
  5
252
330
2
100
AcDbEntity
  8
0
  6
Continuous
100
AcDbCircle
 10
1.577583533644376
 20
1.058010315811339
 30
0.0
 40
0.0855
  0
CIRCLE
  5
253
330
2
100
AcDbEntity
  8
0
  6
Continuous
100
AcDbCircle
 10
2.046333533644376
 20
1.558010315811339
 30
0.0
 40
0.0855
  0
ARC
  5
254
330
2
100
AcDbEntity
  8
0
  6
Continuous
100
AcDbCircle
 10
2.64008353364434
 20
3.140685776853795
 30
0.0
 40
0.1250000000000142
100
AcDbArc
 50
89.99999999999025
 51
180.0
  0
CIRCLE
  5
255
330
2
100
AcDbEntity
  8
0
  6
Continuous
100
AcDbCircle
 10
2.046333533644376
 20
2.558010315811339
 30
0.0
 40
0.0855
  0
CIRCLE
  5
256
330
2
100
AcDbEntity
  8
0
  6
Continuous
100
AcDbCircle
 10
1.577583533644376
 20
2.058010315811339
 30
0.0
 40
0.0855
  0
CIRCLE
  5
257
330
2
100
AcDbEntity
  8
0
  6
Continuous
100
AcDbCircle
 10
1.577583533644376
 20
3.058010315811339
 30
0.0
 40
0.0855
  0
LINE
  5
258
330
2
100
AcDbEntity
  8
0
  6
Continuous
100
AcDbLine
 10
2.515083533644326
 20
3.140685776853788
 30
0.0
 11
2.515083533644365
 21
1.990870209407913
 31
0.0
  0
ARC
  5
259
330
2
100
AcDbEntity
  8
0
  6
Continuous
100
AcDbCircle
 10
1.205083533644409
 20
3.322635315811361
 30
0.0
 40
0.06
100
AcDbArc
 50
301.631166275524
 51
58.36883372447599
  0
CIRCLE
  5
25A
330
2
100
AcDbEntity
  8
0
  6
Continuous
100
AcDbCircle
 10
2.046333533644376
 20
3.558010315811339
 30
0.0
 40
0.0855
  0
CIRCLE
  5
25B
330
2
100
AcDbEntity
  8
0
  6
Continuous
100
AcDbCircle
 10
1.577583533644376
 20
4.057010315811363
 30
0.0
 40
0.0855
  0
CIRCLE
  5
25C
330
2
100
AcDbEntity
  8
0
  6
Continuous
100
AcDbCircle
 10
2.546333533644383
 20
3.85388531581142
 30
0.0
 40
0.0855
  0
LINE
  5
25D
330
2
100
AcDbEntity
  8
0
  6
Continuous
100
AcDbLine
 10
2.827583533644333
 20
4.015685776853802
 30
0.0
 11
2.827583533644361
 21
3.390685776853816
 31
0.0
  0
ARC
  5
25E
330
2
100
AcDbEntity
  8
0
  6
Continuous
100
AcDbCircle
 10
2.702583533644347
 20
3.390685776853823
 30
0.0
 40
0.1250000000000142
100
AcDbArc
 50
269.9999999999935
 51
0.000000000000007
  0
LINE
  5
25F
330
2
100
AcDbEntity
  8
0
  6
Continuous
100
AcDbLine
 10
2.702583533644333
 20
3.265685776853802
 30
0.0
 11
2.640083533644361
 21
3.265685776853802
 31
0.0
  0
ARC
  5
260
330
2
100
AcDbEntity
  8
0
  6
Continuous
100
AcDbCircle
 10
2.702583533644347
 20
4.015685776853823
 30
0.0
 40
0.1249999999999858
100
AcDbArc
 50
359.9999999999934
 51
89.99999999999351
  0
ARC
  5
261
330
2
100
AcDbEntity
  8
0
  6
Continuous
100
AcDbCircle
 10
2.640083533644347
 20
4.265685776853795
 30
0.0
 40
0.1249999999999858
100
AcDbArc
 50
179.9999999999936
 51
269.9999999999935
  0
LINE
  5
262
330
2
100
AcDbEntity
  8
0
  6
Continuous
100
AcDbLine
 10
2.640083533644333
 20
4.140685776853802
 30
0.0
 11
2.702583533644361
 21
4.140685776853802
 31
0.0
  0
LINE
  5
263
330
2
100
AcDbEntity
  8
0
  6
Continuous
100
AcDbLine
 10
2.827583533644383
 20
7.072635315811358
 30
0.0
 11
1.01508353364439
 21
7.072635315811365
 31
0.0
  0
LINE
  5
264
330
2
100
AcDbEntity
  8
0
  6
Continuous
100
AcDbLine
 10
1.077583533644393
 20
6.565388179340228
 30
0.0
 11
1.236550481372706
 21
6.467471822842715
 31
0.0
  0
LINE
  5
265
330
2
100
AcDbEntity
  8
0
  6
Continuous
100
AcDbLine
 10
1.077583533644393
 20
6.26738245228248
 30
0.0
 11
1.236550481372706
 21
6.365298808780015
 31
0.0
  0
LINE
  5
266
330
2
100
AcDbEntity
  8
0
  6
Continuous
100
AcDbLine
 10
1.077583533644393
 20
4.971638179340228
 30
0.0
 11
1.236550481372706
 21
4.873721822842711
 31
0.0
  0
LINE
  5
267
330
2
100
AcDbEntity
  8
0
  6
Continuous
100
AcDbLine
 10
1.077583533644393
 20
4.67363245228248
 30
0.0
 11
1.236550481372706
 21
4.771548808780011
 31
0.0
  0
LINE
  5
268
330
2
100
AcDbEntity
  8
0
100
AcDbLine
 10
-2.422416466355582
 20
7.072635315811358
 30
0.0
 11
-2.422416466355589
 21
6.890685776853875
 31
0.0
  0
CIRCLE
  5
269
330
2
100
AcDbEntity
  8
0
100
AcDbCircle
 10
-1.172416466355568
 20
6.775760315811358
 30
0.0
 40
0.0855
  0
CIRCLE
  5
26A
330
2
100
AcDbEntity
  8
0
  6
Continuous
100
AcDbCircle
 10
-1.172416466355575
 20
5.057010315811365
 30
0.0
 40
0.0855
  0
CIRCLE
  5
26B
330
2
100
AcDbEntity
  8
0
100
AcDbCircle
 10
-2.141166466355582
 20
5.603885315811358
 30
0.0
 40
0.0855
  0
LINE
  5
26C
330
2
100
AcDbEntity
  8
0
  6
Continuous
100
AcDbLine
 10
-2.422416466355561
 20
5.765685776853918
 30
0.0
 11
-2.422416466355561
 21
5.140685776853804
 31
0.0
  0
LINE
  5
26D
330
2
100
AcDbEntity
  8
0
  6
Continuous
100
AcDbLine
 10
-2.297416466355532
 20
5.015685776853804
 30
0.0
 11
-2.234916466355561
 21
5.015685776853804
 31
0.0
  0
ARC
  5
26E
330
2
100
AcDbEntity
  8
0
  6
Continuous
100
AcDbCircle
 10
-2.297416466355546
 20
5.140685776853825
 30
0.0
 40
0.1250000000000142
100
AcDbArc
 50
180.0000000000066
 51
270.0000000000065
  0
CIRCLE
  5
26F
330
2
100
AcDbEntity
  8
0
  6
Continuous
100
AcDbCircle
 10
-1.641166466355575
 20
4.558010315811341
 30
0.0
 40
0.0855
  0
ARC
  5
270
330
2
100
AcDbEntity
  8
0
  6
Continuous
100
AcDbCircle
 10
-2.234916466355546
 20
4.890685776853797
 30
0.0
 40
0.1250000000000142
100
AcDbArc
 50
0.0000000000064699
 51
90.00000000000649
  0
LINE
  5
271
330
2
100
AcDbEntity
  8
0
100
AcDbLine
 10
-2.297416466355561
 20
6.765685776853861
 30
0.0
 11
-2.234916466355589
 21
6.765685776853861
 31
0.0
  0
LINE
  5
272
330
2
100
AcDbEntity
  8
0
100
AcDbLine
 10
-2.234916466355561
 20
5.890685776853918
 30
0.0
 11
-2.297416466355589
 21
5.890685776853861
 31
0.0
  0
ARC
  5
273
330
2
100
AcDbEntity
  8
0
100
AcDbCircle
 10
-2.297416466355603
 20
5.765685776853903
 30
0.0
 40
0.1249999999999574
100
AcDbArc
 50
89.99999999999351
 51
179.9999999999935
  0
ARC
  5
274
330
2
100
AcDbEntity
  8
0
100
AcDbCircle
 10
-2.297416466355575
 20
6.890685776853875
 30
0.0
 40
0.1250000000000142
100
AcDbArc
 50
180.0
 51
270.0000000000065
  0
CIRCLE
  5
275
330
2
100
AcDbEntity
  8
0
100
AcDbCircle
 10
-1.641166466355568
 20
6.276760315811334
 30
0.0
 40
0.0855
  0
LINE
  5
276
330
2
100
AcDbEntity
  8
0
100
AcDbLine
 10
-2.109916466355568
 20
6.640685776853847
 30
0.0
 11
-2.109916466355589
 21
6.015685776853861
 31
0.0
  0
ARC
  5
277
330
2
100
AcDbEntity
  8
0
100
AcDbCircle
 10
-2.234916466355546
 20
6.015685776853875
 30
0.0
 40
0.1249999999999574
100
AcDbArc
 50
269.9999999999935
 51
359.9999999999935
  0
ARC
  5
278
330
2
100
AcDbEntity
  8
0
100
AcDbCircle
 10
-2.234916466355582
 20
6.640685776853847
 30
0.0
 40
0.1250000000000107
100
AcDbArc
 50
359.9999999999984
 51
90.00000000000328
  0
ARC
  5
279
330
2
100
AcDbEntity
  8
0
  6
Continuous
100
AcDbCircle
 10
-0.799916466355608
 20
4.822635315811365
 30
0.0
 40
0.06
100
AcDbArc
 50
121.631166275524
 51
238.368833724476
  0
LINE
  5
27A
330
2
100
AcDbEntity
  8
0
  6
Continuous
100
AcDbLine
 10
-0.6724164663555925
 20
4.67363245228248
 30
0.0
 11
-0.8313834140839056
 21
4.771548808780015
 31
0.0
  0
LINE
  5
27B
330
2
100
AcDbEntity
  8
0
  6
Continuous
100
AcDbLine
 10
-0.6724164663555925
 20
4.971638179340228
 30
0.0
 11
-0.8313834140839056
 21
4.873721822842715
 31
0.0
  0
LINE
  5
27C
330
2
100
AcDbEntity
  8
0
  6
Continuous
100
AcDbLine
 10
-0.6724164663555925
 20
6.26738245228248
 30
0.0
 11
-0.8313834140839056
 21
6.365298808780015
 31
0.0
  0
ARC
  5
27D
330
2
100
AcDbEntity
  8
0
  6
Continuous
100
AcDbCircle
 10
-0.799916466355608
 20
6.416385315811365
 30
0.0
 40
0.06
100
AcDbArc
 50
121.631166275524
 51
238.368833724476
  0
LINE
  5
27E
330
2
100
AcDbEntity
  8
0
  6
Continuous
100
AcDbLine
 10
-0.6724164663555925
 20
6.565388179340228
 30
0.0
 11
-0.8313834140839056
 21
6.467471822842715
 31
0.0
  0
LINE
  5
27F
330
2
100
AcDbEntity
  8
0
  6
Continuous
100
AcDbLine
 10
-2.422416466355582
 20
7.072635315811358
 30
0.0
 11
-0.6099164663555889
 21
7.072635315811365
 31
0.0
  0
LINE
  5
280
330
2
100
AcDbEntity
  8
0
100
AcDbLine
 10
2.827583533644383
 20
7.072635315811358
 30
0.0
 11
2.82758353364439
 21
6.890685776853875
 31
0.0
  0
LINE
  5
281
330
2
100
AcDbEntity
  8
0
  6
Continuous
100
AcDbLine
 10
2.827583533644361
 20
5.765685776853918
 30
0.0
 11
2.827583533644361
 21
5.140685776853804
 31
0.0
  0
CIRCLE
  5
282
330
2
100
AcDbEntity
  8
0
100
AcDbCircle
 10
2.546333533644383
 20
5.603885315811358
 30
0.0
 40
0.0855
  0
CIRCLE
  5
283
330
2
100
AcDbEntity
  8
0
  6
Continuous
100
AcDbCircle
 10
1.577583533644376
 20
5.057010315811365
 30
0.0
 40
0.0855
  0
ARC
  5
284
330
2
100
AcDbEntity
  8
0
  6
Continuous
100
AcDbCircle
 10
1.205083533644409
 20
4.822635315811361
 30
0.0
 40
0.06
100
AcDbArc
 50
301.631166275524
 51
58.36883372447599
  0
CIRCLE
  5
285
330
2
100
AcDbEntity
  8
0
  6
Continuous
100
AcDbCircle
 10
2.046333533644376
 20
4.558010315811341
 30
0.0
 40
0.0855
  0
ARC
  5
286
330
2
100
AcDbEntity
  8
0
  6
Continuous
100
AcDbCircle
 10
2.702583533644347
 20
5.140685776853825
 30
0.0
 40
0.1250000000000142
100
AcDbArc
 50
269.9999999999935
 51
359.9999999999934
  0
ARC
  5
287
330
2
100
AcDbEntity
  8
0
  6
Continuous
100
AcDbCircle
 10
2.640083533644347
 20
4.890685776853797
 30
0.0
 40
0.1250000000000142
100
AcDbArc
 50
89.99999999999351
 51
179.9999999999936
  0
LINE
  5
288
330
2
100
AcDbEntity
  8
0
  6
Continuous
100
AcDbLine
 10
2.702583533644333
 20
5.015685776853804
 30
0.0
 11
2.640083533644361
 21
5.015685776853804
 31
0.0
  0
CIRCLE
  5
289
330
2
100
AcDbEntity
  8
0
100
AcDbCircle
 10
2.046333533644368
 20
6.276760315811334
 30
0.0
 40
0.0855
  0
CIRCLE
  5
28A
330
2
100
AcDbEntity
  8
0
100
AcDbCircle
 10
1.577583533644368
 20
6.775760315811358
 30
0.0
 40
0.0855
  0
ARC
  5
28B
330
2
100
AcDbEntity
  8
0
  6
Continuous
100
AcDbCircle
 10
1.205083533644409
 20
6.416385315811365
 30
0.0
 40
0.06
100
AcDbArc
 50
301.631166275524
 51
58.36883372447599
  0
LINE
  5
28C
330
2
100
AcDbEntity
  8
0
100
AcDbLine
 10
2.515083533644368
 20
6.640685776853847
 30
0.0
 11
2.51508353364439
 21
6.015685776853861
 31
0.0
  0
ARC
  5
28D
330
2
100
AcDbEntity
  8
0
100
AcDbCircle
 10
2.702583533644404
 20
5.765685776853903
 30
0.0
 40
0.1249999999999574
100
AcDbArc
 50
0.0000000000065208
 51
90.00000000000649
  0
ARC
  5
28E
330
2
100
AcDbEntity
  8
0
100
AcDbCircle
 10
2.640083533644347
 20
6.015685776853875
 30
0.0
 40
0.1249999999999574
100
AcDbArc
 50
180.0000000000066
 51
270.0000000000065
  0
LINE
  5
28F
330
2
100
AcDbEntity
  8
0
100
AcDbLine
 10
2.640083533644361
 20
5.890685776853918
 30
0.0
 11
2.70258353364439
 21
5.890685776853861
 31
0.0
  0
ARC
  5
290
330
2
100
AcDbEntity
  8
0
100
AcDbCircle
 10
2.702583533644376
 20
6.890685776853875
 30
0.0
 40
0.1250000000000142
100
AcDbArc
 50
269.9999999999935
 51
0.000000000000007
  0
ARC
  5
291
330
2
100
AcDbEntity
  8
0
100
AcDbCircle
 10
2.640083533644383
 20
6.640685776853847
 30
0.0
 40
0.1250000000000107
100
AcDbArc
 50
89.99999999999673
 51
180.0000000000016
  0
LINE
  5
292
330
2
100
AcDbEntity
  8
0
100
AcDbLine
 10
2.702583533644361
 20
6.765685776853861
 30
0.0
 11
2.64008353364439
 21
6.765685776853861
 31
0.0
  0
LINE
  5
293
330
2
100
AcDbEntity
  8
0
100
AcDbLine
 10
1.07758353364439
 20
11.27788936744258
 30
0.0
 11
1.07758353364439
 21
14.79310868125438
 31
0.0
  0
LINE
  5
294
330
2
100
AcDbEntity
  8
0
100
AcDbLine
 10
1.01508353364439
 20
11.27788936744258
 30
0.0
 11
1.015083533644386
 21
14.77788936744257
 31
0.0
  0
LINE
  5
295
330
2
100
AcDbEntity
  8
0
100
AcDbLine
 10
-0.6099164663555818
 20
11.27788936744256
 30
0.0
 11
-0.6099164663556032
 21
14.79310868125438
 31
0.0
  0
LINE
  5
296
330
2
100
AcDbEntity
  8
0
100
AcDbLine
 10
-0.6724164663555818
 20
11.27788936744256
 30
0.0
 11
-0.6724164663555818
 21
14.79310868125438
 31
0.0
  0
LINE
  5
297
330
2
100
AcDbEntity
  8
0
100
AcDbLine
 10
-0.0859077411078673
 20
11.23060868125437
 30
0.0
 11
0.4914296575826249
 21
11.23060868125437
 31
0.0
  0
ARC
  5
298
330
2
100
AcDbEntity
  8
0
100
AcDbCircle
 10
-0.3976778673643544
 20
11.73060868125437
 30
0.0
 40
0.5
100
AcDbArc
 50
244.8824237621802
 51
269.9999999999999
  0
LINE
  5
299
330
2
100
AcDbEntity
  8
0
100
AcDbLine
 10
-0.6724164663555818
 20
11.27788936744256
 30
0.0
 11
-0.6099164663555818
 21
11.27788936744256
 31
0.0
  0
LINE
  5
29A
330
2
100
AcDbEntity
  8
0
100
AcDbLine
 10
-0.6724164663555818
 20
11.27788936744256
 30
0.0
 11
-0.6099164663555818
 21
11.27788936744256
 31
0.0
  0
LINE
  5
29B
330
2
100
AcDbEntity
  8
0
100
AcDbLine
 10
-0.3976778673643544
 20
11.23060868125437
 30
0.0
 11
-0.2585978803219646
 21
11.23060868125437
 31
0.0
  0
LINE
  5
29C
330
2
100
AcDbEntity
  8
0
100
AcDbLine
 10
-0.3976778673643544
 20
11.23060868125437
 30
0.0
 11
-0.2974164663556103
 21
11.23060868125437
 31
0.0
  0
ARC
  5
29D
330
2
100
AcDbEntity
  8
0
100
AcDbCircle
 10
-0.1722528107149159
 20
11.23019726795502
 30
0.0
 40
0.0863460497437565
100
AcDbArc
 50
0.2729984168420139
 51
179.727001583158
  0
ARC
  5
29E
330
2
100
AcDbEntity
  8
0
100
AcDbCircle
 10
0.5779228176251472
 20
11.22989719482113
 30
0.0
 40
0.0864960863107047
100
AcDbArc
 50
0.471300277999912
 51
179.528699721998
  0
LINE
  5
29F
330
2
100
AcDbEntity
  8
0
100
AcDbLine
 10
1.07758353364439
 20
11.27788936744258
 30
0.0
 11
1.01508353364439
 21
11.27788936744258
 31
0.0
  0
LINE
  5
2A0
330
2
100
AcDbEntity
  8
0
100
AcDbLine
 10
0.7025835336443898
 20
11.23060868125438
 30
0.0
 11
0.8028449346531374
 21
11.23060868125437
 31
0.0
  0
ARC
  5
2A1
330
2
100
AcDbEntity
  8
0
100
AcDbCircle
 10
0.8028449346531374
 20
11.73060868125437
 30
0.0
 40
0.5
100
AcDbArc
 50
270.0
 51
295.117576237823
  0
LINE
  5
2A2
330
2
100
AcDbEntity
  8
0
100
AcDbLine
 10
0.6644159776675807
 20
11.23060868125437
 30
0.0
 11
0.8028449346531374
 21
11.23060868125437
 31
0.0
  0
ARC
  5
2A3
330
2
100
AcDbEntity
  8
0
100
AcDbCircle
 10
1.14008353364439
 20
14.79310868125438
 30
0.0
 40
0.0625
100
AcDbArc
 50
90.00000000000007
 51
180.0
  0
ARC
  5
2A4
330
2
100
AcDbEntity
  8
0
100
AcDbCircle
 10
1.14008353364439
 20
14.79310868125438
 30
0.0
 40
0.125
100
AcDbArc
 50
90.00000000000007
 51
180.0
  0
LWPOLYLINE
  5
2A5
330
2
100
AcDbEntity
  8
0
100
AcDbPolyline
 90
        8
 70
     1
 43
0.0
 10
0.1837530426480107
 20
13.30834692086955
 10
0.1070319565683242
 20
13.23162583514885
 42
0.4142135621262115
 10
0.1070319564735947
 20
13.18743166134333
 10
0.1837530417751232
 20
13.11071057555343
 42
0.4142135627112589
 10
0.2279472156247984
 20
13.11071057557894
 10
0.3046683019285901
 20
13.1874316615529
 42
0.4142135618686293
 10
0.3046683019666467
 20
13.231625835339
 10
0.2279472164721774
 20
13.30834692086955
 42
0.414213562373095
  0
CIRCLE
  5
2A6
330
2
100
AcDbEntity
  8
0
100
AcDbCircle
 10
0.2058501292196446
 20
12.60560868125437
 30
0.0
 40
0.1405
  0
LINE
  5
2A7
330
2
100
AcDbEntity
  8
0
100
AcDbLine
 10
-0.7349164663556032
 20
14.91810868125438
 30
0.0
 11
-2.297416466355543
 21
14.91810868125438
 31
0.0
  0
LINE
  5
2A8
330
2
100
AcDbEntity
  8
0
100
AcDbLine
 10
-0.7349164663555818
 20
14.85560868125438
 30
0.0
 11
-2.297416466355546
 21
14.85560868125438
 31
0.0
  0
LINE
  5
2A9
330
2
100
AcDbEntity
  8
0
100
AcDbLine
 10
-2.297416466355546
 20
14.85560868125439
 30
0.0
 11
-2.297416466355546
 21
14.91810868125438
 31
0.0
  0
LINE
  5
2AA
330
2
100
AcDbEntity
  8
0
100
AcDbLine
 10
-0.0737672986235758
 20
14.73060868125437
 30
0.0
 11
0.4854675570629219
 21
14.73060868125437
 31
0.0
  0
ARC
  5
2AB
330
2
100
AcDbEntity
  8
0
100
AcDbCircle
 10
-0.3976778673643544
 20
15.23060868125437
 30
0.0
 40
0.5
100
AcDbArc
 50
244.8824237621772
 51
269.9999999999999
  0
LINE
  5
2AC
330
2
100
AcDbEntity
  8
0
100
AcDbLine
 10
-0.6724164663555818
 20
14.74663936744257
 30
0.0
 11
-0.6099164663556032
 21
14.74663936744257
 31
0.0
  0
ARC
  5
2AD
330
2
100
AcDbEntity
  8
0
100
AcDbCircle
 10
-0.7349164663555818
 20
14.79310868125438
 30
0.0
 40
0.0625
100
AcDbArc
 50
0.0
 51
90.0
  0
ARC
  5
2AE
330
2
100
AcDbEntity
  8
0
100
AcDbCircle
 10
-0.7349164663556032
 20
14.79310868125438
 30
0.0
 40
0.125
100
AcDbArc
 50
0.0
 51
90.0
  0
ARC
  5
2AF
330
2
100
AcDbEntity
  8
0
100
AcDbCircle
 10
-0.1691498707803589
 20
14.73098073716631
 30
0.0
 40
0.0953832977876115
100
AcDbArc
 50
180.2234907792949
 51
359.7765092207051
  0
LINE
  5
2B0
330
2
100
AcDbEntity
  8
0
100
AcDbLine
 10
-0.3976778673643544
 20
14.73060868125437
 30
0.0
 11
-0.2645324429372131
 21
14.73060868125437
 31
0.0
  0
ARC
  5
2B1
330
2
100
AcDbEntity
  8
0
100
AcDbCircle
 10
0.5808501292196411
 20
14.73098073716631
 30
0.0
 40
0.0953832977876115
100
AcDbArc
 50
180.2234907792949
 51
359.7765092207051
  0
ARC
  5
2B2
330
2
100
AcDbEntity
  8
0
100
AcDbCircle
 10
0.8028449346531339
 20
15.23060868125437
 30
0.0
 40
0.5
100
AcDbArc
 50
270.0
 51
295.1175762378232
  0
LINE
  5
2B3
330
2
100
AcDbEntity
  8
0
100
AcDbLine
 10
0.7025835336443898
 20
14.73060868125437
 30
0.0
 11
0.8028449346531339
 21
14.73060868125437
 31
0.0
  0
LINE
  5
2B4
330
2
100
AcDbEntity
  8
0
100
AcDbLine
 10
1.01508353364439
 20
14.77788936744258
 30
0.0
 11
1.01508353364439
 21
14.79310868125438
 31
0.0
  0
LINE
  5
2B5
330
2
100
AcDbEntity
  8
0
100
AcDbLine
 10
1.077583533644368
 20
14.74663936744257
 30
0.0
 11
1.01508353364439
 21
14.74663936744257
 31
0.0
  0
LINE
  5
2B6
330
2
100
AcDbEntity
  8
0
100
AcDbLine
 10
0.6762327013763603
 20
14.73060868125437
 30
0.0
 11
0.8028449346531339
 21
14.73060868125437
 31
0.0
  0
LINE
  5
2B7
330
2
100
AcDbEntity
  8
0
100
AcDbLine
 10
2.702583533644379
 20
14.91810868125438
 30
0.0
 11
1.14008353364439
 21
14.91810868125438
 31
0.0
  0
LINE
  5
2B8
330
2
100
AcDbEntity
  8
0
100
AcDbLine
 10
2.702583533644379
 20
14.85560868125438
 30
0.0
 11
1.14008353364439
 21
14.85560868125438
 31
0.0
  0
LINE
  5
2B9
330
2
100
AcDbEntity
  8
0
100
AcDbLine
 10
2.702583533644383
 20
14.85560868125438
 30
0.0
 11
2.702583533644383
 21
14.91810868125438
 31
0.0
  0
LINE
  5
2BA
330
2
100
AcDbEntity
  8
0
  6
Continuous
100
AcDbLine
 10
-9.439886605706267
 20
4.12348326563261
 30
0.0
 11
-9.60263660570627
 21
4.21744702194321
 31
0.0
  0
ARC
  5
2BB
330
2
100
AcDbEntity
  8
0
  6
Continuous
100
AcDbCircle
 10
-9.58701160570627
 20
4.244510315811477
 30
0.0
 40
0.031250000000003
100
AcDbArc
 50
119.9999999999987
 51
240.0000000000013
  0
LINE
  5
2BC
330
2
100
AcDbEntity
  8
0
  6
Continuous
100
AcDbLine
 10
-9.60263660570627
 20
4.271573609679743
 30
0.0
 11
-9.439886605706267
 21
4.365537365990358
 31
0.0
  0
ARC
  5
2BD
330
2
100
AcDbEntity
  8
0
  6
Continuous
100
AcDbCircle
 10
-9.424261605706267
 20
4.338474072122093
 30
0.0
 40
0.0312500000000006
100
AcDbArc
 50
359.9999999999968
 51
119.9999999999975
  0
LINE
  5
2BE
330
2
100
AcDbEntity
  8
0
  6
Continuous
100
AcDbLine
 10
-9.393011605706267
 20
4.338474072122091
 30
0.0
 11
-9.393011605706267
 21
4.244510315811477
 31
0.0
  0
LINE
  5
2BF
330
2
100
AcDbEntity
  8
0
  6
Continuous
100
AcDbLine
 10
-9.393011605706267
 20
4.244510315811477
 30
0.0
 11
-9.393011605706267
 21
4.150546559500876
 31
0.0
  0
ARC
  5
2C0
330
2
100
AcDbEntity
  8
0
  6
Continuous
100
AcDbCircle
 10
-9.424261605706267
 20
4.150546559500874
 30
0.0
 40
0.0312500000000009
100
AcDbArc
 50
240.0000000000025
 51
0.0000000000032569
  0
LINE
  5
2C1
330
2
100
AcDbEntity
  8
0
  6
Continuous
100
AcDbLine
 10
-9.751886605706222
 20
4.639108265632597
 30
0.0
 11
-9.91463660570621
 21
4.733072021943197
 31
0.0
  0
ARC
  5
2C2
330
2
100
AcDbEntity
  8
0
  6
Continuous
100
AcDbCircle
 10
-9.89901160570621
 20
4.760135315811464
 30
0.0
 40
0.031250000000003
100
AcDbArc
 50
119.9999999999987
 51
240.0000000000013
  0
LINE
  5
2C3
330
2
100
AcDbEntity
  8
0
  6
Continuous
100
AcDbLine
 10
-9.91463660570621
 20
4.787198609679731
 30
0.0
 11
-9.751886605706222
 21
4.881162365990331
 31
0.0
  0
ARC
  5
2C4
330
2
100
AcDbEntity
  8
0
  6
Continuous
100
AcDbCircle
 10
-9.736261605706222
 20
4.854099072122065
 30
0.0
 40
0.0312500000000021
100
AcDbArc
 50
0.0
 51
119.9999999999959
  0
LINE
  5
2C5
330
2
100
AcDbEntity
  8
0
  6
Continuous
100
AcDbLine
 10
-9.705011605706222
 20
4.854099072122065
 30
0.0
 11
-9.705011605706222
 21
4.760135315811478
 31
0.0
  0
LINE
  5
2C6
330
2
100
AcDbEntity
  8
0
  6
Continuous
100
AcDbLine
 10
-9.705011605706222
 20
4.760135315811478
 30
0.0
 11
-9.705011605706222
 21
4.666171559500864
 31
0.0
  0
ARC
  5
2C7
330
2
100
AcDbEntity
  8
0
  6
Continuous
100
AcDbCircle
 10
-9.736261605706226
 20
4.666171559500864
 30
0.0
 40
0.0312500000000018
100
AcDbArc
 50
240.0000000000055
 51
0.0
  0
LINE
  5
2C8
330
2
100
AcDbEntity
  8
0
  6
Continuous
100
AcDbLine
 10
-8.84613660570631
 20
4.482858265632611
 30
0.0
 11
-9.008886605706312
 21
4.576822021943226
 31
0.0
  0
ARC
  5
2C9
330
2
100
AcDbEntity
  8
0
  6
Continuous
100
AcDbCircle
 10
-8.993261605706312
 20
4.603885315811493
 30
0.0
 40
0.031250000000003
100
AcDbArc
 50
119.9999999999987
 51
240.0000000000013
  0
LINE
  5
2CA
330
2
100
AcDbEntity
  8
0
  6
Continuous
100
AcDbLine
 10
-9.008886605706312
 20
4.630948609679759
 30
0.0
 11
-8.84613660570631
 21
4.72491236599036
 31
0.0
  0
ARC
  5
2CB
330
2
100
AcDbEntity
  8
0
  6
Continuous
100
AcDbCircle
 10
-8.830511605706313
 20
4.697849072122093
 30
0.0
 40
0.0312500000000017
100
AcDbArc
 50
0.0
 51
119.9999999999945
  0
LINE
  5
2CC
330
2
100
AcDbEntity
  8
0
  6
Continuous
100
AcDbLine
 10
-8.79926160570631
 20
4.697849072122093
 30
0.0
 11
-8.79926160570631
 21
4.603885315811478
 31
0.0
  0
LINE
  5
2CD
330
2
100
AcDbEntity
  8
0
  6
Continuous
100
AcDbLine
 10
-8.79926160570631
 20
4.603885315811478
 30
0.0
 11
-8.79926160570631
 21
4.509921559500878
 31
0.0
  0
ARC
  5
2CE
330
2
100
AcDbEntity
  8
0
  6
Continuous
100
AcDbCircle
 10
-8.83051160570631
 20
4.509921559500878
 30
0.0
 40
0.0312500000000009
100
AcDbArc
 50
240.0000000000041
 51
0.0
  0
LINE
  5
2CF
330
2
100
AcDbEntity
  8
0
100
AcDbLine
 10
-9.158636605706274
 20
5.389108265632483
 30
0.0
 11
-9.321386605706277
 21
5.483072021943084
 31
0.0
  0
ARC
  5
2D0
330
2
100
AcDbEntity
  8
0
100
AcDbCircle
 10
-9.305761605706277
 20
5.51013531581135
 30
0.0
 40
0.031250000000003
100
AcDbArc
 50
119.9999999999987
 51
240.0000000000013
  0
LINE
  5
2D1
330
2
100
AcDbEntity
  8
0
100
AcDbLine
 10
-9.321386605706277
 20
5.537198609679617
 30
0.0
 11
-9.158636605706274
 21
5.631162365990232
 31
0.0
  0
ARC
  5
2D2
330
2
100
AcDbEntity
  8
0
100
AcDbCircle
 10
-9.143011605706274
 20
5.604099072121965
 30
0.0
 40
0.0312500000000021
100
AcDbArc
 50
0.0
 51
119.9999999999959
  0
LINE
  5
2D3
330
2
100
AcDbEntity
  8
0
100
AcDbLine
 10
-9.111761605706274
 20
5.604099072121965
 30
0.0
 11
-9.111761605706274
 21
5.51013531581135
 31
0.0
  0
LINE
  5
2D4
330
2
100
AcDbEntity
  8
0
100
AcDbLine
 10
-9.111761605706274
 20
5.51013531581135
 30
0.0
 11
-9.111761605706274
 21
5.41617155950075
 31
0.0
  0
ARC
  5
2D5
330
2
100
AcDbEntity
  8
0
100
AcDbCircle
 10
-9.143011605706274
 20
5.41617155950075
 30
0.0
 40
0.0312500000000009
100
AcDbArc
 50
240.0000000000041
 51
0.0
  0
LINE
  5
2D6
330
2
100
AcDbEntity
  8
0
100
AcDbLine
 10
-9.751886605706229
 20
5.857858265632483
 30
0.0
 11
-9.914636605706217
 21
5.951822021943084
 31
0.0
  0
ARC
  5
2D7
330
2
100
AcDbEntity
  8
0
100
AcDbCircle
 10
-9.899011605706217
 20
5.97888531581135
 30
0.0
 40
0.031250000000003
100
AcDbArc
 50
119.9999999999987
 51
240.0000000000013
  0
LINE
  5
2D8
330
2
100
AcDbEntity
  8
0
100
AcDbLine
 10
-9.914636605706217
 20
6.005948609679617
 30
0.0
 11
-9.751886605706229
 21
6.099912365990232
 31
0.0
  0
ARC
  5
2D9
330
2
100
AcDbEntity
  8
0
100
AcDbCircle
 10
-9.736261605706229
 20
6.072849072121965
 30
0.0
 40
0.0312500000000021
100
AcDbArc
 50
0.0
 51
119.9999999999959
  0
LINE
  5
2DA
330
2
100
AcDbEntity
  8
0
100
AcDbLine
 10
-9.705011605706229
 20
6.072849072121965
 30
0.0
 11
-9.705011605706229
 21
5.97888531581135
 31
0.0
  0
LINE
  5
2DB
330
2
100
AcDbEntity
  8
0
100
AcDbLine
 10
-9.705011605706229
 20
5.97888531581135
 30
0.0
 11
-9.705011605706229
 21
5.88492155950075
 31
0.0
  0
ARC
  5
2DC
330
2
100
AcDbEntity
  8
0
100
AcDbCircle
 10
-9.736261605706229
 20
5.88492155950075
 30
0.0
 40
0.0312500000000009
100
AcDbArc
 50
240.0000000000041
 51
0.0
  0
LINE
  5
2DD
330
2
100
AcDbEntity
  8
0
100
AcDbLine
 10
-9.564886605706253
 20
6.834287365990203
 30
0.0
 11
-9.727636605706234
 21
6.740323609679617
 31
0.0
  0
ARC
  5
2DE
330
2
100
AcDbEntity
  8
0
100
AcDbCircle
 10
-9.712011605706234
 20
6.71326031581135
 30
0.0
 40
0.031250000000003
100
AcDbArc
 50
119.9999999999987
 51
240.0000000000013
  0
LINE
  5
2DF
330
2
100
AcDbEntity
  8
0
100
AcDbLine
 10
-9.727636605706234
 20
6.686197021943084
 30
0.0
 11
-9.564886605706253
 21
6.592233265632483
 31
0.0
  0
ARC
  5
2E0
330
2
100
AcDbEntity
  8
0
100
AcDbCircle
 10
-9.549261605706253
 20
6.61929655950075
 30
0.0
 40
0.0312500000000021
100
AcDbArc
 50
240.0000000000041
 51
0.0
  0
LINE
  5
2E1
330
2
100
AcDbEntity
  8
0
100
AcDbLine
 10
-9.518011605706253
 20
6.61929655950075
 30
0.0
 11
-9.518011605706246
 21
6.71326031581135
 31
0.0
  0
LINE
  5
2E2
330
2
100
AcDbEntity
  8
0
100
AcDbLine
 10
-9.518011605706246
 20
6.71326031581135
 30
0.0
 11
-9.518011605706253
 21
6.807224072121937
 31
0.0
  0
ARC
  5
2E3
330
2
100
AcDbEntity
  8
0
100
AcDbCircle
 10
-9.549261605706253
 20
6.807224072121937
 30
0.0
 40
0.0312500000000009
100
AcDbArc
 50
0.0
 51
119.9999999999959
  0
LINE
  5
2E4
330
2
100
AcDbEntity
  8
0
  6
Continuous
100
AcDbLine
 10
9.771988995936834
 20
4.61553736599036
 30
0.0
 11
9.934738995936822
 21
4.521573609679731
 31
0.0
  0
ARC
  5
2E5
330
2
100
AcDbEntity
  8
0
  6
Continuous
100
AcDbCircle
 10
9.919113995936822
 20
4.494510315811464
 30
0.0
 40
0.0312500000000026
100
AcDbArc
 50
299.9999999999973
 51
60.00000000000272
  0
LINE
  5
2E6
330
2
100
AcDbEntity
  8
0
  6
Continuous
100
AcDbLine
 10
9.934738995936822
 20
4.467447021943197
 30
0.0
 11
9.771988995936834
 21
4.373483265632581
 31
0.0
  0
ARC
  5
2E7
330
2
100
AcDbEntity
  8
0
  6
Continuous
100
AcDbCircle
 10
9.756363995936834
 20
4.400546559500846
 30
0.0
 40
0.031250000000001
100
AcDbArc
 50
179.9999999999967
 51
299.9999999999989
  0
LINE
  5
2E8
330
2
100
AcDbEntity
  8
0
  6
Continuous
100
AcDbLine
 10
9.725113995936834
 20
4.400546559500848
 30
0.0
 11
9.725113995936834
 21
4.494510315811478
 31
0.0
  0
LINE
  5
2E9
330
2
100
AcDbEntity
  8
0
  6
Continuous
100
AcDbLine
 10
9.725113995936834
 20
4.494510315811478
 30
0.0
 11
9.725113995936834
 21
4.588474072122093
 31
0.0
  0
ARC
  5
2EA
330
2
100
AcDbEntity
  8
0
  6
Continuous
100
AcDbCircle
 10
9.756363995936834
 20
4.588474072122093
 30
0.0
 40
0.03125
100
AcDbArc
 50
60.00000000000272
 51
180.0
  0
LINE
  5
2EB
330
2
100
AcDbEntity
  8
0
  6
Continuous
100
AcDbLine
 10
10.39698899593683
 20
4.115537365990344
 30
0.0
 11
10.55973899593684
 21
4.021573609679729
 31
0.0
  0
ARC
  5
2EC
330
2
100
AcDbEntity
  8
0
  6
Continuous
100
AcDbCircle
 10
10.54411399593684
 20
3.994510315811462
 30
0.0
 40
0.0312500000000026
100
AcDbArc
 50
299.9999999999973
 51
60.00000000000272
  0
LINE
  5
2ED
330
2
100
AcDbEntity
  8
0
  6
Continuous
100
AcDbLine
 10
10.55973899593684
 20
3.967447021943196
 30
0.0
 11
10.39698899593683
 21
3.87348326563261
 31
0.0
  0
ARC
  5
2EE
330
2
100
AcDbEntity
  8
0
  6
Continuous
100
AcDbCircle
 10
10.38136399593683
 20
3.900546559500876
 30
0.0
 40
0.0312500000000026
100
AcDbArc
 50
180.0
 51
299.9999999999973
  0
LINE
  5
2EF
330
2
100
AcDbEntity
  8
0
  6
Continuous
100
AcDbLine
 10
10.35011399593683
 20
3.900546559500876
 30
0.0
 11
10.35011399593683
 21
3.994510315811477
 31
0.0
  0
LINE
  5
2F0
330
2
100
AcDbEntity
  8
0
  6
Continuous
100
AcDbLine
 10
10.35011399593683
 20
3.994510315811477
 30
0.0
 11
10.35011399593683
 21
4.088474072122077
 31
0.0
  0
ARC
  5
2F1
330
2
100
AcDbEntity
  8
0
  6
Continuous
100
AcDbCircle
 10
10.38136399593683
 20
4.088474072122079
 30
0.0
 40
0.03125
100
AcDbArc
 50
60.00000000000109
 51
180.0000000000032
  0
LINE
  5
2F2
330
2
100
AcDbEntity
  8
0
100
AcDbLine
 10
10.27198899593683
 20
5.834287365990232
 30
0.0
 11
10.43473899593684
 21
5.740323609679617
 31
0.0
  0
ARC
  5
2F3
330
2
100
AcDbEntity
  8
0
100
AcDbCircle
 10
10.41911399593684
 20
5.71326031581135
 30
0.0
 40
0.0312500000000026
100
AcDbArc
 50
299.9999999999973
 51
60.00000000000272
  0
LINE
  5
2F4
330
2
100
AcDbEntity
  8
0
100
AcDbLine
 10
10.43473899593684
 20
5.686197021943084
 30
0.0
 11
10.27198899593683
 21
5.592233265632498
 31
0.0
  0
ARC
  5
2F5
330
2
100
AcDbEntity
  8
0
100
AcDbCircle
 10
10.25636399593683
 20
5.619296559500764
 30
0.0
 40
0.0312500000000026
100
AcDbArc
 50
180.0
 51
299.9999999999973
  0
LINE
  5
2F6
330
2
100
AcDbEntity
  8
0
100
AcDbLine
 10
10.22511399593683
 20
5.619296559500764
 30
0.0
 11
10.22511399593683
 21
5.713260315811365
 31
0.0
  0
LINE
  5
2F7
330
2
100
AcDbEntity
  8
0
100
AcDbLine
 10
10.22511399593683
 20
5.713260315811365
 30
0.0
 11
10.22511399593683
 21
5.807224072121965
 31
0.0
  0
ARC
  5
2F8
330
2
100
AcDbEntity
  8
0
100
AcDbCircle
 10
10.25636399593683
 20
5.807224072121965
 30
0.0
 40
0.03125
100
AcDbArc
 50
60.00000000000272
 51
180.0
  0
LINE
  5
2F9
330
2
100
AcDbEntity
  8
0
  6
Continuous
100
AcDbLine
 10
10.08448899593685
 20
5.115537365990331
 30
0.0
 11
10.24723899593682
 21
5.021573609679745
 31
0.0
  0
ARC
  5
2FA
330
2
100
AcDbEntity
  8
0
  6
Continuous
100
AcDbCircle
 10
10.23161399593682
 20
4.994510315811478
 30
0.0
 40
0.0312500000000026
100
AcDbArc
 50
299.9999999999973
 51
60.00000000000272
  0
LINE
  5
2FB
330
2
100
AcDbEntity
  8
0
  6
Continuous
100
AcDbLine
 10
10.24723899593682
 20
4.967447021943212
 30
0.0
 11
10.08448899593685
 21
4.873483265632611
 31
0.0
  0
ARC
  5
2FC
330
2
100
AcDbEntity
  8
0
  6
Continuous
100
AcDbCircle
 10
10.06886399593685
 20
4.900546559500878
 30
0.0
 40
0.0312500000000026
100
AcDbArc
 50
180.0
 51
299.9999999999973
  0
LINE
  5
2FD
330
2
100
AcDbEntity
  8
0
  6
Continuous
100
AcDbLine
 10
10.03761399593685
 20
4.900546559500878
 30
0.0
 11
10.03761399593683
 21
4.994510315811478
 31
0.0
  0
LINE
  5
2FE
330
2
100
AcDbEntity
  8
0
  6
Continuous
100
AcDbLine
 10
10.03761399593683
 20
4.994510315811478
 30
0.0
 11
10.03761399593685
 21
5.088474072122065
 31
0.0
  0
ARC
  5
2FF
330
2
100
AcDbEntity
  8
0
  6
Continuous
100
AcDbCircle
 10
10.06886399593685
 20
5.088474072122065
 30
0.0
 40
0.03125
100
AcDbArc
 50
60.00000000000272
 51
180.0
  0
LINE
  5
300
330
2
100
AcDbEntity
  8
0
100
AcDbLine
 10
9.490738995936912
 20
6.334287365990246
 30
0.0
 11
9.6534889959369
 21
6.240323609679617
 31
0.0
  0
ARC
  5
301
330
2
100
AcDbEntity
  8
0
100
AcDbCircle
 10
9.6378639959369
 20
6.21326031581135
 30
0.0
 40
0.0312500000000026
100
AcDbArc
 50
299.9999999999973
 51
60.00000000000272
  0
LINE
  5
302
330
2
100
AcDbEntity
  8
0
100
AcDbLine
 10
9.6534889959369
 20
6.186197021943084
 30
0.0
 11
9.490738995936912
 21
6.092233265632469
 31
0.0
  0
ARC
  5
303
330
2
100
AcDbEntity
  8
0
100
AcDbCircle
 10
9.475113995936912
 20
6.119296559500736
 30
0.0
 40
0.0312500000000026
100
AcDbArc
 50
180.0
 51
299.9999999999973
  0
LINE
  5
304
330
2
100
AcDbEntity
  8
0
100
AcDbLine
 10
9.443863995936912
 20
6.119296559500736
 30
0.0
 11
9.443863995936912
 21
6.213260315811365
 31
0.0
  0
LINE
  5
305
330
2
100
AcDbEntity
  8
0
100
AcDbLine
 10
9.443863995936912
 20
6.213260315811365
 30
0.0
 11
9.443863995936912
 21
6.307224072121979
 31
0.0
  0
ARC
  5
306
330
2
100
AcDbEntity
  8
0
100
AcDbCircle
 10
9.475113995936912
 20
6.307224072121979
 30
0.0
 40
0.03125
100
AcDbArc
 50
60.00000000000272
 51
180.0
  0
LINE
  5
307
330
2
100
AcDbEntity
  8
0
100
AcDbLine
 10
9.777962794608417
 20
6.787412365990246
 30
0.0
 11
9.940712794608405
 21
6.693448609679617
 31
0.0
  0
ARC
  5
308
330
2
100
AcDbEntity
  8
0
100
AcDbCircle
 10
9.925087794608405
 20
6.66638531581135
 30
0.0
 40
0.0312500000000026
100
AcDbArc
 50
299.9999999999973
 51
60.00000000000272
  0
LINE
  5
309
330
2
100
AcDbEntity
  8
0
100
AcDbLine
 10
9.940712794608405
 20
6.639322021943084
 30
0.0
 11
9.777962794608417
 21
6.545358265632469
 31
0.0
  0
ARC
  5
30A
330
2
100
AcDbEntity
  8
0
100
AcDbCircle
 10
9.762337794608417
 20
6.572421559500736
 30
0.0
 40
0.0312500000000026
100
AcDbArc
 50
180.0
 51
299.9999999999973
  0
LINE
  5
30B
330
2
100
AcDbEntity
  8
0
100
AcDbLine
 10
9.731087794608417
 20
6.572421559500736
 30
0.0
 11
9.731087794608417
 21
6.666385315811365
 31
0.0
  0
LINE
  5
30C
330
2
100
AcDbEntity
  8
0
100
AcDbLine
 10
9.731087794608417
 20
6.666385315811365
 30
0.0
 11
9.731087794608417
 21
6.760349072121979
 31
0.0
  0
ARC
  5
30D
330
2
100
AcDbEntity
  8
0
100
AcDbCircle
 10
9.762337794608417
 20
6.760349072121979
 30
0.0
 40
0.03125
100
AcDbArc
 50
60.00000000000272
 51
180.0
  0
ENDSEC
  0
SECTION
  2
OBJECTS
  0
DICTIONARY
  5
9
330
0
100
AcDbDictionary
281
     1
  3
ACAD_COLOR
350
311
  3
ACAD_GROUP
350
23
  3
ACAD_LAYOUT
350
D
  3
ACAD_MATERIAL
350
310
  3
ACAD_MLINESTYLE
350
24
  3
ACAD_PLOTSETTINGS
350
25
  3
ACAD_PLOTSTYLENAME
350
8
  3
ACAD_TABLESTYLE
350
312
  3
ACDBHEADERROUNDTRIPXREC
350
323
  3
AcDbVariableDictionary
350
135
  0
DICTIONARY
  5
311
102
{ACAD_REACTORS
330
9
102
}
330
9
100
AcDbDictionary
281
     1
  0
DICTIONARY
  5
23
102
{ACAD_REACTORS
330
9
102
}
330
9
100
AcDbDictionary
281
     1
  0
DICTIONARY
  5
D
102
{ACAD_REACTORS
330
9
102
}
330
9
100
AcDbDictionary
281
     1
  3
Layout1
350
13
  3
Model
350
C
  0
DICTIONARY
  5
310
102
{ACAD_REACTORS
330
9
102
}
330
9
100
AcDbDictionary
281
     1
  0
DICTIONARY
  5
24
102
{ACAD_REACTORS
330
9
102
}
330
9
100
AcDbDictionary
281
     1
  3
STANDARD
350
27
  0
DICTIONARY
  5
25
102
{ACAD_REACTORS
330
9
102
}
330
9
100
AcDbDictionary
281
     1
  0
ACDBDICTIONARYWDFLT
  5
8
102
{ACAD_REACTORS
330
9
102
}
330
9
100
AcDbDictionary
281
     1
  3
Normal
350
7
100
AcDbDictionaryWithDefault
340
7
  0
DICTIONARY
  5
312
102
{ACAD_REACTORS
330
9
102
}
330
9
100
AcDbDictionary
281
     1
  3
Standard
350
313
  0
DICTIONARY
  5
323
102
{ACAD_REACTORS
330
9
102
}
330
9
100
AcDbDictionary
281
     1
  3
COLORDICT
350
324
  3
MATERIALDICT
350
325
  0
DICTIONARY
  5
135
102
{ACAD_REACTORS
330
9
102
}
330
9
100
AcDbDictionary
281
     1
  3
CTABLESTYLE
350
320
  3
HIDETEXT
350
322
  0
LAYOUT
  5
13
102
{ACAD_REACTORS
330
D
102
}
102
{ACAD_XDICTIONARY
360
326
102
}
330
D
100
AcDbPlotSettings
  1

  2
C:\ACAD2000\plotters\HP LaserJet 2100 Series PS.pc3
  4

  6

 40
0.0
 41
0.0
 42
0.0
 43
0.0
 44
0.0
 45
0.0
 46
0.0
 47
0.0
 48
0.0
 49
0.0
140
0.0
141
0.0
142
1.0
143
1.0
 70
   688
 72
     0
 73
     0
 74
     5
  7

 75
    16
147
1.0
148
0.0
149
0.0
100
AcDbLayout
  1
Layout1
 70
     0
 71
     1
 10
0.0
 20
0.0
 11
12.0
 21
9.0
 12
0.0
 22
0.0
 32
0.0
 14
1.000000000000000E+20
 24
1.000000000000000E+20
 34
1.000000000000000E+20
 15
-1.000000000000000E+20
 25
-1.000000000000000E+20
 35
-1.000000000000000E+20
146
0.0
 13
0.0
 23
0.0
 33
0.0
 16
1.0
 26
0.0
 36
0.0
 17
0.0
 27
1.0
 37
0.0
 76
     0
330
E
  0
LAYOUT
  5
C
102
{ACAD_REACTORS
330
D
102
}
102
{ACAD_XDICTIONARY
360
328
102
}
330
D
100
AcDbPlotSettings
  1

  2
HP LaserJet 2100 Series PS
  4
Letter
  6

 40
3.174999952316284
 41
3.174999952316284
 42
3.175003051757813
 43
3.17498779296875
 44
215.9000091552734
 45
279.3999938964844
 46
0.0
 47
0.0
 48
0.0
 49
0.0
140
0.0
141
0.0
142
1.0
143
5.090908941468881
 70
 28336
 72
     0
 73
     1
 74
     2
  7

 75
     0
147
0.1964285771946001
148
0.0
149
0.0
100
AcDbLayout
  1
Model
 70
     1
 71
     0
 10
0.0
 20
0.0
 11
12.0
 21
9.0
 12
0.0
 22
0.0
 32
0.0
 14
0.0
 24
0.0
 34
0.0
 15
0.0
 25
0.0
 35
0.0
146
0.0
 13
0.0
 23
0.0
 33
0.0
 16
1.0
 26
0.0
 36
0.0
 17
0.0
 27
1.0
 37
0.0
 76
     0
330
2
  0
MLINESTYLE
  5
27
102
{ACAD_REACTORS
330
24
102
}
330
24
100
AcDbMlineStyle
  2
STANDARD
 70
     0
  3

 62
   256
 51
90.0
 52
90.0
 71
     2
 49
0.5
 62
   256
  6
BYLAYER
 49
-0.5
 62
   256
  6
BYLAYER
  0
ACDBPLACEHOLDER
  5
7
102
{ACAD_REACTORS
330
8
102
}
330
8
  0
ACAD_PROXY_OBJECT
  5
313
102
{ACAD_REACTORS
330
312
102
}
330
312
100
AcDbProxyObject
 90
      499
 91
      605
 95
   983063
 70
     0
 93
     1841
310
4214DD185B99185C9928B81E85EB51B8AE3F2E07A17AD46E2B8FC02B5E8DC0F42B1CFD028000000C1008070000C3001FDFF8000000C1003FBFF000000182007F7FE00000030400FEFFC00000060801FDFF8000000C1003FBFF00000018200000000000000681FA0B0000001820100E000186003FBFF000000182007F7FE000
310
00030400FEFFC00000060801FDFF8000000C1003FBFF000000182007F7FE000000304000AD7A3703D0AC73F4160000003040201C00030C007F7FE00000030400FEFFC00000060801FDFF8000000C1003FBFF000000182007F7FE00000030400FEFFC000000608000
340
16
340
16
340
16
 94
        0
  0
XRECORD
  5
324
102
{ACAD_REACTORS
330
323
102
}
330
323
100
AcDbXrecord
340
311
  0
XRECORD
  5
325
102
{ACAD_REACTORS
330
323
102
}
330
323
100
AcDbXrecord
340
310
  0
DICTIONARYVAR
  5
320
102
{ACAD_REACTORS
330
135
102
}
330
135
100
DictionaryVariables
280
     0
  1
STANDARD
  0
DICTIONARYVAR
  5
322
102
{ACAD_REACTORS
330
135
102
}
330
135
100
DictionaryVariables
280
     0
  1
0
  0
DICTIONARY
  5
326
330
13
100
AcDbDictionary
280
     1
281
     1
  3
ACAD_XREC_ROUNDTRIP
360
327
  0
DICTIONARY
  5
328
330
C
100
AcDbDictionary
280
     1
281
     1
  3
ACAD_XREC_ROUNDTRIP
360
329
  0
XRECORD
  5
327
102
{ACAD_REACTORS
330
326
102
}
330
326
100
AcDbXrecord
102
SHADEPLOT
 70
     0
102
SHADEPLOTRESLEVEL
 70
     2
102
SHADEPLOTCUSTOMDPI
 70
   300
  0
XRECORD
  5
329
102
{ACAD_REACTORS
330
328
102
}
330
328
100
AcDbXrecord
102
SHADEPLOT
 70
     0
102
SHADEPLOTRESLEVEL
 70
     2
102
SHADEPLOTCUSTOMDPI
 70
   300
  0
ENDSEC
  0
EOF
