  0
SECTION
  2
HEADER
  9
$ACADVER
  1
AC1015
  9
$ACADMAINTVER
 70
     6
  9
$DWGCODEPAGE
  3
ANSI_1252
  9
$INSBASE
 10
0.0
 20
0.0
 30
0.0
  9
$EXTMIN
 10
-9.969991949173348
 20
-0.1220850541977612
 30
-0.0000000000000058
  9
$EXTMAX
 10
9.968355997332012
 20
14.63170329659144
 30
0.0000000000000104
  9
$LIMMIN
 10
0.0
 20
0.0
  9
$LIMMAX
 10
31.5
 20
24.0
  9
$ORTHOMODE
 70
     1
  9
$REGENMODE
 70
     1
  9
$FILLMODE
 70
     1
  9
$QTEXTMODE
 70
     0
  9
$MIRRTEXT
 70
     0
  9
$LTSCALE
 40
1.0
  9
$ATTMODE
 70
     1
  9
$TEXTSIZE
 40
0.27
  9
$TRACEWID
 40
0.05
  9
$TEXTSTYLE
  7
STANDARD
  9
$CLAYER
  8
0
  9
$CELTYPE
  6
BYLAYER
  9
$CECOLOR
 62
   256
  9
$CELTSCALE
 40
1.0
  9
$DISPSILH
 70
     0
  9
$DIMSCALE
 40
1.0
  9
$DIMASZ
 40
0.375
  9
$DIMEXO
 40
0.0625
  9
$DIMDLI
 40
0.75
  9
$DIMRND
 40
0.0
  9
$DIMDLE
 40
0.0
  9
$DIMEXE
 40
0.18
  9
$DIMTP
 40
0.0
  9
$DIMTM
 40
0.0
  9
$DIMTXT
 40
0.27
  9
$DIMCEN
 40
-0.06
  9
$DIMTSZ
 40
0.0
  9
$DIMTOL
 70
     0
  9
$DIMLIM
 70
     0
  9
$DIMTIH
 70
     1
  9
$DIMTOH
 70
     1
  9
$DIMSE1
 70
     0
  9
$DIMSE2
 70
     0
  9
$DIMTAD
 70
     0
  9
$DIMZIN
 70
     0
  9
$DIMBLK
  1

  9
$DIMASO
 70
     0
  9
$DIMSHO
 70
     0
  9
$DIMPOST
  1

  9
$DIMAPOST
  1

  9
$DIMALT
 70
     0
  9
$DIMALTD
 70
     2
  9
$DIMALTF
 40
25.4
  9
$DIMLFAC
 40
1.0
  9
$DIMTOFL
 70
     0
  9
$DIMTVP
 40
0.0
  9
$DIMTIX
 70
     0
  9
$DIMSOXD
 70
     0
  9
$DIMSAH
 70
     0
  9
$DIMBLK1
  1

  9
$DIMBLK2
  1

  9
$DIMSTYLE
  2
STANDARD
  9
$DIMCLRD
 70
     0
  9
$DIMCLRE
 70
     0
  9
$DIMCLRT
 70
     0
  9
$DIMTFAC
 40
1.0
  9
$DIMGAP
 40
0.09
  9
$DIMJUST
 70
     0
  9
$DIMSD1
 70
     0
  9
$DIMSD2
 70
     0
  9
$DIMTOLJ
 70
     1
  9
$DIMTZIN
 70
     0
  9
$DIMALTZ
 70
     0
  9
$DIMALTTZ
 70
     0
  9
$DIMUPT
 70
     0
  9
$DIMDEC
 70
     5
  9
$DIMTDEC
 70
     5
  9
$DIMALTU
 70
     2
  9
$DIMALTTD
 70
     2
  9
$DIMTXSTY
  7
STANDARD
  9
$DIMAUNIT
 70
     0
  9
$DIMADEC
 70
     0
  9
$DIMALTRND
 40
0.0
  9
$DIMAZIN
 70
     0
  9
$DIMDSEP
 70
    46
  9
$DIMATFIT
 70
     3
  9
$DIMFRAC
 70
     2
  9
$DIMLDRBLK
  1

  9
$DIMLUNIT
 70
     5
  9
$DIMLWD
 70
    -2
  9
$DIMLWE
 70
    -2
  9
$DIMTMOVE
 70
     2
  9
$LUNITS
 70
     2
  9
$LUPREC
 70
     3
  9
$SKETCHINC
 40
0.1
  9
$FILLETRAD
 40
0.0625
  9
$AUNITS
 70
     0
  9
$AUPREC
 70
     0
  9
$MENU
  1
ACAD
  9
$ELEVATION
 40
0.0
  9
$PELEVATION
 40
0.0
  9
$THICKNESS
 40
0.0
  9
$LIMCHECK
 70
     0
  9
$CHAMFERA
 40
0.0
  9
$CHAMFERB
 40
0.0
  9
$CHAMFERC
 40
0.0
  9
$CHAMFERD
 40
0.0
  9
$SKPOLY
 70
     0
  9
$TDCREATE
 40
2449939.719851967
  9
$TDUCREATE
 40
2449940.053185301
  9
$TDUPDATE
 40
2454167.743503681
  9
$TDUUPDATE
 40
2454168.076837014
  9
$TDINDWG
 40
0.1333357292
  9
$TDUSRTIMER
 40
0.1333357292
  9
$USRTIMER
 70
     1
  9
$ANGBASE
 50
0.0
  9
$ANGDIR
 70
     0
  9
$PDMODE
 70
     0
  9
$PDSIZE
 40
0.0
  9
$PLINEWID
 40
0.0
  9
$SPLFRAME
 70
     0
  9
$SPLINETYPE
 70
     6
  9
$SPLINESEGS
 70
     8
  9
$HANDSEED
  5
1B8
  9
$SURFTAB1
 70
     6
  9
$SURFTAB2
 70
     6
  9
$SURFTYPE
 70
     6
  9
$SURFU
 70
     6
  9
$SURFV
 70
     6
  9
$UCSBASE
  2

  9
$UCSNAME
  2

  9
$UCSORG
 10
0.0
 20
0.0
 30
0.0
  9
$UCSXDIR
 10
1.0
 20
0.0
 30
0.0
  9
$UCSYDIR
 10
0.0
 20
1.0
 30
0.0
  9
$UCSORTHOREF
  2

  9
$UCSORTHOVIEW
 70
     0
  9
$UCSORGTOP
 10
0.0
 20
0.0
 30
0.0
  9
$UCSORGBOTTOM
 10
0.0
 20
0.0
 30
0.0
  9
$UCSORGLEFT
 10
0.0
 20
0.0
 30
0.0
  9
$UCSORGRIGHT
 10
0.0
 20
0.0
 30
0.0
  9
$UCSORGFRONT
 10
0.0
 20
0.0
 30
0.0
  9
$UCSORGBACK
 10
0.0
 20
0.0
 30
0.0
  9
$PUCSBASE
  2

  9
$PUCSNAME
  2

  9
$PUCSORG
 10
0.0
 20
0.0
 30
0.0
  9
$PUCSXDIR
 10
1.0
 20
0.0
 30
0.0
  9
$PUCSYDIR
 10
0.0
 20
1.0
 30
0.0
  9
$PUCSORTHOREF
  2

  9
$PUCSORTHOVIEW
 70
     0
  9
$PUCSORGTOP
 10
0.0
 20
0.0
 30
0.0
  9
$PUCSORGBOTTOM
 10
0.0
 20
0.0
 30
0.0
  9
$PUCSORGLEFT
 10
0.0
 20
0.0
 30
0.0
  9
$PUCSORGRIGHT
 10
0.0
 20
0.0
 30
0.0
  9
$PUCSORGFRONT
 10
0.0
 20
0.0
 30
0.0
  9
$PUCSORGBACK
 10
0.0
 20
0.0
 30
0.0
  9
$USERI1
 70
     0
  9
$USERI2
 70
     0
  9
$USERI3
 70
     0
  9
$USERI4
 70
     0
  9
$USERI5
 70
     0
  9
$USERR1
 40
0.0
  9
$USERR2
 40
0.0
  9
$USERR3
 40
0.0
  9
$USERR4
 40
0.0
  9
$USERR5
 40
0.0
  9
$WORLDVIEW
 70
     1
  9
$SHADEDGE
 70
     3
  9
$SHADEDIF
 70
    70
  9
$TILEMODE
 70
     1
  9
$MAXACTVP
 70
    16
  9
$PINSBASE
 10
0.0
 20
0.0
 30
0.0
  9
$PLIMCHECK
 70
     0
  9
$PEXTMIN
 10
1.000000000000000E+20
 20
1.000000000000000E+20
 30
1.000000000000000E+20
  9
$PEXTMAX
 10
-1.000000000000000E+20
 20
-1.000000000000000E+20
 30
-1.000000000000000E+20
  9
$PLIMMIN
 10
0.0
 20
0.0
  9
$PLIMMAX
 10
12.0
 20
9.0
  9
$UNITMODE
 70
     0
  9
$VISRETAIN
 70
     0
  9
$PLINEGEN
 70
     0
  9
$PSLTSCALE
 70
     0
  9
$TREEDEPTH
 70
  3020
  9
$CMLSTYLE
  2
STANDARD
  9
$CMLJUST
 70
     0
  9
$CMLSCALE
 40
1.0
  9
$PROXYGRAPHICS
 70
     1
  9
$MEASUREMENT
 70
     0
  9
$CELWEIGHT
370
    -1
  9
$ENDCAPS
280
     0
  9
$JOINSTYLE
280
     0
  9
$LWDISPLAY
290
     0
  9
$INSUNITS
 70
     0
  9
$HYPERLINKBASE
  1

  9
$STYLESHEET
  1

  9
$XEDIT
290
     1
  9
$CEPSNTYPE
380
     0
  9
$PSTYLEMODE
290
     1
  9
$FINGERPRINTGUID
  2
{9729D206-21E2-41E5-859C-522BAEE8B3B0}
  9
$VERSIONGUID
  2
{2F31585D-A3E2-4D21-BFFD-448F440DF7B1}
  9
$EXTNAMES
290
     1
  9
$PSVPSCALE
 40
0.0
  9
$OLESTARTUP
290
     0
  0
ENDSEC
  0
SECTION
  2
CLASSES
  0
CLASS
  1
DICTIONARYVAR
  2
AcDbDictionaryVar
  3
AutoCAD 2000
 90
        0
280
     0
281
     0
  0
CLASS
  1
LWPOLYLINE
  2
AcDbPolyline
  3
AutoCAD 2000
 90
        0
280
     0
281
     1
  0
CLASS
  1
ACDBDICTIONARYWDFLT
  2
AcDbDictionaryWithDefault
  3
AutoCAD 2000
 90
        0
280
     0
281
     0
  0
CLASS
  1
ACDBPLACEHOLDER
  2
AcDbPlaceHolder
  3
ObjectDBX Classes
 90
        0
280
     0
281
     0
  0
CLASS
  1
LAYOUT
  2
AcDbLayout
  3
ObjectDBX Classes
 90
        0
280
     0
281
     0
  0
CLASS
  1
LONG_TRANSACTION
  2
AcDbLongTransaction
  3
ObjectDBX Classes
 90
   -65536
280
     1
281
     0
  0
CLASS
  1
LWPOLYLINE
  2
AcDbPolyline
  3
AutoCAD 2000
 90
        0
280
     0
281
     1
  0
CLASS
  1
HATCH
  2
AcDbHatch
  3
AutoCAD 2000
 90
        0
280
     0
281
     1
  0
CLASS
  1
XRECORD
  2
AcDbXrecord
  3
AutoCAD 2000
 90
        0
280
     0
281
     0
  0
CLASS
  1
LONG_TRANSACTION
  2
AcDbLongTransaction
  3
ObjectDBX Classes
 90
   -65536
280
     1
281
     0
  0
CLASS
  1
LWPOLYLINE
  2
AcDbPolyline
  3
AutoCAD 2000
 90
        0
280
     0
281
     1
  0
CLASS
  1
HATCH
  2
AcDbHatch
  3
AutoCAD 2000
 90
        0
280
     0
281
     1
  0
CLASS
  1
XRECORD
  2
AcDbXrecord
  3
AutoCAD 2000
 90
        0
280
     0
281
     0
  0
CLASS
  1
LONG_TRANSACTION
  2
AcDbLongTransaction
  3
ObjectDBX Classes
 90
   -65536
280
     1
281
     0
  0
CLASS
  1
LWPOLYLINE
  2
AcDbPolyline
  3
AutoCAD 2000
 90
        0
280
     0
281
     1
  0
CLASS
  1
HATCH
  2
AcDbHatch
  3
AutoCAD 2000
 90
        0
280
     0
281
     1
  0
CLASS
  1
XRECORD
  2
AcDbXrecord
  3
AutoCAD 2000
 90
        0
280
     0
281
     0
  0
CLASS
  1
LONG_TRANSACTION
  2
AcDbLongTransaction
  3
ObjectDBX Classes
 90
   -65536
280
     1
281
     0
  0
CLASS
  1
LWPOLYLINE
  2
AcDbPolyline
  3
AutoCAD 2000
 90
        0
280
     0
281
     1
  0
CLASS
  1
HATCH
  2
AcDbHatch
  3
AutoCAD 2000
 90
        0
280
     0
281
     1
  0
CLASS
  1
XRECORD
  2
AcDbXrecord
  3
AutoCAD 2000
 90
        0
280
     0
281
     0
  0
CLASS
  1
TABLESTYLE
  2
AcDbTableStyle
  3
ObjectDBX Classes
 90
     2047
280
     1
281
     0
  0
ENDSEC
  0
SECTION
  2
TABLES
  0
TABLE
  2
VPORT
  5
1D
330
0
100
AcDbSymbolTable
 70
     2
  0
VPORT
  5
1A8
330
1D
100
AcDbSymbolTableRecord
100
AcDbViewportTableRecord
  2
*Active
 70
     0
 10
0.0
 20
0.0
 11
1.0
 21
1.0
 12
10.76500402541333
 22
11.93895747290112
 13
0.0
 23
0.0
 14
0.0625
 24
0.0625
 15
0.5
 25
0.5
 16
0.0
 26
0.0
 36
1.0
 17
0.0
 27
0.0
 37
0.0
 40
24.42298424406302
 41
1.814583333333333
 42
50.0
 43
0.0
 44
0.0
 50
0.0
 51
0.0
 71
     0
 72
   100
 73
     1
 74
     0
 75
     0
 76
     0
 77
     0
 78
     0
281
     0
 65
     1
110
0.0
120
0.0
130
0.0
111
1.0
121
0.0
131
0.0
112
0.0
122
1.0
132
0.0
 79
     0
146
0.0
  0
ENDTAB
  0
TABLE
  2
LTYPE
  5
18
330
0
100
AcDbSymbolTable
 70
     2
  0
LTYPE
  5
19
330
18
100
AcDbSymbolTableRecord
100
AcDbLinetypeTableRecord
  2
BYBLOCK
 70
     0
  3

 72
    65
 73
     0
 40
0.0
  0
LTYPE
  5
1A
330
18
100
AcDbSymbolTableRecord
100
AcDbLinetypeTableRecord
  2
BYLAYER
 70
     0
  3

 72
    65
 73
     0
 40
0.0
  0
LTYPE
  5
A
330
18
100
AcDbSymbolTableRecord
100
AcDbLinetypeTableRecord
  2
CONTINUOUS
 70
     0
  3
Solid line
 72
    65
 73
     0
 40
0.0
  0
LTYPE
  5
1A7
330
18
100
AcDbSymbolTableRecord
100
AcDbLinetypeTableRecord
  2
HIDDEN
 70
     0
  3
Hidden __ __ __ __ __ __ __ __ __ __ __ __ __ _
 72
    65
 73
     2
 40
0.375
 49
0.25
 74
     0
 49
-0.125
 74
     0
  0
ENDTAB
  0
TABLE
  2
LAYER
  5
14
330
0
100
AcDbSymbolTable
 70
     2
  0
LAYER
  5
6
330
14
100
AcDbSymbolTableRecord
100
AcDbLayerTableRecord
  2
0
 70
     0
 62
     7
  6
CONTINUOUS
370
    -3
390
7
  0
ENDTAB
  0
TABLE
  2
STYLE
  5
15
330
0
100
AcDbSymbolTable
 70
     2
  0
STYLE
  5
16
330
15
100
AcDbSymbolTableRecord
100
AcDbTextStyleTableRecord
  2
STANDARD
 70
     0
 40
0.0
 41
1.0
 50
0.0
 71
     0
 42
0.27
  3
TXT
  4

  0
ENDTAB
  0
TABLE
  2
VIEW
  5
1B
330
0
100
AcDbSymbolTable
 70
     0
  0
ENDTAB
  0
TABLE
  2
UCS
  5
1C
330
0
100
AcDbSymbolTable
 70
     0
  0
ENDTAB
  0
TABLE
  2
APPID
  5
1F
330
0
100
AcDbSymbolTable
 70
     1
  0
APPID
  5
20
330
1F
100
AcDbSymbolTableRecord
100
AcDbRegAppTableRecord
  2
ACAD
 70
     0
  0
ENDTAB
  0
TABLE
  2
DIMSTYLE
  5
21
330
0
100
AcDbSymbolTable
 70
     1
100
AcDbDimStyleTable
  0
DIMSTYLE
105
28
330
21
100
AcDbSymbolTableRecord
100
AcDbDimStyleTableRecord
  2
STANDARD
 70
     0
  3

  4

340
16
  0
ENDTAB
  0
TABLE
  2
BLOCK_RECORD
  5
1
330
0
100
AcDbSymbolTable
 70
     0
  0
BLOCK_RECORD
  5
2
330
1
100
AcDbSymbolTableRecord
100
AcDbBlockTableRecord
  2
*MODEL_SPACE
340
C
  0
BLOCK_RECORD
  5
E
330
1
100
AcDbSymbolTableRecord
100
AcDbBlockTableRecord
  2
*PAPER_SPACE
340
13
  0
ENDTAB
  0
ENDSEC
  0
SECTION
  2
BLOCKS
  0
BLOCK
  5
5
330
2
100
AcDbEntity
  8
0
100
AcDbBlockBegin
  2
*MODEL_SPACE
 70
     0
 10
0.0
 20
0.0
 30
0.0
  3
*MODEL_SPACE
  1

  4

  0
ENDBLK
  5
B
330
2
100
AcDbEntity
  8
0
100
AcDbBlockEnd
  0
BLOCK
  5
11
330
E
100
AcDbEntity
 67
     1
  8
0
100
AcDbBlockBegin
  2
*PAPER_SPACE
 70
     0
 10
0.0
 20
0.0
 30
0.0
  3
*PAPER_SPACE
  1

  4

  0
ENDBLK
  5
12
330
E
100
AcDbEntity
 67
     1
  8
0
100
AcDbBlockEnd
  0
ENDSEC
  0
SECTION
  2
ENTITIES
  0
LINE
  5
D3
330
2
100
AcDbEntity
  8
0
100
AcDbLine
 10
2.779090725411006
 20
8.812139332062532
 30
0.0
 11
2.779096945626243
 21
1.615397028909023
 31
0.0
  0
LINE
  5
D4
330
2
100
AcDbEntity
  8
0
100
AcDbLine
 10
1.562066516897041
 20
0.1248135013734659
 30
0.0
 11
1.562066516897041
 21
5.065853501373467
 31
0.0
  0
LINE
  5
D5
330
2
100
AcDbEntity
  8
0
100
AcDbLine
 10
-1.557775219122935
 20
8.81270216669078
 30
0.0
 11
-1.557775219122942
 21
1.050143501373465
 31
0.0
  0
LINE
  5
D6
330
2
100
AcDbEntity
  8
0
100
AcDbLine
 10
-1.636385219122932
 20
8.812712368627079
 30
0.0
 11
-1.63638521912294
 21
1.050143501373465
 31
0.0
  0
LINE
  5
D7
330
2
100
AcDbEntity
  8
0
100
AcDbLine
 10
1.640996516897041
 20
5.065853501373467
 30
0.0
 11
1.640996516897041
 21
0.1207435013734672
 31
0.0
  0
CIRCLE
  5
D8
330
2
100
AcDbEntity
  8
0
100
AcDbCircle
 10
2.458596057853341
 20
3.818000774766623
 30
0.0
 40
0.109
  0
CIRCLE
  5
D9
330
2
100
AcDbEntity
  8
0
100
AcDbCircle
 10
-2.470694404095984
 20
3.818000774766623
 30
0.0
 40
0.109
  0
LINE
  5
DA
330
2
100
AcDbEntity
  8
0
100
AcDbLine
 10
-2.791189071028843
 20
8.812862238050077
 30
0.0
 11
-2.791195291868885
 21
1.615397028909023
 31
0.0
  0
LINE
  5
DB
330
2
100
AcDbEntity
  8
0
100
AcDbLine
 10
1.640996516897041
 20
0.1375435013734636
 30
0.0
 11
2.77909694562625
 21
1.615397028909025
 31
0.0
  0
LINE
  5
DC
330
2
100
AcDbEntity
  8
0
100
AcDbLine
 10
-1.63638521912294
 20
1.059963501373466
 30
0.0
 11
-1.63638521912294
 21
0.117933501373467
 31
0.0
  0
LINE
  5
DD
330
2
100
AcDbEntity
  8
0
100
AcDbLine
 10
-1.557775219122942
 20
1.059963501373466
 30
0.0
 11
-1.557775219122942
 21
0.1222535013734634
 31
0.0
  0
LINE
  5
DE
330
2
100
AcDbEntity
  8
0
100
AcDbLine
 10
-1.653094863139682
 20
0.1375435013734636
 30
0.0
 11
-2.791195291868892
 21
1.615397028909025
 31
0.0
  0
ARC
  5
DF
330
2
100
AcDbEntity
  8
0
100
AcDbCircle
 10
-1.436385219122944
 20
0.1207435013734672
 30
0.0
 40
0.2
100
AcDbArc
 50
180.0
 51
270.0
  0
ARC
  5
E0
330
2
100
AcDbEntity
  8
0
100
AcDbCircle
 10
-1.432775219122942
 20
0.1251135013734652
 30
0.0
 40
0.125
100
AcDbArc
 50
180.0
 51
269.9927
  0
LINE
  5
E1
330
2
100
AcDbEntity
  8
0
100
AcDbLine
 10
-1.437046516897042
 20
0.0001864986265341
 30
0.0
 11
1.437046516897042
 21
-0.0001864986265341
 31
0.0
  0
LINE
  5
E2
330
2
100
AcDbEntity
  8
0
100
AcDbLine
 10
-0.8781634831029561
 20
-0.0792564986265356
 30
0.0
 11
1.440996516897045
 21
-0.0792564986265356
 31
0.0
  0
LINE
  5
E3
330
2
100
AcDbEntity
  8
0
100
AcDbLine
 10
-0.2655424057964315
 20
-0.0793335644262774
 30
0.0
 11
-1.44792521912294
 21
-0.0792564986265356
 31
0.0
  0
LINE
  5
E4
330
2
100
AcDbEntity
  8
0
100
AcDbLine
 10
-0.8977580525475699
 20
0.0001165102463903
 30
0.0
 11
-0.8977580525475699
 21
-0.0792923576327764
 31
0.0
  0
LINE
  5
E5
330
2
100
AcDbEntity
  8
0
100
AcDbLine
 10
-0.3050924057964299
 20
-0.0801035644262731
 30
0.0
 11
-0.154750669776448
 21
-0.0801035644262731
 31
0.0
  0
LINE
  5
E6
330
2
100
AcDbEntity
  8
0
100
AcDbLine
 10
-0.6477580525415836
 20
0.0000840654674059
 30
0.0
 11
-0.6477580525415836
 21
-0.0792564986265356
 31
0.0
  0
LINE
  5
E7
330
2
100
AcDbEntity
  8
0
100
AcDbLine
 10
0.9147419474958372
 20
-0.0001187144012631
 30
0.0
 11
0.9147419474958372
 21
-0.0792564986265374
 31
0.0
  0
LINE
  5
E8
330
2
100
AcDbEntity
  8
0
100
AcDbLine
 10
0.6647419474898508
 20
-0.0000862696222752
 30
0.0
 11
0.6647419474898508
 21
-0.0792564986265374
 31
0.0
  0
ARC
  5
E9
330
2
100
AcDbEntity
  8
0
100
AcDbCircle
 10
1.440996516897045
 20
0.1207435013734672
 30
0.0
 40
0.2
100
AcDbArc
 50
270.0
 51
0.0
  0
ARC
  5
EA
330
2
100
AcDbEntity
  8
0
100
AcDbCircle
 10
1.437066516897041
 20
0.1248135013734659
 30
0.0
 40
0.125
100
AcDbArc
 50
269.9927
 51
0.0
  0
CIRCLE
  5
EB
330
2
100
AcDbEntity
  8
0
100
AcDbCircle
 10
-2.470694404095984
 20
1.767128681743352
 30
0.0
 40
0.109
  0
CIRCLE
  5
EC
330
2
100
AcDbEntity
  8
0
100
AcDbCircle
 10
-2.028684863139685
 20
1.340489787767896
 30
0.0
 40
0.109
  0
CIRCLE
  5
ED
330
2
100
AcDbEntity
  8
0
100
AcDbCircle
 10
-2.091934863139688
 20
2.890997969419606
 30
0.0
 40
0.109
  0
ARC
  5
EF
330
2
100
AcDbEntity
  8
0
100
AcDbCircle
 10
-1.63638521912294
 20
2.708412390143528
 30
0.0
 40
0.156
100
AcDbArc
 50
90.0
 51
270.0
  0
ARC
  5
F1
330
2
100
AcDbEntity
  8
0
100
AcDbCircle
 10
1.640996516897041
 20
2.707987054439214
 30
0.0
 40
0.156
100
AcDbArc
 50
270.0000000000003
 51
89.99999999999967
  0
CIRCLE
  5
F2
330
2
100
AcDbEntity
  8
0
100
AcDbCircle
 10
2.016586516897042
 20
1.340489787767896
 30
0.0
 40
0.109
  0
CIRCLE
  5
F3
330
2
100
AcDbEntity
  8
0
100
AcDbCircle
 10
2.458596057853341
 20
1.767128681743352
 30
0.0
 40
0.109
  0
CIRCLE
  5
F4
330
2
100
AcDbEntity
  8
0
100
AcDbCircle
 10
2.079836516897046
 20
2.890997969419606
 30
0.0
 40
0.109
  0
LINE
  5
F7
330
2
100
AcDbEntity
  8
0
100
AcDbLine
 10
1.562066516897041
 20
8.812297276388396
 30
0.0
 11
2.779092291972602
 21
8.812139331859225
 31
0.0
  0
LINE
  5
F8
330
2
100
AcDbEntity
  8
0
100
AcDbLine
 10
1.640996516897042
 20
8.812287032922772
 30
0.0
 11
1.640996516897041
 21
5.059963501373466
 31
0.0
  0
LINE
  5
F9
330
2
100
AcDbEntity
  8
0
100
AcDbLine
 10
1.562066516897041
 20
5.059963501373466
 30
0.0
 11
1.562066516897041
 21
8.812297276388396
 31
0.0
  0
CIRCLE
  5
FA
330
2
100
AcDbEntity
  8
0
100
AcDbCircle
 10
-2.4161920961133
 20
4.937862238052689
 30
0.0
 40
0.109
  0
CIRCLE
  5
FB
330
2
100
AcDbEntity
  8
0
100
AcDbCircle
 10
-2.416189071028843
 20
6.687862238050076
 30
0.0
 40
0.109
  0
CIRCLE
  5
FC
330
2
100
AcDbEntity
  8
0
100
AcDbCircle
 10
-2.416189071028843
 20
8.437862238050077
 30
0.0
 40
0.109
  0
LINE
  5
FD
330
2
100
AcDbEntity
  8
0
100
AcDbLine
 10
-2.791190637590436
 20
8.812862238253384
 30
0.0
 11
-1.557775219122935
 21
8.81270216669078
 31
0.0
  0
CIRCLE
  5
FE
330
2
100
AcDbEntity
  8
0
100
AcDbCircle
 10
2.404084027010265
 20
4.937139980300702
 30
0.0
 40
0.109
  0
CIRCLE
  5
FF
330
2
100
AcDbEntity
  8
0
100
AcDbCircle
 10
2.404087052094722
 20
6.687139980298089
 30
0.0
 40
0.109
  0
CIRCLE
  5
100
330
2
100
AcDbEntity
  8
0
100
AcDbCircle
 10
2.404090077179178
 20
8.437139980295473
 30
0.0
 40
0.109
  0
LINE
  5
101
330
2
100
AcDbEntity
  8
0
100
AcDbLine
 10
2.773184686990944
 20
14.60869345224038
 30
0.0
 11
1.68109625084265
 21
14.60869345224038
 31
0.0
  0
LINE
  5
102
330
2
100
AcDbEntity
  8
0
100
AcDbLine
 10
1.7116040069985
 20
14.52941329242993
 30
0.0
 11
2.773184686990944
 21
14.52941329242993
 31
0.0
  0
LINE
  5
103
330
2
100
AcDbEntity
  8
0
100
AcDbLine
 10
-0.8977753547872607
 20
14.49721059294924
 30
0.0
 11
-1.554146960373761
 21
14.49721059294924
 31
0.0
  0
ARC
  5
104
330
2
100
AcDbEntity
  8
0
100
AcDbCircle
 10
-1.66411365356235
 20
14.49450386260314
 30
0.0
 40
0.11
100
AcDbArc
 50
1.409998905608158
 51
89.99999999999996
  0
LINE
  5
105
330
2
100
AcDbEntity
  8
0
100
AcDbLine
 10
-1.632621409718202
 20
11.99721059294924
 30
0.0
 11
-0.8977580525475699
 21
11.99721059294924
 31
0.0
  0
LINE
  5
106
330
2
100
AcDbEntity
  8
0
100
AcDbLine
 10
-1.554146960373711
 20
14.49721059294924
 30
0.0
 11
-1.554146960373711
 21
11.99721059294924
 31
0.0
  0
LINE
  5
107
330
2
100
AcDbEntity
  8
0
100
AcDbLine
 10
-1.632621409718194
 20
14.46637950810457
 30
0.0
 11
-1.632621409718202
 21
11.99721059294924
 31
0.0
  0
LINE
  5
108
330
2
100
AcDbEntity
  8
0
100
AcDbLine
 10
-1.632621409718198
 20
13.1502237027927
 30
0.0
 11
-1.554146960373711
 21
13.1502237027927
 31
0.0
  0
LINE
  5
109
330
2
100
AcDbEntity
  8
0
100
AcDbLine
 10
-1.694621409718192
 20
14.5252237027927
 30
0.0
 11
-2.806034007191397
 21
14.5252237027927
 31
0.0
  0
LINE
  5
10A
330
2
100
AcDbEntity
  8
0
100
AcDbLine
 10
-2.806034007191397
 20
14.60450386260314
 30
0.0
 11
-1.66411365356235
 21
14.60450386260314
 31
0.0
  0
LINE
  5
10B
330
2
100
AcDbEntity
  8
0
100
AcDbLine
 10
-2.806034007191397
 20
14.5252237027927
 30
0.0
 11
-2.806034007191397
 21
14.60450386260314
 31
0.0
  0
ARC
  5
10C
330
2
100
AcDbEntity
  8
0
100
AcDbCircle
 10
-1.694621409718192
 20
14.4632237027927
 30
0.0
 40
0.062
100
AcDbArc
 50
0.0
 51
89.99999999999996
  0
LINE
  5
10D
330
2
100
AcDbEntity
  8
0
100
AcDbLine
 10
1.57109625084265
 20
14.49721059294924
 30
0.0
 11
1.57109625084265
 21
11.99721059294924
 31
0.0
  0
LINE
  5
10E
330
2
100
AcDbEntity
  8
0
100
AcDbLine
 10
1.649604006998494
 20
11.99721059294924
 30
0.0
 11
1.649604006998494
 21
14.46741329242994
 31
0.0
  0
LINE
  5
10F
330
2
100
AcDbEntity
  8
0
100
AcDbLine
 10
-0.6477580525415836
 20
11.99721059294924
 30
0.0
 11
0.6647419474898508
 21
11.99721059294924
 31
0.0
  0
ARC
  5
110
330
2
100
AcDbEntity
  8
0
100
AcDbCircle
 10
-0.7102582688210757
 20
12.02846059294924
 30
0.0
 40
0.0625
100
AcDbArc
 50
0.0003965381235562
 51
90.00000000000109
  0
ARC
  5
111
330
2
100
AcDbEntity
  8
0
100
AcDbCircle
 10
-0.8352582688240671
 20
12.02846059294924
 30
0.0
 40
0.0625
100
AcDbArc
 50
90.0000000000008
 51
180.0003965381241
  0
LINE
  5
112
330
2
100
AcDbEntity
  8
0
100
AcDbLine
 10
-0.8977582688225714
 20
12.02846016039325
 30
0.0
 11
-0.8977580525475699
 21
11.99721059294924
 31
0.0
  0
LINE
  5
113
330
2
100
AcDbEntity
  8
0
100
AcDbLine
 10
-0.8352582688240688
 20
12.09096059294924
 30
0.0
 11
-0.7102582688210757
 21
12.09096059294924
 31
0.0
  0
LINE
  5
114
330
2
100
AcDbEntity
  8
0
100
AcDbLine
 10
-0.6477582688225714
 20
12.02846102550524
 30
0.0
 11
-0.6477580525415836
 21
11.99721059294924
 31
0.0
  0
LINE
  5
115
330
2
100
AcDbEntity
  8
0
100
AcDbLine
 10
0.9147419474958372
 20
11.99721059294924
 30
0.0
 11
1.649604006998494
 21
11.99721059294924
 31
0.0
  0
ARC
  5
116
330
2
100
AcDbEntity
  8
0
100
AcDbCircle
 10
0.8522417312163451
 20
12.02846059294924
 30
0.0
 40
0.0625
100
AcDbArc
 50
0.0003965381240906
 51
90.0
  0
ARC
  5
117
330
2
100
AcDbEntity
  8
0
100
AcDbCircle
 10
0.7272417312133537
 20
12.02846059294924
 30
0.0
 40
0.0625
100
AcDbArc
 50
90.0
 51
180.0003965381241
  0
LINE
  5
118
330
2
100
AcDbEntity
  8
0
100
AcDbLine
 10
0.9147417312148494
 20
12.02846102550523
 30
0.0
 11
0.9147419474958372
 21
11.99721059294924
 31
0.0
  0
LINE
  5
119
330
2
100
AcDbEntity
  8
0
100
AcDbLine
 10
0.6647417312148494
 20
12.02846016039325
 30
0.0
 11
0.6647419474898508
 21
11.99721059294924
 31
0.0
  0
LINE
  5
11A
330
2
100
AcDbEntity
  8
0
100
AcDbLine
 10
0.7272417312133537
 20
12.09096059294924
 30
0.0
 11
0.8522417312163451
 21
12.09096059294924
 31
0.0
  0
LINE
  5
11B
330
2
100
AcDbEntity
  8
0
100
AcDbLine
 10
1.57109625084265
 20
13.1502237027927
 30
0.0
 11
1.649604006998494
 21
13.1502237027927
 31
0.0
  0
LINE
  5
11C
330
2
100
AcDbEntity
  8
0
100
AcDbLine
 10
0.6647246452501618
 20
14.49721059294924
 30
0.0
 11
-0.6477753547812726
 21
14.49721059294924
 31
0.0
  0
ARC
  5
11D
330
2
100
AcDbEntity
  8
0
100
AcDbCircle
 10
-0.7102751385047736
 20
14.46596059294924
 30
0.0
 40
0.0625
100
AcDbArc
 50
270.0
 51
0.0003965381241415
  0
ARC
  5
11E
330
2
100
AcDbEntity
  8
0
100
AcDbCircle
 10
-0.835275138507765
 20
14.46596059294924
 30
0.0
 40
0.0625
100
AcDbArc
 50
180.0003965381243
 51
270.0
  0
LINE
  5
11F
330
2
100
AcDbEntity
  8
0
100
AcDbLine
 10
-0.7102751385047736
 20
14.40346059294924
 30
0.0
 11
-0.835275138507765
 21
14.40346059294924
 31
0.0
  0
LINE
  5
120
330
2
100
AcDbEntity
  8
0
100
AcDbLine
 10
-0.8977753547872607
 20
14.49721059294924
 30
0.0
 11
-0.8977751385062693
 21
14.46596016039325
 31
0.0
  0
LINE
  5
121
330
2
100
AcDbEntity
  8
0
100
AcDbLine
 10
-0.6477753547812726
 20
14.49721059294924
 30
0.0
 11
-0.6477751385062693
 21
14.46596102550523
 31
0.0
  0
LINE
  5
122
330
2
100
AcDbEntity
  8
0
100
AcDbLine
 10
1.57109625084265
 20
14.49721059294924
 30
0.0
 11
0.9147246452561482
 21
14.49721059294924
 31
0.0
  0
ARC
  5
123
330
2
100
AcDbEntity
  8
0
100
AcDbCircle
 10
0.8522248615326471
 20
14.46596059294924
 30
0.0
 40
0.0625
100
AcDbArc
 50
270.0
 51
0.000396538123887
  0
ARC
  5
124
330
2
100
AcDbEntity
  8
0
100
AcDbCircle
 10
0.7272248615296557
 20
14.46596059294924
 30
0.0
 40
0.0625
100
AcDbArc
 50
180.0003965381235
 51
270.0
  0
LINE
  5
125
330
2
100
AcDbEntity
  8
0
100
AcDbLine
 10
0.6647246452187292
 20
14.49721513478716
 30
0.0
 11
0.6647248615311514
 21
14.46596016039324
 31
0.0
  0
LINE
  5
126
330
2
100
AcDbEntity
  8
0
100
AcDbLine
 10
0.9147246452127393
 20
14.49721686501113
 30
0.0
 11
0.9147248615311514
 21
14.46596102550523
 31
0.0
  0
LINE
  5
127
330
2
100
AcDbEntity
  8
0
100
AcDbLine
 10
0.8522248615326471
 20
14.40346059294924
 30
0.0
 11
0.7272248615296557
 21
14.40346059294924
 31
0.0
  0
ARC
  5
128
330
2
100
AcDbEntity
  8
0
100
AcDbCircle
 10
1.7116040069985
 20
14.46741329242994
 30
0.0
 40
0.062
100
AcDbArc
 50
90.00000000000006
 51
180.0000000000001
  0
ARC
  5
129
330
2
100
AcDbEntity
  8
0
100
AcDbCircle
 10
1.68109625084265
 20
14.49869345224038
 30
0.0
 40
0.11
100
AcDbArc
 50
90.00000000000006
 51
180.0000000000001
  0
LINE
  5
12A
330
2
100
AcDbEntity
  8
0
100
AcDbLine
 10
1.57109625084265
 20
14.49869345224038
 30
0.0
 11
1.57109625084265
 21
14.49721059294924
 31
0.0
  0
LINE
  5
12B
330
2
100
AcDbEntity
  8
0
100
AcDbLine
 10
2.773184686990944
 20
14.52941329242993
 30
0.0
 11
2.773184686990944
 21
14.60869345224038
 31
0.0
  0
LINE
  5
12C
330
2
100
AcDbEntity
  8
0
100
AcDbLine
 10
8.508687591336969
 20
8.810075080602825
 30
0.0
 11
8.508687591336972
 21
1.615397028909025
 31
0.0
  0
LINE
  5
12D
330
2
100
AcDbEntity
  8
0
100
AcDbLine
 10
9.968237162607764
 20
0.1375435013734636
 30
0.0
 11
9.968237162607775
 21
8.80991634246362
 31
0.0
  0
LINE
  5
12E
330
2
100
AcDbEntity
  8
0
100
AcDbLine
 10
9.862281162607772
 20
-0.058746498626534
 30
0.0
 11
9.862281162607754
 21
8.809927866058711
 31
0.0
  0
LINE
  5
12F
330
2
100
AcDbEntity
  8
0
100
AcDbLine
 10
7.370587162607762
 20
0.1375435013734636
 30
0.0
 11
8.508687591336972
 21
1.615397028909025
 31
0.0
  0
LINE
  5
130
330
2
100
AcDbEntity
  8
0
  6
HIDDEN
100
AcDbLine
 10
7.370587162607762
 20
0.003753501373466
 30
0.0
 11
9.862281162607772
 21
0.003753501373466
 31
0.0
  0
LINE
  5
131
330
2
100
AcDbEntity
  8
0
100
AcDbLine
 10
7.370587162607762
 20
-0.058746498626534
 30
0.0
 11
9.862281162607772
 21
-0.058746498626534
 31
0.0
  0
LINE
  5
132
330
2
100
AcDbEntity
  8
0
100
AcDbLine
 10
7.370587162607762
 20
-0.058746498626534
 30
0.0
 11
7.370587162607762
 21
0.1375435013734636
 31
0.0
  0
LINE
  5
133
330
2
100
AcDbEntity
  8
0
100
AcDbLine
 10
9.862281162607776
 20
0.1375435013734636
 30
0.0
 11
9.968237162607764
 21
0.1375435013734636
 31
0.0
  0
CIRCLE
  5
134
330
2
100
AcDbEntity
  8
0
100
AcDbCircle
 10
8.883687591336972
 20
0.9493061424929694
 30
0.0
 40
0.078
  0
ARC
  5
13C
330
2
100
AcDbEntity
  8
0
100
AcDbCircle
 10
9.862281162607768
 20
2.705630306012066
 30
0.0
 40
0.156
100
AcDbArc
 50
90.00000000000132
 51
270.0
  0
CIRCLE
  5
13D
330
2
100
AcDbEntity
  8
0
100
AcDbCircle
 10
8.883687591336972
 20
4.31321614066185
 30
0.0
 40
0.078
  0
CIRCLE
  5
142
330
2
100
AcDbEntity
  8
0
100
AcDbCircle
 10
8.883687591336969
 20
8.435075080602832
 30
0.0
 40
0.078
  0
LINE
  5
143
330
2
100
AcDbEntity
  8
0
100
AcDbLine
 10
8.508687591336972
 20
8.810075080602832
 30
0.0
 11
9.968237162607771
 21
8.80991634246362
 31
0.0
  0
LWPOLYLINE
  5
149
330
2
100
AcDbEntity
  8
0
100
AcDbPolyline
 90
        6
 70
     1
 43
0.0
 10
8.952939300024042
 20
2.97997936202693
 10
8.76995135879784
 20
2.930947890609758
 42
0.5773502686101053
 10
8.755942367097692
 20
2.878665621640206
 10
8.889898837406147
 20
2.744709151331751
 42
0.5773502697691459
 10
8.942181106403822
 20
2.758718143136856
 10
8.99121257725503
 20
2.941706084795942
 42
0.5773502691896258
  0
LWPOLYLINE
  5
150
330
2
100
AcDbEntity
  8
0
100
AcDbPolyline
 90
        6
 70
     1
 43
0.0
 10
8.952939300024038
 20
6.976838301967913
 10
8.769951358797837
 20
6.927806830550741
 42
0.5773502686101053
 10
8.755942367097688
 20
6.875524561581189
 10
8.889898837406143
 20
6.741568091272734
 42
0.5773502697691459
 10
8.942181106403819
 20
6.755577083077839
 10
8.991212577255027
 20
6.938565024736926
 42
0.5773502691896258
  0
LWPOLYLINE
  5
157
330
2
100
AcDbEntity
  8
0
100
AcDbPolyline
 90
        6
 70
     1
 43
0.0
 10
-2.087717383603886
 20
2.354003675975175
 10
-1.904729442377682
 20
2.304972204558003
 42
-0.5773502686101053
 10
-1.890720450677535
 20
2.252689935588452
 10
-2.02467692098599
 20
2.118733465279997
 42
-0.5773502697691459
 10
-2.076959189983664
 20
2.132742457085101
 10
-2.125990660834873
 20
2.315730398744188
 42
-0.5773502691896258
  0
LWPOLYLINE
  5
15E
330
2
100
AcDbEntity
  8
0
100
AcDbPolyline
 90
        6
 70
     1
 43
0.0
 10
-2.087717383603886
 20
3.482002211042031
 10
-1.904729442377682
 20
3.43297073962486
 42
-0.5773502686101053
 10
-1.890720450677535
 20
3.380688470655308
 10
-2.02467692098599
 20
3.246732000346853
 42
-0.5773502697691459
 10
-2.076959189983664
 20
3.260740992151958
 10
-2.125990660834873
 20
3.443728933811044
 42
-0.5773502691896258
  0
LWPOLYLINE
  5
165
330
2
100
AcDbEntity
  8
0
100
AcDbPolyline
 90
        6
 70
     1
 43
0.0
 10
2.075619037361242
 20
2.354003675975175
 10
1.892631096135037
 20
2.304972204558003
 42
0.5773502686101053
 10
1.87862210443489
 20
2.252689935588452
 10
2.012578574743345
 20
2.118733465279997
 42
0.5773502697691459
 10
2.06486084374102
 20
2.132742457085101
 10
2.113892314592229
 20
2.315730398744188
 42
0.5773502691896258
  0
LWPOLYLINE
  5
16C
330
2
100
AcDbEntity
  8
0
100
AcDbPolyline
 90
        6
 70
     1
 43
0.0
 10
2.075619037361242
 20
3.482002211042031
 10
1.892631096135037
 20
3.43297073962486
 42
0.5773502686101053
 10
1.87862210443489
 20
3.380688470655308
 10
2.012578574743345
 20
3.246732000346853
 42
0.5773502697691459
 10
2.06486084374102
 20
3.260740992151958
 10
2.113892314592229
 20
3.443728933811044
 42
0.5773502691896258
  0
LINE
  5
177
330
2
100
AcDbEntity
  8
0
100
AcDbLine
 10
-8.508687591336969
 20
8.810075080602825
 30
0.0
 11
-8.508687591336972
 21
1.615397028909025
 31
0.0
  0
LINE
  5
178
330
2
100
AcDbEntity
  8
0
100
AcDbLine
 10
-9.968237162607764
 20
0.1375435013734636
 30
0.0
 11
-9.968237162607775
 21
8.80991634246362
 31
0.0
  0
LINE
  5
179
330
2
100
AcDbEntity
  8
0
100
AcDbLine
 10
-9.862281162607772
 20
-0.058746498626534
 30
0.0
 11
-9.862281162607754
 21
8.809927866058711
 31
0.0
  0
LWPOLYLINE
  5
17A
330
2
100
AcDbEntity
  8
0
100
AcDbPolyline
 90
        6
 70
     1
 43
0.0
 10
-8.952939300024042
 20
2.327351638166819
 10
-8.76995135879784
 20
2.278320166749647
 42
-0.5773502686101053
 10
-8.755942367097692
 20
2.226037897780096
 10
-8.889898837406147
 20
2.092081427471641
 42
-0.5773502697691459
 10
-8.942181106403822
 20
2.106090419276745
 10
-8.99121257725503
 20
2.289078360935832
 42
-0.5773502691896258
  0
LINE
  5
17B
330
2
100
AcDbEntity
  8
0
  6
HIDDEN
100
AcDbLine
 10
-7.370587162607762
 20
0.003753501373466
 30
0.0
 11
-9.862281162607772
 21
0.003753501373466
 31
0.0
  0
LINE
  5
17C
330
2
100
AcDbEntity
  8
0
100
AcDbLine
 10
-7.370587162607762
 20
-0.058746498626534
 30
0.0
 11
-9.862281162607772
 21
-0.058746498626534
 31
0.0
  0
LINE
  5
17D
330
2
100
AcDbEntity
  8
0
100
AcDbLine
 10
-7.370587162607762
 20
0.1375435013734636
 30
0.0
 11
-8.508687591336972
 21
1.615397028909025
 31
0.0
  0
LINE
  5
17E
330
2
100
AcDbEntity
  8
0
100
AcDbLine
 10
-7.370587162607762
 20
-0.058746498626534
 30
0.0
 11
-7.370587162607762
 21
0.1375435013734636
 31
0.0
  0
CIRCLE
  5
17F
330
2
100
AcDbEntity
  8
0
100
AcDbCircle
 10
-8.883687591336972
 20
1.46172374000258
 30
0.0
 40
0.078
  0
CIRCLE
  5
18C
330
2
100
AcDbEntity
  8
0
100
AcDbCircle
 10
-8.883687591336972
 20
3.66058841680174
 30
0.0
 40
0.078
  0
LINE
  5
18D
330
2
100
AcDbEntity
  8
0
100
AcDbLine
 10
-9.862281162607776
 20
0.1375435013734636
 30
0.0
 11
-9.968237162607764
 21
0.1375435013734636
 31
0.0
  0
ARC
  5
18E
330
2
100
AcDbEntity
  8
0
100
AcDbCircle
 10
-9.862281162607768
 20
2.705630306012066
 30
0.0
 40
0.156
100
AcDbArc
 50
270.0
 51
89.99999999999869
  0
LWPOLYLINE
  5
18F
330
2
100
AcDbEntity
  8
0
100
AcDbPolyline
 90
        6
 70
     1
 43
0.0
 10
-8.952939300024038
 20
6.324210578107802
 10
-8.769951358797837
 20
6.27517910669063
 42
-0.5773502686101053
 10
-8.755942367097688
 20
6.222896837721079
 10
-8.889898837406143
 20
6.088940367412624
 42
-0.5773502697691459
 10
-8.942181106403819
 20
6.102949359217728
 10
-8.991212577255027
 20
6.285937300876816
 42
-0.5773502691896258
  0
LINE
  5
190
330
2
100
AcDbEntity
  8
0
100
AcDbLine
 10
-8.508687591336972
 20
8.810075080602832
 30
0.0
 11
-9.968237162607771
 21
8.80991634246362
 31
0.0
  0
CIRCLE
  5
19B
330
2
100
AcDbEntity
  8
0
100
AcDbCircle
 10
-8.883687591336969
 20
7.782447356742724
 30
0.0
 40
0.078
  0
ENDSEC
  0
SECTION
  2
OBJECTS
  0
DICTIONARY
  5
9
330
0
100
AcDbDictionary
281
     1
  3
ACAD_COLOR
350
1A0
  3
ACAD_GROUP
350
23
  3
ACAD_LAYOUT
350
D
  3
ACAD_MATERIAL
350
19F
  3
ACAD_MLINESTYLE
350
24
  3
ACAD_PLOTSETTINGS
350
25
  3
ACAD_PLOTSTYLENAME
350
8
  3
ACAD_TABLESTYLE
350
1A1
  3
ACDBHEADERROUNDTRIPXREC
350
1B1
  3
AcDbVariableDictionary
350
C7
  0
DICTIONARY
  5
1A0
102
{ACAD_REACTORS
330
9
102
}
330
9
100
AcDbDictionary
281
     1
  0
DICTIONARY
  5
23
102
{ACAD_REACTORS
330
9
102
}
330
9
100
AcDbDictionary
281
     1
  0
DICTIONARY
  5
D
102
{ACAD_REACTORS
330
9
102
}
330
9
100
AcDbDictionary
281
     1
  3
Layout1
350
13
  3
Model
350
C
  0
DICTIONARY
  5
19F
102
{ACAD_REACTORS
330
9
102
}
330
9
100
AcDbDictionary
281
     1
  0
DICTIONARY
  5
24
102
{ACAD_REACTORS
330
9
102
}
330
9
100
AcDbDictionary
281
     1
  3
STANDARD
350
27
  0
DICTIONARY
  5
25
102
{ACAD_REACTORS
330
9
102
}
330
9
100
AcDbDictionary
281
     1
  0
ACDBDICTIONARYWDFLT
  5
8
102
{ACAD_REACTORS
330
9
102
}
330
9
100
AcDbDictionary
281
     1
  3
Normal
350
7
100
AcDbDictionaryWithDefault
340
7
  0
DICTIONARY
  5
1A1
102
{ACAD_REACTORS
330
9
102
}
330
9
100
AcDbDictionary
281
     1
  3
Standard
350
1A2
  0
DICTIONARY
  5
1B1
102
{ACAD_REACTORS
330
9
102
}
330
9
100
AcDbDictionary
281
     1
  3
COLORDICT
350
1B2
  3
MATERIALDICT
350
1B3
  0
DICTIONARY
  5
C7
102
{ACAD_REACTORS
330
9
102
}
330
9
100
AcDbDictionary
281
     1
  3
CTABLESTYLE
350
1AE
  3
HIDETEXT
350
1B0
  0
LAYOUT
  5
13
102
{ACAD_REACTORS
330
D
102
}
102
{ACAD_XDICTIONARY
360
1B4
102
}
330
D
100
AcDbPlotSettings
  1

  2
C:\ACAD2000\plotters\HP LaserJet 2100 Series PS.pc3
  4

  6

 40
0.0
 41
0.0
 42
0.0
 43
0.0
 44
0.0
 45
0.0
 46
0.0
 47
0.0
 48
0.0
 49
0.0
140
0.0
141
0.0
142
1.0
143
1.0
 70
   688
 72
     0
 73
     0
 74
     5
  7

 75
    16
147
1.0
148
0.0
149
0.0
100
AcDbLayout
  1
Layout1
 70
     0
 71
     1
 10
0.0
 20
0.0
 11
12.0
 21
9.0
 12
0.0
 22
0.0
 32
0.0
 14
1.000000000000000E+20
 24
1.000000000000000E+20
 34
1.000000000000000E+20
 15
-1.000000000000000E+20
 25
-1.000000000000000E+20
 35
-1.000000000000000E+20
146
0.0
 13
0.0
 23
0.0
 33
0.0
 16
1.0
 26
0.0
 36
0.0
 17
0.0
 27
1.0
 37
0.0
 76
     0
330
E
  0
LAYOUT
  5
C
102
{ACAD_REACTORS
330
D
102
}
102
{ACAD_XDICTIONARY
360
1B6
102
}
330
D
100
AcDbPlotSettings
  1

  2
HP LaserJet 2100 Series PS
  4
Letter
  6

 40
5.365749835968018
 41
5.408073902130127
 42
5.132904052734375
 43
5.090576171875
 44
215.8999938964844
 45
279.3999938964844
 46
0.0
 47
0.0
 48
0.0
 49
0.0
140
0.0
141
0.0
142
1.0
143
3.895300780266023
 70
 28336
 72
     0
 73
     1
 74
     2
  7

 75
     0
147
0.2567195850615948
148
0.0
149
0.0
100
AcDbLayout
  1
Model
 70
     1
 71
     0
 10
0.0
 20
0.0
 11
12.0
 21
9.0
 12
0.0
 22
0.0
 32
0.0
 14
0.0
 24
0.0
 34
0.0
 15
0.0
 25
0.0
 35
0.0
146
0.0
 13
0.0
 23
0.0
 33
0.0
 16
1.0
 26
0.0
 36
0.0
 17
0.0
 27
1.0
 37
0.0
 76
     0
330
2
  0
MLINESTYLE
  5
27
102
{ACAD_REACTORS
330
24
102
}
330
24
100
AcDbMlineStyle
  2
STANDARD
 70
     0
  3

 62
   256
 51
90.0
 52
90.0
 71
     2
 49
0.5
 62
   256
  6
BYLAYER
 49
-0.5
 62
   256
  6
BYLAYER
  0
ACDBPLACEHOLDER
  5
7
102
{ACAD_REACTORS
330
8
102
}
330
8
  0
ACAD_PROXY_OBJECT
  5
1A2
102
{ACAD_REACTORS
330
1A1
102
}
330
1A1
100
AcDbProxyObject
 90
      499
 91
      521
 95
   983063
 70
     0
 93
     1841
310
4214DD185B99185C9928B81E85EB51B8AE3F2E07A17AD46E2B8FC02B5E8DC0F42B1CFD028000000C1008070000C3001FDFF8000000C1003FBFF000000182007F7FE00000030400FEFFC00000060801FDFF8000000C1003FBFF00000018200000000000000681FA0B0000001820100E000186003FBFF000000182007F7FE000
310
00030400FEFFC00000060801FDFF8000000C1003FBFF000000182007F7FE000000304000AD7A3703D0AC73F4160000003040201C00030C007F7FE00000030400FEFFC00000060801FDFF8000000C1003FBFF000000182007F7FE00000030400FEFFC000000608000
340
16
340
16
340
16
 94
        0
  0
XRECORD
  5
1B2
102
{ACAD_REACTORS
330
1B1
102
}
330
1B1
100
AcDbXrecord
340
1A0
  0
XRECORD
  5
1B3
102
{ACAD_REACTORS
330
1B1
102
}
330
1B1
100
AcDbXrecord
340
19F
  0
DICTIONARYVAR
  5
1AE
102
{ACAD_REACTORS
330
C7
102
}
330
C7
100
DictionaryVariables
280
     0
  1
STANDARD
  0
DICTIONARYVAR
  5
1B0
102
{ACAD_REACTORS
330
C7
102
}
330
C7
100
DictionaryVariables
280
     0
  1
0
  0
DICTIONARY
  5
1B4
330
13
100
AcDbDictionary
280
     1
281
     1
  3
ACAD_XREC_ROUNDTRIP
360
1B5
  0
DICTIONARY
  5
1B6
330
C
100
AcDbDictionary
280
     1
281
     1
  3
ACAD_XREC_ROUNDTRIP
360
1B7
  0
XRECORD
  5
1B5
102
{ACAD_REACTORS
330
1B4
102
}
330
1B4
100
AcDbXrecord
102
SHADEPLOT
 70
     0
102
SHADEPLOTRESLEVEL
 70
     2
102
SHADEPLOTCUSTOMDPI
 70
   300
  0
XRECORD
  5
1B7
102
{ACAD_REACTORS
330
1B6
102
}
330
1B6
100
AcDbXrecord
102
SHADEPLOT
 70
     0
102
SHADEPLOTRESLEVEL
 70
     2
102
SHADEPLOTCUSTOMDPI
 70
   300
  0
ENDSEC
  0
EOF
