  0
SECTION
  2
HEADER
  9
$ACADVER
  1
AC1015
  9
$ACADMAINTVER
 70
     6
  9
$DWGCODEPAGE
  3
ANSI_1252
  9
$INSBASE
 10
0.0
 20
0.0
 30
0.0
  9
$EXTMIN
 10
-18.79370953489908
 20
-0.0282103488330847
 30
-0.0000000349181948
  9
$EXTMAX
 10
6.196555167295315
 20
21.31317859154713
 30
0.0000000814935746
  9
$LIMMIN
 10
0.0
 20
0.0
  9
$LIMMAX
 10
42.0
 20
32.0
  9
$ORTHOMODE
 70
     1
  9
$REGENMODE
 70
     1
  9
$FILLMODE
 70
     1
  9
$QTEXTMODE
 70
     0
  9
$MIRRTEXT
 70
     0
  9
$LTSCALE
 40
0.75
  9
$ATTMODE
 70
     1
  9
$TEXTSIZE
 40
0.36
  9
$TRACEWID
 40
0.05
  9
$TEXTSTYLE
  7
STANDARD
  9
$CLAYER
  8
0
  9
$CELTYPE
  6
HIDDEN
  9
$CECOLOR
 62
   256
  9
$CELTSCALE
 40
1.0
  9
$DISPSILH
 70
     0
  9
$DIMSCALE
 40
4.0
  9
$DIMASZ
 40
0.125
  9
$DIMEXO
 40
0.062
  9
$DIMDLI
 40
0.375
  9
$DIMRND
 40
0.0
  9
$DIMDLE
 40
0.0
  9
$DIMEXE
 40
0.08
  9
$DIMTP
 40
0.0
  9
$DIMTM
 40
0.0
  9
$DIMTXT
 40
0.09
  9
$DIMCEN
 40
-0.03125
  9
$DIMTSZ
 40
0.0
  9
$DIMTOL
 70
     0
  9
$DIMLIM
 70
     0
  9
$DIMTIH
 70
     1
  9
$DIMTOH
 70
     1
  9
$DIMSE1
 70
     0
  9
$DIMSE2
 70
     0
  9
$DIMTAD
 70
     0
  9
$DIMZIN
 70
     0
  9
$DIMBLK
  1

  9
$DIMASO
 70
     0
  9
$DIMSHO
 70
     0
  9
$DIMPOST
  1

  9
$DIMAPOST
  1

  9
$DIMALT
 70
     0
  9
$DIMALTD
 70
     2
  9
$DIMALTF
 40
25.4
  9
$DIMLFAC
 40
1.0
  9
$DIMTOFL
 70
     0
  9
$DIMTVP
 40
0.0
  9
$DIMTIX
 70
     0
  9
$DIMSOXD
 70
     0
  9
$DIMSAH
 70
     0
  9
$DIMBLK1
  1

  9
$DIMBLK2
  1

  9
$DIMSTYLE
  2
Standard
  9
$DIMCLRD
 70
     0
  9
$DIMCLRE
 70
     0
  9
$DIMCLRT
 70
     0
  9
$DIMTFAC
 40
1.0
  9
$DIMGAP
 40
0.09
  9
$DIMJUST
 70
     0
  9
$DIMSD1
 70
     0
  9
$DIMSD2
 70
     0
  9
$DIMTOLJ
 70
     1
  9
$DIMTZIN
 70
     0
  9
$DIMALTZ
 70
     0
  9
$DIMALTTZ
 70
     0
  9
$DIMUPT
 70
     0
  9
$DIMDEC
 70
     4
  9
$DIMTDEC
 70
     4
  9
$DIMALTU
 70
     2
  9
$DIMALTTD
 70
     2
  9
$DIMTXSTY
  7
STANDARD
  9
$DIMAUNIT
 70
     0
  9
$DIMADEC
 70
     0
  9
$DIMALTRND
 40
0.0
  9
$DIMAZIN
 70
     0
  9
$DIMDSEP
 70
    46
  9
$DIMATFIT
 70
     3
  9
$DIMFRAC
 70
     0
  9
$DIMLDRBLK
  1

  9
$DIMLUNIT
 70
     2
  9
$DIMLWD
 70
    -2
  9
$DIMLWE
 70
    -2
  9
$DIMTMOVE
 70
     2
  9
$LUNITS
 70
     2
  9
$LUPREC
 70
     4
  9
$SKETCHINC
 40
0.1
  9
$FILLETRAD
 40
0.0
  9
$AUNITS
 70
     0
  9
$AUPREC
 70
     0
  9
$MENU
  1
acad
  9
$ELEVATION
 40
0.0
  9
$PELEVATION
 40
0.0
  9
$THICKNESS
 40
0.0
  9
$LIMCHECK
 70
     0
  9
$CHAMFERA
 40
0.0
  9
$CHAMFERB
 40
0.0
  9
$CHAMFERC
 40
0.0
  9
$CHAMFERD
 40
0.0
  9
$SKPOLY
 70
     0
  9
$TDCREATE
 40
2449406.910311343
  9
$TDUCREATE
 40
2449407.243644676
  9
$TDUPDATE
 40
2454167.749874711
  9
$TDUUPDATE
 40
2454168.083208044
  9
$TDINDWG
 40
0.0285931134
  9
$TDUSRTIMER
 40
0.0285931134
  9
$USRTIMER
 70
     1
  9
$ANGBASE
 50
0.0
  9
$ANGDIR
 70
     0
  9
$PDMODE
 70
     0
  9
$PDSIZE
 40
0.0
  9
$PLINEWID
 40
0.0
  9
$SPLFRAME
 70
     0
  9
$SPLINETYPE
 70
     6
  9
$SPLINESEGS
 70
     8
  9
$HANDSEED
  5
423
  9
$SURFTAB1
 70
     6
  9
$SURFTAB2
 70
     6
  9
$SURFTYPE
 70
     6
  9
$SURFU
 70
     6
  9
$SURFV
 70
     6
  9
$UCSBASE
  2

  9
$UCSNAME
  2

  9
$UCSORG
 10
0.0
 20
0.0
 30
0.0
  9
$UCSXDIR
 10
1.0
 20
0.0
 30
0.0
  9
$UCSYDIR
 10
0.0
 20
1.0
 30
0.0
  9
$UCSORTHOREF
  2

  9
$UCSORTHOVIEW
 70
     0
  9
$UCSORGTOP
 10
0.0
 20
0.0
 30
0.0
  9
$UCSORGBOTTOM
 10
0.0
 20
0.0
 30
0.0
  9
$UCSORGLEFT
 10
0.0
 20
0.0
 30
0.0
  9
$UCSORGRIGHT
 10
0.0
 20
0.0
 30
0.0
  9
$UCSORGFRONT
 10
0.0
 20
0.0
 30
0.0
  9
$UCSORGBACK
 10
0.0
 20
0.0
 30
0.0
  9
$PUCSBASE
  2

  9
$PUCSNAME
  2

  9
$PUCSORG
 10
0.0
 20
0.0
 30
0.0
  9
$PUCSXDIR
 10
1.0
 20
0.0
 30
0.0
  9
$PUCSYDIR
 10
0.0
 20
1.0
 30
0.0
  9
$PUCSORTHOREF
  2

  9
$PUCSORTHOVIEW
 70
     0
  9
$PUCSORGTOP
 10
0.0
 20
0.0
 30
0.0
  9
$PUCSORGBOTTOM
 10
0.0
 20
0.0
 30
0.0
  9
$PUCSORGLEFT
 10
0.0
 20
0.0
 30
0.0
  9
$PUCSORGRIGHT
 10
0.0
 20
0.0
 30
0.0
  9
$PUCSORGFRONT
 10
0.0
 20
0.0
 30
0.0
  9
$PUCSORGBACK
 10
0.0
 20
0.0
 30
0.0
  9
$USERI1
 70
     0
  9
$USERI2
 70
     0
  9
$USERI3
 70
     0
  9
$USERI4
 70
     0
  9
$USERI5
 70
     0
  9
$USERR1
 40
0.0
  9
$USERR2
 40
0.0
  9
$USERR3
 40
0.0
  9
$USERR4
 40
0.0
  9
$USERR5
 40
0.0
  9
$WORLDVIEW
 70
     1
  9
$SHADEDGE
 70
     3
  9
$SHADEDIF
 70
    70
  9
$TILEMODE
 70
     1
  9
$MAXACTVP
 70
    16
  9
$PINSBASE
 10
0.0
 20
0.0
 30
0.0
  9
$PLIMCHECK
 70
     0
  9
$PEXTMIN
 10
1.000000000000000E+20
 20
1.000000000000000E+20
 30
1.000000000000000E+20
  9
$PEXTMAX
 10
-1.000000000000000E+20
 20
-1.000000000000000E+20
 30
-1.000000000000000E+20
  9
$PLIMMIN
 10
0.0
 20
0.0
  9
$PLIMMAX
 10
12.0
 20
9.0
  9
$UNITMODE
 70
     0
  9
$VISRETAIN
 70
     0
  9
$PLINEGEN
 70
     1
  9
$PSLTSCALE
 70
     0
  9
$TREEDEPTH
 70
  3020
  9
$CMLSTYLE
  2
Standard
  9
$CMLJUST
 70
     0
  9
$CMLSCALE
 40
1.0
  9
$PROXYGRAPHICS
 70
     1
  9
$MEASUREMENT
 70
     0
  9
$CELWEIGHT
370
    -1
  9
$ENDCAPS
280
     0
  9
$JOINSTYLE
280
     0
  9
$LWDISPLAY
290
     0
  9
$INSUNITS
 70
     0
  9
$HYPERLINKBASE
  1

  9
$STYLESHEET
  1

  9
$XEDIT
290
     1
  9
$CEPSNTYPE
380
     0
  9
$PSTYLEMODE
290
     1
  9
$FINGERPRINTGUID
  2
{5F647E27-4005-492F-B584-C5B67F30A26F}
  9
$VERSIONGUID
  2
{0CE72CC9-4C79-4E06-8CEA-CB64F794A024}
  9
$EXTNAMES
290
     1
  9
$PSVPSCALE
 40
0.0
  9
$OLESTARTUP
290
     0
  0
ENDSEC
  0
SECTION
  2
CLASSES
  0
CLASS
  1
ACDBDICTIONARYWDFLT
  2
AcDbDictionaryWithDefault
  3
AutoCAD 2000
 90
        0
280
     0
281
     0
  0
CLASS
  1
ACDBPLACEHOLDER
  2
AcDbPlaceHolder
  3
ObjectDBX Classes
 90
        0
280
     0
281
     0
  0
CLASS
  1
LAYOUT
  2
AcDbLayout
  3
ObjectDBX Classes
 90
        0
280
     0
281
     0
  0
CLASS
  1
LONG_TRANSACTION
  2
AcDbLongTransaction
  3
ObjectDBX Classes
 90
   -65536
280
     1
281
     0
  0
CLASS
  1
LWPOLYLINE
  2
AcDbPolyline
  3
AutoCAD 2000
 90
        0
280
     0
281
     1
  0
CLASS
  1
HATCH
  2
AcDbHatch
  3
AutoCAD 2000
 90
        0
280
     0
281
     1
  0
CLASS
  1
XRECORD
  2
AcDbXrecord
  3
AutoCAD 2000
 90
        0
280
     0
281
     0
  0
CLASS
  1
LONG_TRANSACTION
  2
AcDbLongTransaction
  3
ObjectDBX Classes
 90
   -65536
280
     1
281
     0
  0
CLASS
  1
LWPOLYLINE
  2
AcDbPolyline
  3
AutoCAD 2000
 90
        0
280
     0
281
     1
  0
CLASS
  1
HATCH
  2
AcDbHatch
  3
AutoCAD 2000
 90
        0
280
     0
281
     1
  0
CLASS
  1
XRECORD
  2
AcDbXrecord
  3
AutoCAD 2000
 90
        0
280
     0
281
     0
  0
CLASS
  1
LONG_TRANSACTION
  2
AcDbLongTransaction
  3
ObjectDBX Classes
 90
   -65536
280
     1
281
     0
  0
CLASS
  1
LWPOLYLINE
  2
AcDbPolyline
  3
AutoCAD 2000
 90
        0
280
     0
281
     1
  0
CLASS
  1
HATCH
  2
AcDbHatch
  3
AutoCAD 2000
 90
        0
280
     0
281
     1
  0
CLASS
  1
XRECORD
  2
AcDbXrecord
  3
AutoCAD 2000
 90
        0
280
     0
281
     0
  0
CLASS
  1
TABLESTYLE
  2
AcDbTableStyle
  3
ObjectDBX Classes
 90
     2047
280
     1
281
     0
  0
CLASS
  1
DICTIONARYVAR
  2
AcDbDictionaryVar
  3
AutoCAD 2000
 90
        0
280
     0
281
     0
  0
ENDSEC
  0
SECTION
  2
TABLES
  0
TABLE
  2
VPORT
  5
8
330
0
100
AcDbSymbolTable
 70
     4
  0
VPORT
  5
415
330
8
100
AcDbSymbolTableRecord
100
AcDbViewportTableRecord
  2
*Active
 70
     0
 10
0.0
 20
0.0
 11
1.0
 21
1.0
 12
11.60314523255046
 22
15.98589482558346
 13
0.0
 23
0.0
 14
0.0625
 24
0.0625
 15
0.25
 25
0.25
 16
0.0
 26
0.0
 36
1.0
 17
0.0
 27
0.0
 37
0.0
 40
33.7331570029769
 41
1.814583333333333
 42
50.0
 43
0.0
 44
0.0
 50
0.0
 51
0.0
 71
     0
 72
   100
 73
     1
 74
     0
 75
     0
 76
     0
 77
     0
 78
     0
281
     0
 65
     1
110
0.0
120
0.0
130
0.0
111
1.0
121
0.0
131
0.0
112
0.0
122
1.0
132
0.0
 79
     0
146
0.0
  0
ENDTAB
  0
TABLE
  2
LTYPE
  5
5
330
0
100
AcDbSymbolTable
 70
     2
  0
LTYPE
  5
13
330
5
100
AcDbSymbolTableRecord
100
AcDbLinetypeTableRecord
  2
ByBlock
 70
     0
  3

 72
    65
 73
     0
 40
0.0
  0
LTYPE
  5
14
330
5
100
AcDbSymbolTableRecord
100
AcDbLinetypeTableRecord
  2
ByLayer
 70
     0
  3

 72
    65
 73
     0
 40
0.0
  0
LTYPE
  5
15
330
5
100
AcDbSymbolTableRecord
100
AcDbLinetypeTableRecord
  2
CONTINUOUS
 70
     0
  3
Solid line
 72
    65
 73
     0
 40
0.0
  0
LTYPE
  5
38
330
5
100
AcDbSymbolTableRecord
100
AcDbLinetypeTableRecord
  2
HIDDEN
 70
     0
  3
_ _ _ _ _ _ _ _ _ _ _ _ _ _ _ _ _ _ _ _ _ _ _
 72
    65
 73
     2
 40
0.375
 49
0.25
 74
     0
 49
-0.125
 74
     0
  0
ENDTAB
  0
TABLE
  2
LAYER
  5
2
330
0
100
AcDbSymbolTable
 70
     1
  0
LAYER
  5
10
330
2
100
AcDbSymbolTableRecord
100
AcDbLayerTableRecord
  2
0
 70
     0
 62
     7
  6
CONTINUOUS
370
    -3
390
F
  0
ENDTAB
  0
TABLE
  2
STYLE
  5
3
330
0
100
AcDbSymbolTable
 70
     1
  0
STYLE
  5
11
330
3
100
AcDbSymbolTableRecord
100
AcDbTextStyleTableRecord
  2
STANDARD
 70
     0
 40
0.0
 41
1.0
 50
0.0
 71
     0
 42
0.36
  3
TXT
  4

  0
ENDTAB
  0
TABLE
  2
VIEW
  5
6
330
0
100
AcDbSymbolTable
 70
     0
  0
ENDTAB
  0
TABLE
  2
UCS
  5
7
330
0
100
AcDbSymbolTable
 70
     0
  0
ENDTAB
  0
TABLE
  2
APPID
  5
9
330
0
100
AcDbSymbolTable
 70
     1
  0
APPID
  5
12
330
9
100
AcDbSymbolTableRecord
100
AcDbRegAppTableRecord
  2
ACAD
 70
     0
  0
ENDTAB
  0
TABLE
  2
DIMSTYLE
  5
A
330
0
100
AcDbSymbolTable
 70
     1
100
AcDbDimStyleTable
  0
DIMSTYLE
105
2B8
330
A
100
AcDbSymbolTableRecord
100
AcDbDimStyleTableRecord
  2
Standard
 70
     0
  3

  4

340
11
  0
ENDTAB
  0
TABLE
  2
BLOCK_RECORD
  5
1
330
0
100
AcDbSymbolTable
 70
     0
  0
BLOCK_RECORD
  5
1E
330
1
100
AcDbSymbolTableRecord
100
AcDbBlockTableRecord
  2
*Model_Space
340
21
  0
BLOCK_RECORD
  5
1A
330
1
100
AcDbSymbolTableRecord
100
AcDbBlockTableRecord
  2
*Paper_Space
340
1D
  0
ENDTAB
  0
ENDSEC
  0
SECTION
  2
BLOCKS
  0
BLOCK
  5
50
330
1E
100
AcDbEntity
  8
0
100
AcDbBlockBegin
  2
*Model_Space
 70
     0
 10
0.0
 20
0.0
 30
0.0
  3
*Model_Space
  1

  4

  0
ENDBLK
  5
51
330
1E
100
AcDbEntity
  8
0
100
AcDbBlockEnd
  0
BLOCK
  5
4E
330
1A
100
AcDbEntity
 67
     1
  8
0
100
AcDbBlockBegin
  2
*Paper_Space
 70
     0
 10
0.0
 20
0.0
 30
0.0
  3
*Paper_Space
  1

  4

  0
ENDBLK
  5
4F
330
1A
100
AcDbEntity
 67
     1
  8
0
100
AcDbBlockEnd
  0
ENDSEC
  0
SECTION
  2
ENTITIES
  0
TEXT
  5
179
330
1E
100
AcDbEntity
  8
0
100
AcDbText
 10
0.0000000000000036
 20
0.0
 30
0.0
 40
0.36
  1
.
100
AcDbText
  0
LINE
  5
17F
330
1E
100
AcDbEntity
  8
0
100
AcDbLine
 10
-4.05366584546195
 20
9.25
 30
0.0
 11
-4.05366584546195
 21
0.8125000000000036
 31
0.0
  0
LINE
  5
180
330
1E
100
AcDbEntity
  8
0
100
AcDbLine
 10
-4.05366584546195
 20
0.8125000000000036
 30
0.0
 11
-2.80366584546195
 21
0.8125000000000036
 31
0.0
  0
LINE
  5
181
330
1E
100
AcDbEntity
  8
0
  6
HIDDEN
100
AcDbLine
 10
-2.80366584546195
 20
9.1875
 30
0.0
 11
-4.05366584546195
 21
9.1875
 31
0.0
  0
LINE
  5
182
330
1E
100
AcDbEntity
  8
0
100
AcDbLine
 10
3.065892668111417
 20
18.6381498684984
 30
0.0
 11
4.923945262335497
 21
17.07905862197698
 31
0.0
  0
LINE
  5
183
330
1E
100
AcDbEntity
  8
0
100
AcDbLine
 10
4.923945262335497
 20
17.07905862197698
 30
0.0
 11
2.553665951616384
 21
14.25426973797575
 31
0.0
  0
LINE
  5
184
330
1E
100
AcDbEntity
  8
0
100
AcDbLine
 10
2.553665951616384
 20
14.25426973797575
 30
0.0
 11
-2.784955970583091
 21
18.73390542388827
 31
0.0
  0
LINE
  5
185
330
1E
100
AcDbEntity
  8
0
100
AcDbLine
 10
2.593840177221793
 20
14.30214751567069
 30
0.0
 11
-2.630664717830939
 21
18.68602764619332
 31
0.0
  0
LINE
  5
186
330
1E
100
AcDbEntity
  8
0
100
AcDbLine
 10
3.025718442506008
 20
18.59027209080346
 30
0.0
 11
4.883771036730089
 21
17.03118084428205
 31
0.0
  0
LINE
  5
187
330
1E
100
AcDbEntity
  8
0
100
AcDbLine
 10
6.19633415453805
 20
18.74852764619334
 30
0.0
 11
3.106066893716825
 21
18.74852764619333
 31
0.0
  0
LINE
  5
188
330
1E
100
AcDbEntity
  8
0
100
AcDbLine
 10
6.19633415453805
 20
18.74852764619334
 30
0.0
 11
6.196334154538047
 21
18.81102764619334
 31
0.0
  0
LINE
  5
189
330
1E
100
AcDbEntity
  8
0
100
AcDbLine
 10
4.94633415453805
 20
18.81102764619334
 30
0.0
 11
3.106066893716825
 21
18.81102764619334
 31
0.0
  0
LINE
  5
18A
330
1E
100
AcDbEntity
  8
0
100
AcDbLine
 10
-4.05366584546195
 20
18.81102764619333
 30
0.0
 11
-4.05366584546195
 21
18.74852764619334
 31
0.0
  0
LINE
  5
18B
330
1E
100
AcDbEntity
  8
0
100
AcDbLine
 10
-2.825130196188503
 20
18.74852764619334
 30
0.0
 11
-4.05366584546195
 21
18.74852764619334
 31
0.0
  0
LINE
  5
18C
330
1E
100
AcDbEntity
  8
0
  6
HIDDEN
100
AcDbLine
 10
-2.825130196188503
 20
18.81102764619334
 30
0.0
 11
-4.05366584546195
 21
18.81102764619333
 31
0.0
  0
ARC
  5
18D
330
1E
100
AcDbEntity
  8
0
100
AcDbCircle
 10
3.106066893716825
 20
18.68602764619333
 30
0.0
 40
0.0625
100
AcDbArc
 50
90.00000000000004
 51
230.0000000000001
  0
ARC
  5
18E
330
1E
100
AcDbEntity
  8
0
100
AcDbCircle
 10
3.106066893716825
 20
18.68602764619334
 30
0.0
 40
0.125
100
AcDbArc
 50
90.00000000000004
 51
150.0000000000028
  0
ARC
  5
18F
330
1E
100
AcDbEntity
  8
0
100
AcDbCircle
 10
-2.825130196188503
 20
18.68602764619334
 30
0.0
 40
0.125
100
AcDbArc
 50
50.0000000000001
 51
90.00000000000004
  0
ARC
  5
190
330
1E
100
AcDbEntity
  8
0
100
AcDbCircle
 10
-2.825130196188503
 20
18.68602764619334
 30
0.0
 40
0.0625
100
AcDbArc
 50
50.0000000000001
 51
90.00000000000004
  0
LINE
  5
191
330
1E
100
AcDbEntity
  8
0
100
AcDbLine
 10
6.19633415453805
 20
0.8125000000000071
 30
0.0
 11
6.19633415453805
 21
9.250000000000004
 31
0.0
  0
LINE
  5
192
330
1E
100
AcDbEntity
  8
0
100
AcDbLine
 10
-2.80366584546195
 20
8.4375
 30
0.0
 11
2.593840177221789
 21
8.4375
 31
0.0
  0
LINE
  5
193
330
1E
100
AcDbEntity
  8
0
100
AcDbLine
 10
-2.67866584546195
 20
0.0000000000000036
 30
0.0
 11
2.678665845461953
 21
0.0
 31
0.0
  0
LINE
  5
194
330
1E
100
AcDbEntity
  8
0
  6
HIDDEN
100
AcDbLine
 10
-2.700991619856545
 20
0.0625000000000107
 30
0.0
 11
2.570412776143336
 21
0.0625
 31
0.0
  0
LINE
  5
195
330
1E
100
AcDbEntity
  8
0
  6
HIDDEN
100
AcDbLine
 10
2.981066893716825
 20
0.8125000000000036
 30
0.0
 11
4.883771036730089
 21
0.8125000000000071
 31
0.0
  0
LINE
  5
196
330
1E
100
AcDbEntity
  8
0
100
AcDbLine
 10
4.923945262335497
 20
0.125
 30
0.0
 11
4.923945262335497
 21
8.4375
 31
0.0
  0
LINE
  5
197
330
1E
100
AcDbEntity
  8
0
100
AcDbLine
 10
4.883771036730089
 20
0.1250000000000036
 30
0.0
 11
4.883771036730089
 21
8.437499999999996
 31
0.0
  0
LINE
  5
198
330
1E
100
AcDbEntity
  8
0
100
AcDbLine
 10
2.553665951616388
 20
0.1250000000000036
 30
0.0
 11
2.553665951616384
 21
8.4375
 31
0.0
  0
LINE
  5
199
330
1E
100
AcDbEntity
  8
0
100
AcDbLine
 10
2.593840177221793
 20
0.1250000000000036
 30
0.0
 11
2.593840177221789
 21
8.4375
 31
0.0
  0
LINE
  5
19A
330
1E
100
AcDbEntity
  8
0
100
AcDbLine
 10
-2.80366584546195
 20
0.125
 30
0.0
 11
-2.80366584546195
 21
0.75
 31
0.0
  0
LINE
  5
19B
330
1E
100
AcDbEntity
  8
0
100
AcDbLine
 10
-2.763491619856545
 20
0.1250000000000036
 30
0.0
 11
-2.763491619856545
 21
0.8125000000000036
 31
0.0
  0
LINE
  5
19C
330
1E
100
AcDbEntity
  8
0
100
AcDbLine
 10
2.981066893716825
 20
0.1250000000000036
 30
0.0
 11
2.981066893716825
 21
8.4375
 31
0.0
  0
LINE
  5
19D
330
1E
100
AcDbEntity
  8
0
  6
HIDDEN
100
AcDbLine
 10
3.043566893716825
 20
0.125
 30
0.0
 11
3.043566893716827
 21
0.8125000000000036
 31
0.0
  0
LINE
  5
19E
330
1E
100
AcDbEntity
  8
0
100
AcDbLine
 10
2.981066893716825
 20
8.4375
 30
0.0
 11
4.94633415453805
 21
8.4375
 31
0.0
  0
LINE
  5
19F
330
1E
100
AcDbEntity
  8
0
100
AcDbLine
 10
-11.73624144337132
 20
8.4375
 30
0.0
 11
-16.23049935158891
 21
8.4375
 31
0.0
  0
LINE
  5
1A0
330
1E
100
AcDbEntity
  8
0
100
AcDbLine
 10
-11.84661922106627
 20
0.0625
 30
0.0
 11
-16.23049935158892
 21
0.0625
 31
0.0
  0
LINE
  5
1A1
330
1E
100
AcDbEntity
  8
0
100
AcDbLine
 10
-16.29299935158891
 20
9.124999999999996
 30
0.0
 11
-16.29299935158891
 21
0.8125
 31
0.0
  0
LINE
  5
1A2
330
1E
100
AcDbEntity
  8
0
100
AcDbLine
 10
-16.23049935158891
 20
9.124999999999996
 30
0.0
 11
-16.23049935158891
 21
0.0
 31
0.0
  0
LINE
  5
1A3
330
1E
100
AcDbEntity
  8
0
100
AcDbLine
 10
-16.27837712928385
 20
0.0
 30
0.0
 11
-16.27837712928385
 21
0.8125
 31
0.0
  0
LINE
  5
1A4
330
1E
100
AcDbEntity
  8
0
100
AcDbLine
 10
-11.78411922106627
 20
0.125
 30
0.0
 11
-11.78411922106627
 21
8.4375
 31
0.0
  0
LINE
  5
1A5
330
1E
100
AcDbEntity
  8
0
100
AcDbLine
 10
-11.73624144337132
 20
0.125
 30
0.0
 11
-11.73624144337133
 21
8.437500000000004
 31
0.0
  0
LINE
  5
1A6
330
1E
100
AcDbEntity
  8
0
100
AcDbLine
 10
4.923945262335497
 20
0.8125000000000036
 30
0.0
 11
6.19633415453805
 21
0.8125000000000036
 31
0.0
  0
ARC
  5
1A7
330
1E
100
AcDbEntity
  8
0
100
AcDbCircle
 10
4.821271036730089
 20
0.1250000000000036
 30
0.0
 40
0.0625
100
AcDbArc
 50
269.9999999999999
 51
359.9999999999999
  0
ARC
  5
1A8
330
1E
100
AcDbEntity
  8
0
100
AcDbCircle
 10
-2.700991619856545
 20
0.1250000000000036
 30
0.0
 40
0.0625
100
AcDbArc
 50
180.0
 51
270.0
  0
ARC
  5
1A9
330
1E
100
AcDbEntity
  8
0
100
AcDbCircle
 10
-2.67866584546195
 20
0.125
 30
0.0
 40
0.125
100
AcDbArc
 50
180.0
 51
269.9999999999999
  0
ARC
  5
1AA
330
1E
100
AcDbEntity
  8
0
100
AcDbCircle
 10
4.798945262335497
 20
0.125
 30
0.0
 40
0.125
100
AcDbArc
 50
269.9999999999999
 51
359.9999999999999
  0
LINE
  5
1AB
330
1E
100
AcDbEntity
  8
0
100
AcDbLine
 10
2.656340177221793
 20
0.0625000000000036
 30
0.0
 11
4.821271036730089
 21
0.0625000000000036
 31
0.0
  0
LINE
  5
1AC
330
1E
100
AcDbEntity
  8
0
100
AcDbLine
 10
2.678665951616388
 20
0.0
 30
0.0
 11
4.798945262335497
 21
0.0
 31
0.0
  0
ARC
  5
1AD
330
1E
100
AcDbEntity
  8
0
100
AcDbCircle
 10
2.918566893716825
 20
0.125
 30
0.0
 40
0.125
100
AcDbArc
 50
330.0000000000017
 51
359.9999999999999
  0
ARC
  5
1AE
330
1E
100
AcDbEntity
  8
0
100
AcDbCircle
 10
2.918566893716825
 20
0.1250000000000036
 30
0.0
 40
0.0625
100
AcDbArc
 50
269.9999999999999
 51
359.9999999999999
  0
ARC
  5
1AF
330
1E
100
AcDbEntity
  8
0
100
AcDbCircle
 10
2.656340177221793
 20
0.1250000000000036
 30
0.0
 40
0.0625
100
AcDbArc
 50
180.0
 51
269.9999999999999
  0
ARC
  5
1B0
330
1E
100
AcDbEntity
  8
0
100
AcDbCircle
 10
2.678665951616388
 20
0.1250000000000036
 30
0.0
 40
0.125
100
AcDbArc
 50
180.0
 51
269.9999999999999
  0
ARC
  5
1B1
330
1E
100
AcDbEntity
  8
0
100
AcDbCircle
 10
-11.86124144337132
 20
0.125
 30
0.0
 40
0.125
100
AcDbArc
 50
270.0
 51
0.000000000000007
  0
ARC
  5
1B2
330
1E
100
AcDbEntity
  8
0
100
AcDbCircle
 10
-11.84661922106627
 20
0.125
 30
0.0
 40
0.0625
100
AcDbArc
 50
270.0
 51
0.000000000000007
  0
LINE
  5
1B3
330
1E
100
AcDbEntity
  8
0
100
AcDbLine
 10
-11.86124144337132
 20
0.0
 30
0.0
 11
-16.27837712928385
 21
0.0
 31
0.0
  0
LINE
  5
1B4
330
1E
100
AcDbEntity
  8
0
100
AcDbLine
 10
-16.23049935158891
 20
0.8125
 30
0.0
 11
-16.29299935158891
 21
0.8125
 31
0.0
  0
CIRCLE
  5
1BC
330
1E
100
AcDbEntity
  8
0
100
AcDbCircle
 10
-3.67866584546195
 20
8.125
 30
0.0
 40
0.109375
  0
CIRCLE
  5
1BD
330
1E
100
AcDbEntity
  8
0
100
AcDbCircle
 10
-3.67866584546195
 20
4.625000000000004
 30
0.0
 40
0.109375
  0
CIRCLE
  5
1BE
330
1E
100
AcDbEntity
  8
0
100
AcDbCircle
 10
-3.67866584546195
 20
1.125000000000004
 30
0.0
 40
0.109375
  0
CIRCLE
  5
1BF
330
1E
100
AcDbEntity
  8
0
100
AcDbCircle
 10
5.82133415453805
 20
1.125000000000004
 30
0.0
 40
0.109375
  0
CIRCLE
  5
1C0
330
1E
100
AcDbEntity
  8
0
100
AcDbCircle
 10
5.82133415453805
 20
4.625000000000004
 30
0.0
 40
0.109375
  0
CIRCLE
  5
1C1
330
1E
100
AcDbEntity
  8
0
100
AcDbCircle
 10
5.82133415453805
 20
8.125
 30
0.0
 40
0.109375
  0
CIRCLE
  5
1C2
330
1E
100
AcDbEntity
  8
0
100
AcDbCircle
 10
2.25883415453805
 20
7.125
 30
0.0
 40
0.109375
  0
CIRCLE
  5
1C3
330
1E
100
AcDbEntity
  8
0
100
AcDbCircle
 10
2.25883415453805
 20
1.125
 30
0.0
 40
0.109375
  0
CIRCLE
  5
1C4
330
1E
100
AcDbEntity
  8
0
100
AcDbCircle
 10
-12.04299935158891
 20
1.125
 30
0.0
 40
0.109375
  0
CIRCLE
  5
1C5
330
1E
100
AcDbEntity
  8
0
100
AcDbCircle
 10
-12.04299935158891
 20
7.125
 30
0.0
 40
0.109375
  0
LINE
  5
1EF
330
1E
100
AcDbEntity
  8
0
  6
HIDDEN
100
AcDbLine
 10
-14.56103032737256
 20
0.0
 30
0.0
 11
-14.56103032737256
 21
8.4375
 31
0.0
  0
LINE
  5
1F0
330
1E
100
AcDbEntity
  8
0
  6
HIDDEN
100
AcDbLine
 10
-14.51315254967762
 20
0.0625000000000036
 30
0.0
 11
-14.51315254967762
 21
8.4375
 31
0.0
  0
CIRCLE
  5
1F5
330
1E
100
AcDbEntity
  8
0
100
AcDbCircle
 10
1.88383415453805
 20
1.875
 30
0.0
 40
0.109375
  0
CIRCLE
  5
1F6
330
1E
100
AcDbEntity
  8
0
100
AcDbCircle
 10
1.88383415453805
 20
7.875
 30
0.0
 40
0.109375
  0
CIRCLE
  5
1F7
330
1E
100
AcDbEntity
  8
0
100
AcDbCircle
 10
-12.41799935158891
 20
7.875
 30
0.0
 40
0.109375
  0
CIRCLE
  5
1F8
330
1E
100
AcDbEntity
  8
0
100
AcDbCircle
 10
-12.41799935158891
 20
1.875
 30
0.0
 40
0.109375
  0
LINE
  5
200
330
1E
100
AcDbEntity
  8
0
100
AcDbLine
 10
-16.35549935158891
 20
9.249999999999996
 30
0.0
 11
-18.79299935158891
 21
9.249999999999996
 31
0.0
  0
LINE
  5
201
330
1E
100
AcDbEntity
  8
0
100
AcDbLine
 10
-16.35549935158891
 20
9.187499999999996
 30
0.0
 11
-18.79299935158891
 21
9.187499999999996
 31
0.0
  0
ARC
  5
202
330
1E
100
AcDbEntity
  8
0
100
AcDbCircle
 10
-16.35549935158891
 20
9.124999999999996
 30
0.0
 40
0.125
100
AcDbArc
 50
0.000000000000007
 51
90.0
  0
ARC
  5
203
330
1E
100
AcDbEntity
  8
0
100
AcDbCircle
 10
-16.35549935158891
 20
9.124999999999996
 30
0.0
 40
0.0625
100
AcDbArc
 50
0.000000000000007
 51
90.0
  0
LINE
  5
204
330
1E
100
AcDbEntity
  8
0
100
AcDbLine
 10
-18.79299935158891
 20
9.249999999999996
 30
0.0
 11
-18.79299935158891
 21
9.187499999999996
 31
0.0
  0
LINE
  5
20E
330
1E
100
AcDbEntity
  8
0
100
AcDbLine
 10
-4.05366584546195
 20
18.74852764619334
 30
0.0
 11
-4.05366584546195
 21
21.31102764619334
 31
0.0
  0
LINE
  5
20F
330
1E
100
AcDbEntity
  8
0
100
AcDbLine
 10
-4.05366584546195
 20
21.31102764619334
 30
0.0
 11
-2.80366584546195
 21
21.31102764619334
 31
0.0
  0
LINE
  5
210
330
1E
100
AcDbEntity
  8
0
100
AcDbLine
 10
-2.80366584546195
 20
21.31102764619334
 30
0.0
 11
-2.80366584546195
 21
18.80917098400709
 31
0.0
  0
LINE
  5
214
330
1E
100
AcDbEntity
  8
0
100
AcDbLine
 10
4.94633415453805
 20
9.25
 30
0.0
 11
6.19633415453805
 21
9.25
 31
0.0
  0
LINE
  5
215
330
1E
100
AcDbEntity
  8
0
  6
HIDDEN
100
AcDbLine
 10
4.94633415453805
 20
9.1875
 30
0.0
 11
6.19633415453805
 21
9.1875
 31
0.0
  0
LINE
  5
216
330
1E
100
AcDbEntity
  8
0
100
AcDbLine
 10
4.94633415453805
 20
8.4375
 30
0.0
 11
4.94633415453805
 21
9.250000000000004
 31
0.0
  0
LINE
  5
21F
330
1E
100
AcDbEntity
  8
0
100
AcDbLine
 10
-2.80366584546195
 20
9.25
 30
0.0
 11
-4.05366584546195
 21
9.25
 31
0.0
  0
LINE
  5
220
330
1E
100
AcDbEntity
  8
0
100
AcDbLine
 10
-2.80366584546195
 20
8.4375
 30
0.0
 11
-2.80366584546195
 21
9.25
 31
0.0
  0
LINE
  5
221
330
1E
100
AcDbEntity
  8
0
100
AcDbLine
 10
-2.80366584546195
 20
0.125
 30
0.0
 11
-2.80366584546195
 21
8.310777354675981
 31
0.0
  0
ARC
  5
230
330
1E
100
AcDbEntity
  8
0
100
AcDbCircle
 10
-12.46587712928386
 20
7.875
 30
0.0
 40
0.109375
100
AcDbArc
 50
282.6426619919413
 51
77.35733800805873
  0
ARC
  5
231
330
1E
100
AcDbEntity
  8
0
100
AcDbCircle
 10
-12.09087712928386
 20
7.125
 30
0.0
 40
0.109375
100
AcDbArc
 50
282.6426619919413
 51
77.35733800805873
  0
ARC
  5
232
330
1E
100
AcDbEntity
  8
0
100
AcDbCircle
 10
-12.46587712928386
 20
1.875
 30
0.0
 40
0.109375
100
AcDbArc
 50
282.6426619919413
 51
77.35733800805873
  0
ARC
  5
233
330
1E
100
AcDbEntity
  8
0
100
AcDbCircle
 10
-12.09087712928386
 20
1.125
 30
0.0
 40
0.109375
100
AcDbArc
 50
282.6426619919413
 51
77.35733800805873
  0
LINE
  5
234
330
1E
100
AcDbEntity
  8
0
  6
HIDDEN
100
AcDbLine
 10
3.043566893716825
 20
0.8125000000000036
 30
0.0
 11
3.043566893716825
 21
8.4375
 31
0.0
  0
LINE
  5
235
330
1E
100
AcDbEntity
  8
0
100
AcDbLine
 10
-2.80366584546195
 20
0.8125000000000036
 30
0.0
 11
-2.763491619856545
 21
0.8125000000000036
 31
0.0
  0
TEXT
  5
24B
330
1E
100
AcDbEntity
  8
0
100
AcDbText
 10
25.71707622748435
 20
25.02179900497016
 30
0.0
 40
0.36
  1
   
 72
     1
 11
26.25707622748434
 21
25.20179900497016
 31
0.0
100
AcDbText
 73
     2
  0
LINE
  5
26B
330
1E
100
AcDbEntity
  8
0
100
AcDbLine
 10
2.981066893716825
 20
18.68602764619333
 30
0.0
 11
-2.630664717830939
 21
18.68602764619332
 31
0.0
  0
ARC
  5
26C
330
1E
100
AcDbEntity
  8
0
100
AcDbCircle
 10
3.106066893716825
 20
18.68602764619334
 30
0.0
 40
0.125
100
AcDbArc
 50
150.0000000000028
 51
180.0000000000033
  0
LINE
  5
26D
330
1E
100
AcDbEntity
  8
0
100
AcDbLine
 10
-2.705149317368083
 20
18.74852764619332
 30
0.0
 11
-2.744781744977686
 21
18.78178320158321
 31
0.0
  0
ARC
  5
26E
330
1E
100
AcDbEntity
  8
0
100
AcDbCircle
 10
3.106066893716825
 20
18.68602764619334
 30
0.0
 40
0.125
100
AcDbArc
 50
180.0000000000033
 51
230.0000000000005
  0
LINE
  5
26F
330
1E
100
AcDbEntity
  8
0
100
AcDbLine
 10
-2.630664717830939
 20
18.68602764619332
 30
0.0
 11
-2.705149317368083
 21
18.74852764619332
 31
0.0
  0
LINE
  5
271
330
1E
100
AcDbEntity
  8
0
100
AcDbLine
 10
4.94633415453805
 20
21.31102764619334
 30
0.0
 11
4.946334154538051
 21
18.74852764619334
 31
0.0
  0
LINE
  5
272
330
1E
100
AcDbEntity
  8
0
100
AcDbLine
 10
6.19633415453805
 20
18.74852764619334
 30
0.0
 11
6.19633415453805
 21
21.31102764619334
 31
0.0
  0
LINE
  5
273
330
1E
100
AcDbEntity
  8
0
100
AcDbLine
 10
6.19633415453805
 20
21.31102764619334
 30
0.0
 11
4.94633415453805
 21
21.31102764619334
 31
0.0
  0
CIRCLE
  5
275
330
1E
100
AcDbEntity
  8
0
100
AcDbCircle
 10
5.82133415453805
 20
6.375
 30
0.0
 40
0.109375
  0
CIRCLE
  5
276
330
1E
100
AcDbEntity
  8
0
100
AcDbCircle
 10
-3.67866584546195
 20
6.375
 30
0.0
 40
0.109375
  0
ARC
  5
277
330
1E
100
AcDbEntity
  8
0
100
AcDbCircle
 10
1.924008380143455
 20
1.875
 30
0.0
 40
0.109375
100
AcDbArc
 50
100.5826446249615
 51
259.4173553750385
  0
ARC
  5
278
330
1E
100
AcDbEntity
  8
0
100
AcDbCircle
 10
2.299008380143455
 20
1.125
 30
0.0
 40
0.109375
100
AcDbArc
 50
100.5826446249615
 51
259.4173553750385
  0
ARC
  5
279
330
1E
100
AcDbEntity
  8
0
100
AcDbCircle
 10
1.924008380143455
 20
7.875
 30
0.0
 40
0.109375
100
AcDbArc
 50
100.5826446249615
 51
259.4173553750385
  0
ARC
  5
27A
330
1E
100
AcDbEntity
  8
0
100
AcDbCircle
 10
2.299008380143455
 20
7.125
 30
0.0
 40
0.109375
100
AcDbArc
 50
100.5826446249615
 51
259.4173553750385
  0
CIRCLE
  5
281
330
1E
100
AcDbEntity
  8
0
100
AcDbCircle
 10
5.82133415453805
 20
2.875000000000007
 30
0.0
 40
0.109375
  0
CIRCLE
  5
282
330
1E
100
AcDbEntity
  8
0
100
AcDbCircle
 10
-3.67866584546195
 20
2.875000000000007
 30
0.0
 40
0.109375
  0
CIRCLE
  5
283
330
1E
100
AcDbEntity
  8
0
100
AcDbCircle
 10
2.25883415453805
 20
4.125
 30
0.0
 40
0.109375
  0
ARC
  5
284
330
1E
100
AcDbEntity
  8
0
100
AcDbCircle
 10
2.299008380143455
 20
4.125
 30
0.0
 40
0.109375
100
AcDbArc
 50
100.5826446249615
 51
259.4173553750385
  0
ARC
  5
285
330
1E
100
AcDbEntity
  8
0
100
AcDbCircle
 10
1.924008380143455
 20
4.875
 30
0.0
 40
0.109375
100
AcDbArc
 50
100.5826446249615
 51
259.4173553750385
  0
CIRCLE
  5
286
330
1E
100
AcDbEntity
  8
0
100
AcDbCircle
 10
1.88383415453805
 20
4.875
 30
0.0
 40
0.109375
  0
ARC
  5
287
330
1E
100
AcDbEntity
  8
0
100
AcDbCircle
 10
-12.09087712928386
 20
4.125
 30
0.0
 40
0.109375
100
AcDbArc
 50
282.6426619919413
 51
77.35733800805873
  0
CIRCLE
  5
288
330
1E
100
AcDbEntity
  8
0
100
AcDbCircle
 10
-12.04299935158891
 20
4.125
 30
0.0
 40
0.109375
  0
ARC
  5
289
330
1E
100
AcDbEntity
  8
0
100
AcDbCircle
 10
-12.46587712928386
 20
4.875
 30
0.0
 40
0.109375
100
AcDbArc
 50
282.6426619919413
 51
77.35733800805873
  0
CIRCLE
  5
28A
330
1E
100
AcDbEntity
  8
0
100
AcDbCircle
 10
-12.41799935158891
 20
4.875
 30
0.0
 40
0.109375
  0
CIRCLE
  5
294
330
1E
100
AcDbEntity
  8
0
100
AcDbCircle
 10
-3.55366584546195
 20
20.87352764619334
 30
0.0
 40
0.109375
  0
CIRCLE
  5
296
330
1E
100
AcDbEntity
  8
0
100
AcDbCircle
 10
-3.17866584546195
 20
19.74852764619333
 30
0.0
 40
0.109375
  0
CIRCLE
  5
2B6
330
1E
100
AcDbEntity
  8
0
100
AcDbCircle
 10
5.321334154538047
 20
19.74852764619333
 30
0.0
 40
0.109375
  0
CIRCLE
  5
2B7
330
1E
100
AcDbEntity
  8
0
100
AcDbCircle
 10
5.696334154538047
 20
20.87352764619334
 30
0.0
 40
0.109375
  0
LINE
  5
3FF
330
1E
100
AcDbEntity
  8
0
  6
HIDDEN
100
AcDbLine
 10
4.94633415453805
 20
18.81102764619334
 30
0.0
 11
6.19633415453805
 21
18.81102764619334
 31
0.0
  0
ENDSEC
  0
SECTION
  2
OBJECTS
  0
DICTIONARY
  5
C
330
0
100
AcDbDictionary
281
     1
  3
ACAD_COLOR
350
3EB
  3
ACAD_GROUP
350
D
  3
ACAD_LAYOUT
350
19
  3
ACAD_MATERIAL
350
3EA
  3
ACAD_MLINESTYLE
350
16
  3
ACAD_PLOTSETTINGS
350
18
  3
ACAD_PLOTSTYLENAME
350
E
  3
ACAD_TABLESTYLE
350
3EC
  3
ACDBHEADERROUNDTRIPXREC
350
41C
  3
AcDbVariableDictionary
350
3F8
  0
DICTIONARY
  5
3EB
102
{ACAD_REACTORS
330
C
102
}
330
C
100
AcDbDictionary
281
     1
  0
DICTIONARY
  5
D
102
{ACAD_REACTORS
330
C
102
}
330
C
100
AcDbDictionary
281
     1
  0
DICTIONARY
  5
19
102
{ACAD_REACTORS
330
C
102
}
330
C
100
AcDbDictionary
281
     1
  3
Layout1
350
1D
  3
Model
350
21
  0
DICTIONARY
  5
3EA
102
{ACAD_REACTORS
330
C
102
}
330
C
100
AcDbDictionary
281
     1
  0
DICTIONARY
  5
16
102
{ACAD_REACTORS
330
C
102
}
330
C
100
AcDbDictionary
281
     1
  3
Standard
350
17
  0
DICTIONARY
  5
18
102
{ACAD_REACTORS
330
C
102
}
330
C
100
AcDbDictionary
281
     1
  0
ACDBDICTIONARYWDFLT
  5
E
102
{ACAD_REACTORS
330
C
102
}
330
C
100
AcDbDictionary
281
     1
  3
Normal
350
F
100
AcDbDictionaryWithDefault
340
F
  0
DICTIONARY
  5
3EC
102
{ACAD_REACTORS
330
C
102
}
330
C
100
AcDbDictionary
281
     1
  3
Standard
350
3ED
  0
DICTIONARY
  5
41C
102
{ACAD_REACTORS
330
C
102
}
330
C
100
AcDbDictionary
281
     1
  3
COLORDICT
350
41D
  3
MATERIALDICT
350
41E
  0
DICTIONARY
  5
3F8
102
{ACAD_REACTORS
330
C
102
}
330
C
100
AcDbDictionary
281
     1
  3
CTABLESTYLE
350
3F9
  0
LAYOUT
  5
1D
102
{ACAD_REACTORS
330
19
102
}
102
{ACAD_XDICTIONARY
360
41F
102
}
330
19
100
AcDbPlotSettings
  1

  2
C:\ACAD2000\plotters\HP LaserJet 2100 Series PS.pc3
  4

  6

 40
0.0
 41
0.0
 42
0.0
 43
0.0
 44
0.0
 45
0.0
 46
0.0
 47
0.0
 48
0.0
 49
0.0
140
0.0
141
0.0
142
1.0
143
1.0
 70
   688
 72
     0
 73
     0
 74
     5
  7

 75
    16
147
1.0
148
0.0
149
0.0
100
AcDbLayout
  1
Layout1
 70
     0
 71
     1
 10
0.0
 20
0.0
 11
12.0
 21
9.0
 12
0.0
 22
0.0
 32
0.0
 14
1.000000000000000E+20
 24
1.000000000000000E+20
 34
1.000000000000000E+20
 15
-1.000000000000000E+20
 25
-1.000000000000000E+20
 35
-1.000000000000000E+20
146
0.0
 13
0.0
 23
0.0
 33
0.0
 16
1.0
 26
0.0
 36
0.0
 17
0.0
 27
1.0
 37
0.0
 76
     0
330
1A
  0
LAYOUT
  5
21
102
{ACAD_REACTORS
330
19
102
}
102
{ACAD_XDICTIONARY
360
421
102
}
330
19
100
AcDbPlotSettings
  1

  2
HP LaserJet 2100 Series PS
  4
Letter
  6

 40
5.365749835968018
 41
5.408073902130127
 42
5.132904052734375
 43
5.090576171875
 44
215.8999938964844
 45
279.3999938964844
 46
0.0
 47
0.0
 48
0.0
 49
0.0
140
0.0
141
0.0
142
1.0
143
1.0
 70
 11952
 72
     0
 73
     1
 74
     2
  7

 75
     0
147
1.0
148
0.0
149
0.0
100
AcDbLayout
  1
Model
 70
     1
 71
     0
 10
0.0
 20
0.0
 11
12.0
 21
9.0
 12
0.0
 22
0.0
 32
0.0
 14
0.0
 24
0.0
 34
0.0
 15
0.0
 25
0.0
 35
0.0
146
0.0
 13
0.0
 23
0.0
 33
0.0
 16
1.0
 26
0.0
 36
0.0
 17
0.0
 27
1.0
 37
0.0
 76
     0
330
1E
  0
MLINESTYLE
  5
17
102
{ACAD_REACTORS
330
16
102
}
330
16
100
AcDbMlineStyle
  2
STANDARD
 70
     0
  3

 62
   256
 51
90.0
 52
90.0
 71
     2
 49
0.5
 62
   256
  6
BYLAYER
 49
-0.5
 62
   256
  6
BYLAYER
  0
ACDBPLACEHOLDER
  5
F
102
{ACAD_REACTORS
330
E
102
}
330
E
  0
ACAD_PROXY_OBJECT
  5
3ED
102
{ACAD_REACTORS
330
3EC
102
}
330
3EC
100
AcDbProxyObject
 90
      499
 91
      515
 95
   983063
 70
     0
 93
     1841
310
4214DD185B99185C9928B81E85EB51B8AE3F2E07A17AD46E2B8FC02B5E8DC0F42B1CFD028000000C1008070000C3001FDFF8000000C1003FBFF000000182007F7FE00000030400FEFFC00000060801FDFF8000000C1003FBFF00000018200000000000000681FA0B0000001820100E000186003FBFF000000182007F7FE000
310
00030400FEFFC00000060801FDFF8000000C1003FBFF000000182007F7FE000000304000AD7A3703D0AC73F4160000003040201C00030C007F7FE00000030400FEFFC00000060801FDFF8000000C1003FBFF000000182007F7FE00000030400FEFFC000000608000
340
11
340
11
340
11
 94
        0
  0
XRECORD
  5
41D
102
{ACAD_REACTORS
330
41C
102
}
330
41C
100
AcDbXrecord
340
3EB
  0
XRECORD
  5
41E
102
{ACAD_REACTORS
330
41C
102
}
330
41C
100
AcDbXrecord
340
3EA
  0
DICTIONARYVAR
  5
3F9
102
{ACAD_REACTORS
330
3F8
102
}
330
3F8
100
DictionaryVariables
280
     0
  1
STANDARD
  0
DICTIONARY
  5
41F
330
1D
100
AcDbDictionary
280
     1
281
     1
  3
ACAD_XREC_ROUNDTRIP
360
420
  0
DICTIONARY
  5
421
330
21
100
AcDbDictionary
280
     1
281
     1
  3
ACAD_XREC_ROUNDTRIP
360
422
  0
XRECORD
  5
420
102
{ACAD_REACTORS
330
41F
102
}
330
41F
100
AcDbXrecord
102
SHADEPLOT
 70
     0
102
SHADEPLOTRESLEVEL
 70
     2
102
SHADEPLOTCUSTOMDPI
 70
   300
  0
XRECORD
  5
422
102
{ACAD_REACTORS
330
421
102
}
330
421
100
AcDbXrecord
102
SHADEPLOT
 70
     0
102
SHADEPLOTRESLEVEL
 70
     2
102
SHADEPLOTCUSTOMDPI
 70
   300
  0
ENDSEC
  0
EOF
