  0
SECTION
  2
HEADER
  9
$ACADVER
  1
AC1015
  9
$ACADMAINTVER
 70
     6
  9
$DWGCODEPAGE
  3
ANSI_1252
  9
$INSBASE
 10
0.0
 20
0.0
 30
0.0
  9
$EXTMIN
 10
-10.83078764972838
 20
-0.0542022137427693
 30
-0.0000000000112498
  9
$EXTMAX
 10
10.82936775744224
 20
19.44595104512405
 30
0.0000000000002956
  9
$LIMMIN
 10
0.0
 20
0.0
  9
$LIMMAX
 10
42.0
 20
32.0
  9
$ORTHOMODE
 70
     1
  9
$REGENMODE
 70
     1
  9
$FILLMODE
 70
     1
  9
$QTEXTMODE
 70
     0
  9
$MIRRTEXT
 70
     0
  9
$LTSCALE
 40
1.0
  9
$ATTMODE
 70
     1
  9
$TEXTSIZE
 40
0.3600000000000039
  9
$TRACEWID
 40
0.05
  9
$TEXTSTYLE
  7
STANDARD
  9
$CLAYER
  8
0
  9
$CELTYPE
  6
ByLayer
  9
$CECOLOR
 62
   256
  9
$CELTSCALE
 40
1.0
  9
$DISPSILH
 70
     0
  9
$DIMSCALE
 40
4.000000000000049
  9
$DIMASZ
 40
0.125
  9
$DIMEXO
 40
0.062
  9
$DIMDLI
 40
0.375
  9
$DIMRND
 40
0.0
  9
$DIMDLE
 40
0.0
  9
$DIMEXE
 40
0.08
  9
$DIMTP
 40
0.0
  9
$DIMTM
 40
0.0
  9
$DIMTXT
 40
0.09
  9
$DIMCEN
 40
-0.03125
  9
$DIMTSZ
 40
0.0
  9
$DIMTOL
 70
     0
  9
$DIMLIM
 70
     0
  9
$DIMTIH
 70
     1
  9
$DIMTOH
 70
     1
  9
$DIMSE1
 70
     0
  9
$DIMSE2
 70
     0
  9
$DIMTAD
 70
     0
  9
$DIMZIN
 70
     0
  9
$DIMBLK
  1

  9
$DIMASO
 70
     0
  9
$DIMSHO
 70
     0
  9
$DIMPOST
  1

  9
$DIMAPOST
  1

  9
$DIMALT
 70
     0
  9
$DIMALTD
 70
     2
  9
$DIMALTF
 40
25.4
  9
$DIMLFAC
 40
1.0
  9
$DIMTOFL
 70
     0
  9
$DIMTVP
 40
0.0
  9
$DIMTIX
 70
     0
  9
$DIMSOXD
 70
     0
  9
$DIMSAH
 70
     0
  9
$DIMBLK1
  1

  9
$DIMBLK2
  1

  9
$DIMSTYLE
  2
Standard
  9
$DIMCLRD
 70
     0
  9
$DIMCLRE
 70
     0
  9
$DIMCLRT
 70
     0
  9
$DIMTFAC
 40
1.0
  9
$DIMGAP
 40
0.09
  9
$DIMJUST
 70
     0
  9
$DIMSD1
 70
     0
  9
$DIMSD2
 70
     0
  9
$DIMTOLJ
 70
     1
  9
$DIMTZIN
 70
     0
  9
$DIMALTZ
 70
     0
  9
$DIMALTTZ
 70
     0
  9
$DIMUPT
 70
     0
  9
$DIMDEC
 70
     5
  9
$DIMTDEC
 70
     5
  9
$DIMALTU
 70
     5
  9
$DIMALTTD
 70
     2
  9
$DIMTXSTY
  7
STANDARD
  9
$DIMAUNIT
 70
     0
  9
$DIMADEC
 70
     0
  9
$DIMALTRND
 40
0.0
  9
$DIMAZIN
 70
     0
  9
$DIMDSEP
 70
    46
  9
$DIMATFIT
 70
     3
  9
$DIMFRAC
 70
     0
  9
$DIMLDRBLK
  1

  9
$DIMLUNIT
 70
     5
  9
$DIMLWD
 70
    -2
  9
$DIMLWE
 70
    -2
  9
$DIMTMOVE
 70
     2
  9
$LUNITS
 70
     5
  9
$LUPREC
 70
     5
  9
$SKETCHINC
 40
0.1
  9
$FILLETRAD
 40
0.0
  9
$AUNITS
 70
     0
  9
$AUPREC
 70
     0
  9
$MENU
  1
acad
  9
$ELEVATION
 40
0.0
  9
$PELEVATION
 40
0.0
  9
$THICKNESS
 40
0.0
  9
$LIMCHECK
 70
     0
  9
$CHAMFERA
 40
0.0
  9
$CHAMFERB
 40
0.0
  9
$CHAMFERC
 40
0.0
  9
$CHAMFERD
 40
0.0
  9
$SKPOLY
 70
     0
  9
$TDCREATE
 40
2447440.855981945
  9
$TDUCREATE
 40
2447441.189315278
  9
$TDUPDATE
 40
2454167.741935197
  9
$TDUUPDATE
 40
2454168.07526853
  9
$TDINDWG
 40
0.2599705787
  9
$TDUSRTIMER
 40
0.2599705787
  9
$USRTIMER
 70
     1
  9
$ANGBASE
 50
0.0
  9
$ANGDIR
 70
     0
  9
$PDMODE
 70
     0
  9
$PDSIZE
 40
0.0
  9
$PLINEWID
 40
0.0
  9
$SPLFRAME
 70
     0
  9
$SPLINETYPE
 70
     6
  9
$SPLINESEGS
 70
     8
  9
$HANDSEED
  5
125
  9
$SURFTAB1
 70
     6
  9
$SURFTAB2
 70
     6
  9
$SURFTYPE
 70
     6
  9
$SURFU
 70
     6
  9
$SURFV
 70
     6
  9
$UCSBASE
  2

  9
$UCSNAME
  2

  9
$UCSORG
 10
0.0
 20
0.0
 30
0.0
  9
$UCSXDIR
 10
1.0
 20
0.0
 30
0.0
  9
$UCSYDIR
 10
0.0
 20
1.0
 30
0.0
  9
$UCSORTHOREF
  2

  9
$UCSORTHOVIEW
 70
     0
  9
$UCSORGTOP
 10
0.0
 20
0.0
 30
0.0
  9
$UCSORGBOTTOM
 10
0.0
 20
0.0
 30
0.0
  9
$UCSORGLEFT
 10
0.0
 20
0.0
 30
0.0
  9
$UCSORGRIGHT
 10
0.0
 20
0.0
 30
0.0
  9
$UCSORGFRONT
 10
0.0
 20
0.0
 30
0.0
  9
$UCSORGBACK
 10
0.0
 20
0.0
 30
0.0
  9
$PUCSBASE
  2

  9
$PUCSNAME
  2

  9
$PUCSORG
 10
0.0
 20
0.0
 30
0.0
  9
$PUCSXDIR
 10
1.0
 20
0.0
 30
0.0
  9
$PUCSYDIR
 10
0.0
 20
1.0
 30
0.0
  9
$PUCSORTHOREF
  2

  9
$PUCSORTHOVIEW
 70
     0
  9
$PUCSORGTOP
 10
0.0
 20
0.0
 30
0.0
  9
$PUCSORGBOTTOM
 10
0.0
 20
0.0
 30
0.0
  9
$PUCSORGLEFT
 10
0.0
 20
0.0
 30
0.0
  9
$PUCSORGRIGHT
 10
0.0
 20
0.0
 30
0.0
  9
$PUCSORGFRONT
 10
0.0
 20
0.0
 30
0.0
  9
$PUCSORGBACK
 10
0.0
 20
0.0
 30
0.0
  9
$USERI1
 70
     0
  9
$USERI2
 70
     0
  9
$USERI3
 70
     0
  9
$USERI4
 70
     0
  9
$USERI5
 70
     0
  9
$USERR1
 40
0.0
  9
$USERR2
 40
0.0
  9
$USERR3
 40
0.0
  9
$USERR4
 40
0.0
  9
$USERR5
 40
0.0
  9
$WORLDVIEW
 70
     1
  9
$SHADEDGE
 70
     3
  9
$SHADEDIF
 70
    70
  9
$TILEMODE
 70
     1
  9
$MAXACTVP
 70
    16
  9
$PINSBASE
 10
0.0
 20
0.0
 30
0.0
  9
$PLIMCHECK
 70
     0
  9
$PEXTMIN
 10
1.000000000000000E+20
 20
1.000000000000000E+20
 30
1.000000000000000E+20
  9
$PEXTMAX
 10
-1.000000000000000E+20
 20
-1.000000000000000E+20
 30
-1.000000000000000E+20
  9
$PLIMMIN
 10
0.0
 20
0.0
  9
$PLIMMAX
 10
12.0
 20
9.0
  9
$UNITMODE
 70
     0
  9
$VISRETAIN
 70
     0
  9
$PLINEGEN
 70
     1
  9
$PSLTSCALE
 70
     0
  9
$TREEDEPTH
 70
  3020
  9
$CMLSTYLE
  2
Standard
  9
$CMLJUST
 70
     0
  9
$CMLSCALE
 40
1.0
  9
$PROXYGRAPHICS
 70
     1
  9
$MEASUREMENT
 70
     0
  9
$CELWEIGHT
370
    -1
  9
$ENDCAPS
280
     0
  9
$JOINSTYLE
280
     0
  9
$LWDISPLAY
290
     0
  9
$INSUNITS
 70
     0
  9
$HYPERLINKBASE
  1

  9
$STYLESHEET
  1

  9
$XEDIT
290
     1
  9
$CEPSNTYPE
380
     0
  9
$PSTYLEMODE
290
     1
  9
$FINGERPRINTGUID
  2
{00D37B3B-31A6-11D6-BE3F-00508B5FCD51}
  9
$VERSIONGUID
  2
{09E225B6-E513-4303-B37E-27D25ECED536}
  9
$EXTNAMES
290
     1
  9
$PSVPSCALE
 40
0.0
  9
$OLESTARTUP
290
     0
  0
ENDSEC
  0
SECTION
  2
CLASSES
  0
CLASS
  1
ACDBDICTIONARYWDFLT
  2
AcDbDictionaryWithDefault
  3
AutoCAD 2000
 90
        0
280
     0
281
     0
  0
CLASS
  1
ACDBPLACEHOLDER
  2
AcDbPlaceHolder
  3
ObjectDBX Classes
 90
        0
280
     0
281
     0
  0
CLASS
  1
LAYOUT
  2
AcDbLayout
  3
ObjectDBX Classes
 90
        0
280
     0
281
     0
  0
CLASS
  1
LONG_TRANSACTION
  2
AcDbLongTransaction
  3
ObjectDBX Classes
 90
   -65536
280
     1
281
     0
  0
CLASS
  1
LWPOLYLINE
  2
AcDbPolyline
  3
AutoCAD 2000
 90
        0
280
     0
281
     1
  0
CLASS
  1
HATCH
  2
AcDbHatch
  3
AutoCAD 2000
 90
        0
280
     0
281
     1
  0
CLASS
  1
XRECORD
  2
AcDbXrecord
  3
AutoCAD 2000
 90
        0
280
     0
281
     0
  0
CLASS
  1
LONG_TRANSACTION
  2
AcDbLongTransaction
  3
ObjectDBX Classes
 90
   -65536
280
     1
281
     0
  0
CLASS
  1
LWPOLYLINE
  2
AcDbPolyline
  3
AutoCAD 2000
 90
        0
280
     0
281
     1
  0
CLASS
  1
HATCH
  2
AcDbHatch
  3
AutoCAD 2000
 90
        0
280
     0
281
     1
  0
CLASS
  1
XRECORD
  2
AcDbXrecord
  3
AutoCAD 2000
 90
        0
280
     0
281
     0
  0
CLASS
  1
LONG_TRANSACTION
  2
AcDbLongTransaction
  3
ObjectDBX Classes
 90
   -65536
280
     1
281
     0
  0
CLASS
  1
LWPOLYLINE
  2
AcDbPolyline
  3
AutoCAD 2000
 90
        0
280
     0
281
     1
  0
CLASS
  1
HATCH
  2
AcDbHatch
  3
AutoCAD 2000
 90
        0
280
     0
281
     1
  0
CLASS
  1
XRECORD
  2
AcDbXrecord
  3
AutoCAD 2000
 90
        0
280
     0
281
     0
  0
CLASS
  1
LONG_TRANSACTION
  2
AcDbLongTransaction
  3
ObjectDBX Classes
 90
   -65536
280
     1
281
     0
  0
CLASS
  1
LWPOLYLINE
  2
AcDbPolyline
  3
AutoCAD 2000
 90
        0
280
     0
281
     1
  0
CLASS
  1
HATCH
  2
AcDbHatch
  3
AutoCAD 2000
 90
        0
280
     0
281
     1
  0
CLASS
  1
XRECORD
  2
AcDbXrecord
  3
AutoCAD 2000
 90
        0
280
     0
281
     0
  0
CLASS
  1
LONG_TRANSACTION
  2
AcDbLongTransaction
  3
ObjectDBX Classes
 90
   -65536
280
     1
281
     0
  0
CLASS
  1
LWPOLYLINE
  2
AcDbPolyline
  3
AutoCAD 2000
 90
        0
280
     0
281
     1
  0
CLASS
  1
HATCH
  2
AcDbHatch
  3
AutoCAD 2000
 90
        0
280
     0
281
     1
  0
CLASS
  1
XRECORD
  2
AcDbXrecord
  3
AutoCAD 2000
 90
        0
280
     0
281
     0
  0
CLASS
  1
DICTIONARYVAR
  2
AcDbDictionaryVar
  3
AutoCAD 2000
 90
        0
280
     0
281
     0
  0
CLASS
  1
TABLESTYLE
  2
AcDbTableStyle
  3
ObjectDBX Classes
 90
     2047
280
     1
281
     0
  0
ENDSEC
  0
SECTION
  2
TABLES
  0
TABLE
  2
VPORT
  5
1D
330
0
100
AcDbSymbolTable
 70
     2
  0
VPORT
  5
115
330
1D
100
AcDbSymbolTableRecord
100
AcDbViewportTableRecord
  2
*Active
 70
     0
 10
0.0
 20
0.0
 11
1.0
 21
1.0
 12
15.58460617513581
 22
15.97289889312862
 13
0.0
 23
0.0
 14
0.03125
 24
0.03125
 15
0.03125
 25
0.03125
 16
0.0
 26
0.0
 36
1.0
 17
0.0
 27
0.0
 37
0.0
 40
32.45404673200152
 41
1.814583333333333
 42
50.0
 43
0.0
 44
0.0
 50
0.0
 51
0.0
 71
     0
 72
   100
 73
     1
 74
     0
 75
     0
 76
     0
 77
     0
 78
     0
281
     0
 65
     1
110
0.0
120
0.0
130
0.0
111
1.0
121
0.0
131
0.0
112
0.0
122
1.0
132
0.0
 79
     0
146
0.0
  0
ENDTAB
  0
TABLE
  2
LTYPE
  5
18
330
0
100
AcDbSymbolTable
 70
     2
  0
LTYPE
  5
19
330
18
100
AcDbSymbolTableRecord
100
AcDbLinetypeTableRecord
  2
ByBlock
 70
     0
  3

 72
    65
 73
     0
 40
0.0
  0
LTYPE
  5
1A
330
18
100
AcDbSymbolTableRecord
100
AcDbLinetypeTableRecord
  2
ByLayer
 70
     0
  3

 72
    65
 73
     0
 40
0.0
  0
LTYPE
  5
A
330
18
100
AcDbSymbolTableRecord
100
AcDbLinetypeTableRecord
  2
CONTINUOUS
 70
     0
  3
Solid line
 72
    65
 73
     0
 40
0.0
  0
LTYPE
  5
114
330
18
100
AcDbSymbolTableRecord
100
AcDbLinetypeTableRecord
  2
HIDDEN
 70
     0
  3
Hidden __ __ __ __ __ __ __ __ __ __ __ __ __ _
 72
    65
 73
     2
 40
0.375
 49
0.25
 74
     0
 49
-0.125
 74
     0
  0
ENDTAB
  0
TABLE
  2
LAYER
  5
14
330
0
100
AcDbSymbolTable
 70
     2
  0
LAYER
  5
6
330
14
100
AcDbSymbolTableRecord
100
AcDbLayerTableRecord
  2
0
 70
     0
 62
     7
  6
CONTINUOUS
370
    -3
390
7
  0
ENDTAB
  0
TABLE
  2
STYLE
  5
15
330
0
100
AcDbSymbolTable
 70
     2
  0
STYLE
  5
16
330
15
100
AcDbSymbolTableRecord
100
AcDbTextStyleTableRecord
  2
STANDARD
 70
     0
 40
0.0
 41
1.0
 50
0.0
 71
     0
 42
0.3600000000000039
  3
TXT
  4

  0
ENDTAB
  0
TABLE
  2
VIEW
  5
1B
330
0
100
AcDbSymbolTable
 70
     0
  0
ENDTAB
  0
TABLE
  2
UCS
  5
1C
330
0
100
AcDbSymbolTable
 70
     0
  0
ENDTAB
  0
TABLE
  2
APPID
  5
1F
330
0
100
AcDbSymbolTable
 70
     1
  0
APPID
  5
20
330
1F
100
AcDbSymbolTableRecord
100
AcDbRegAppTableRecord
  2
ACAD
 70
     0
  0
ENDTAB
  0
TABLE
  2
DIMSTYLE
  5
21
330
0
100
AcDbSymbolTable
 70
     1
100
AcDbDimStyleTable
  0
DIMSTYLE
105
28
330
21
100
AcDbSymbolTableRecord
100
AcDbDimStyleTableRecord
  2
Standard
 70
     0
  3

  4

340
16
  0
ENDTAB
  0
TABLE
  2
BLOCK_RECORD
  5
1
330
0
100
AcDbSymbolTable
 70
     0
  0
BLOCK_RECORD
  5
2
330
1
100
AcDbSymbolTableRecord
100
AcDbBlockTableRecord
  2
*Model_Space
340
C
  0
BLOCK_RECORD
  5
E
330
1
100
AcDbSymbolTableRecord
100
AcDbBlockTableRecord
  2
*Paper_Space
340
13
  0
ENDTAB
  0
ENDSEC
  0
SECTION
  2
BLOCKS
  0
BLOCK
  5
5
330
2
100
AcDbEntity
  8
0
100
AcDbBlockBegin
  2
*Model_Space
 70
     0
 10
0.0
 20
0.0
 30
0.0
  3
*Model_Space
  1

  4

  0
ENDBLK
  5
B
330
2
100
AcDbEntity
  8
0
100
AcDbBlockEnd
  0
BLOCK
  5
11
330
E
100
AcDbEntity
 67
     1
  8
0
100
AcDbBlockBegin
  2
*Paper_Space
 70
     0
 10
0.0
 20
0.0
 30
0.0
  3
*Paper_Space
  1

  4

  0
ENDBLK
  5
12
330
E
100
AcDbEntity
 67
     1
  8
0
100
AcDbBlockEnd
  0
ENDSEC
  0
SECTION
  2
ENTITIES
  0
LINE
  5
A5
330
2
100
AcDbEntity
  8
0
100
AcDbLine
 10
-0.7812499999999947
 20
6.625
 30
0.0
 11
-0.7812499999999947
 21
0.25
 31
0.0
  0
LINE
  5
A6
330
2
100
AcDbEntity
  8
0
100
AcDbLine
 10
0.7812499999999982
 20
0.2500000000000018
 30
0.0
 11
0.7812499999999982
 21
8.500000000000004
 31
0.0
  0
LINE
  5
A7
330
2
100
AcDbEntity
  8
0
100
AcDbLine
 10
-0.906250000000016
 20
9.375
 30
0.0
 11
-0.9062499999999982
 21
0.25
 31
0.0
  0
LINE
  5
A8
330
2
100
AcDbEntity
  8
0
100
AcDbLine
 10
0.9062499999999982
 20
1.249949999999998
 30
0.0
 11
0.906249999999984
 21
9.375
 31
0.0
  0
LINE
  5
A9
330
2
100
AcDbEntity
  8
0
100
AcDbLine
 10
-0.7812500000000018
 20
8.499999999999993
 30
0.0
 11
-0.7812500000000089
 21
1.656199999999991
 31
0.0
  0
LINE
  5
AA
330
2
100
AcDbEntity
  8
0
100
AcDbLine
 10
-2.031250000000002
 20
9.375
 30
0.0
 11
-2.031250000000002
 21
3.218750000000021
 31
0.0
  0
LINE
  5
AB
330
2
100
AcDbEntity
  8
0
100
AcDbLine
 10
2.031249999999998
 20
9.375000000000004
 30
0.0
 11
2.031249999999995
 21
3.21875
 31
0.0
  0
ARC
  5
AC
330
2
100
AcDbEntity
  8
0
100
AcDbCircle
 10
0.6562499999999982
 20
0.2500000000000018
 30
0.0
 40
0.125
100
AcDbArc
 50
270.0
 51
0.0
  0
ARC
  5
AD
330
2
100
AcDbEntity
  8
0
100
AcDbCircle
 10
-0.6562499999999947
 20
0.25
 30
0.0
 40
0.125
100
AcDbArc
 50
180.0
 51
269.9999999999999
  0
ARC
  5
AE
330
2
100
AcDbEntity
  8
0
100
AcDbCircle
 10
0.6562499999999982
 20
0.25
 30
0.0
 40
0.25
100
AcDbArc
 50
270.0
 51
0.0
  0
ARC
  5
AF
330
2
100
AcDbEntity
  8
0
100
AcDbCircle
 10
-0.6562499999999982
 20
0.25
 30
0.0
 40
0.25
100
AcDbArc
 50
180.0
 51
269.9999999999999
  0
LINE
  5
B0
330
2
100
AcDbEntity
  8
0
100
AcDbLine
 10
0.6562499999999982
 20
0.0
 30
0.0
 11
-0.6562499999999982
 21
0.0
 31
0.0
  0
LINE
  5
B1
330
2
100
AcDbEntity
  8
0
100
AcDbLine
 10
0.6562499999999982
 20
0.1250000000000018
 30
0.0
 11
-0.6562499999999947
 21
0.125
 31
0.0
  0
LINE
  5
B2
330
2
100
AcDbEntity
  8
0
100
AcDbLine
 10
-2.031249999999991
 20
3.21875
 30
0.0
 11
-1.031249999999991
 21
1.46875
 31
0.0
  0
CIRCLE
  5
B3
330
2
100
AcDbEntity
  8
0
100
AcDbCircle
 10
-1.406249999999991
 20
2.78125
 30
0.0
 40
0.1093750000000025
  0
CIRCLE
  5
B4
330
2
100
AcDbEntity
  8
0
100
AcDbCircle
 10
1.406249999999995
 20
2.78125
 30
0.0
 40
0.1093750000000025
  0
LINE
  5
B5
330
2
100
AcDbEntity
  8
0
100
AcDbLine
 10
2.031249999999995
 20
3.21875
 30
0.0
 11
1.031249999999995
 21
1.46875
 31
0.0
  0
LINE
  5
B6
330
2
100
AcDbEntity
  8
0
100
AcDbLine
 10
-1.031249999999991
 20
1.46875
 30
0.0
 11
-0.9062499999999947
 21
1.46875
 31
0.0
  0
LINE
  5
B7
330
2
100
AcDbEntity
  8
0
100
AcDbLine
 10
-0.9062499999999982
 20
1.46875
 30
0.0
 11
-1.031249999999988
 21
1.46875
 31
0.0
  0
LINE
  5
B8
330
2
100
AcDbEntity
  8
0
100
AcDbLine
 10
0.9062499999999982
 20
1.249949999999998
 30
0.0
 11
0.9062499999999982
 21
0.25
 31
0.0
  0
LINE
  5
B9
330
2
100
AcDbEntity
  8
0
100
AcDbLine
 10
1.031249999999995
 20
1.46875
 30
0.0
 11
0.9062499999999982
 21
1.46875
 31
0.0
  0
CIRCLE
  5
BA
330
2
100
AcDbEntity
  8
0
100
AcDbCircle
 10
-1.718750000000009
 20
3.65625
 30
0.0
 40
0.1093750000000025
  0
CIRCLE
  5
BB
330
2
100
AcDbEntity
  8
0
100
AcDbCircle
 10
1.718749999999995
 20
3.65625
 30
0.0
 40
0.1093750000000025
  0
CIRCLE
  5
BC
330
2
100
AcDbEntity
  8
0
100
AcDbCircle
 10
-1.718750000000009
 20
5.65625
 30
0.0
 40
0.1093750000000025
  0
CIRCLE
  5
BD
330
2
100
AcDbEntity
  8
0
100
AcDbCircle
 10
-1.718750000000009
 20
7.40625
 30
0.0
 40
0.1093750000000025
  0
CIRCLE
  5
BE
330
2
100
AcDbEntity
  8
0
100
AcDbCircle
 10
1.718749999999995
 20
5.65625
 30
0.0
 40
0.1093750000000025
  0
CIRCLE
  5
BF
330
2
100
AcDbEntity
  8
0
100
AcDbCircle
 10
1.718749999999995
 20
7.40625
 30
0.0
 40
0.1093750000000025
  0
LINE
  5
C0
330
2
100
AcDbEntity
  8
0
100
AcDbLine
 10
-0.7812500000000018
 20
8.499999999999993
 30
0.0
 11
-0.906250000000016
 21
8.499999999999996
 31
0.0
  0
LINE
  5
C1
330
2
100
AcDbEntity
  8
0
  6
HIDDEN
100
AcDbLine
 10
-0.906250000000016
 20
9.25
 30
0.0
 11
-2.031250000000002
 21
9.25
 31
0.0
  0
LINE
  5
C2
330
2
100
AcDbEntity
  8
0
100
AcDbLine
 10
-0.906250000000016
 20
9.375
 30
0.0
 11
-2.031250000000002
 21
9.375
 31
0.0
  0
LINE
  5
C3
330
2
100
AcDbEntity
  8
0
100
AcDbLine
 10
0.906249999999984
 20
8.5
 30
0.0
 11
0.7812499999999982
 21
8.500000000000004
 31
0.0
  0
LINE
  5
C4
330
2
100
AcDbEntity
  8
0
  6
HIDDEN
100
AcDbLine
 10
2.031249999999998
 20
9.25
 30
0.0
 11
0.9062499999999982
 21
9.25
 31
0.0
  0
LINE
  5
C5
330
2
100
AcDbEntity
  8
0
100
AcDbLine
 10
2.031249999999998
 20
9.375
 30
0.0
 11
0.906249999999984
 21
9.375
 31
0.0
  0
LINE
  5
C6
330
2
100
AcDbEntity
  8
0
100
AcDbLine
 10
-2.097969916972984
 20
16.81964388763986
 30
0.0
 11
-0.9730199169729783
 21
16.81964388763986
 31
0.0
  0
LINE
  5
C7
330
2
100
AcDbEntity
  8
0
  6
HIDDEN
100
AcDbLine
 10
-2.097969916972984
 20
16.94464388763986
 30
0.0
 11
-1.098019916972978
 21
16.94464388763986
 31
0.0
  0
LINE
  5
C8
330
2
100
AcDbEntity
  8
0
100
AcDbLine
 10
-2.097969916972984
 20
19.44464388763985
 30
0.0
 11
-0.9729699169729837
 21
19.44464388763985
 31
0.0
  0
LINE
  5
C9
330
2
100
AcDbEntity
  8
0
100
AcDbLine
 10
-2.097969916972984
 20
19.44464388763985
 30
0.0
 11
-2.097969916972984
 21
16.81964388763986
 31
0.0
  0
LINE
  5
CA
330
2
100
AcDbEntity
  8
0
100
AcDbLine
 10
0.8395300830270163
 20
19.44464388763985
 30
0.0
 11
0.8395300830270163
 21
16.81964388763986
 31
0.0
  0
LINE
  5
CB
330
2
100
AcDbEntity
  8
0
100
AcDbLine
 10
-0.9729699169729837
 20
19.44464388763985
 30
0.0
 11
-0.9729699169729837
 21
16.81964388763986
 31
0.0
  0
LINE
  5
CC
330
2
100
AcDbEntity
  8
0
100
AcDbLine
 10
1.964530083027016
 20
19.44464388763985
 30
0.0
 11
1.964530083027016
 21
16.81964388763986
 31
0.0
  0
LINE
  5
CD
330
2
100
AcDbEntity
  8
0
100
AcDbLine
 10
0.8395300830270163
 20
16.69464388763986
 30
0.0
 11
0.8395300830270163
 21
14.56964388763986
 31
0.0
  0
LINE
  5
CE
330
2
100
AcDbEntity
  8
0
100
AcDbLine
 10
-0.9730199169729854
 20
16.69464388763986
 30
0.0
 11
-0.9730199169729854
 21
14.56964388763986
 31
0.0
  0
LINE
  5
CF
330
2
100
AcDbEntity
  8
0
100
AcDbLine
 10
0.7145300830270163
 20
16.69464388763986
 30
0.0
 11
0.7145300830270163
 21
14.56964388763986
 31
0.0
  0
LINE
  5
D0
330
2
100
AcDbEntity
  8
0
100
AcDbLine
 10
-0.8480199169729783
 20
16.69464388763986
 30
0.0
 11
-0.8480199169729854
 21
14.56964388763986
 31
0.0
  0
LINE
  5
D1
330
2
100
AcDbEntity
  8
0
100
AcDbLine
 10
-0.9730199169729854
 20
14.56964388763986
 30
0.0
 11
0.8395300830270163
 21
14.56964388763986
 31
0.0
  0
LINE
  5
D2
330
2
100
AcDbEntity
  8
0
100
AcDbLine
 10
-0.8815135660268378
 20
16.81964388763986
 30
0.0
 11
0.7480237320806413
 21
16.81964388763986
 31
0.0
  0
ARC
  5
D3
330
2
100
AcDbEntity
  8
0
100
AcDbCircle
 10
-1.098019916972978
 20
16.69464388763986
 30
0.0
 40
0.25
100
AcDbArc
 50
359.9999999999998
 51
59.98676722414936
  0
ARC
  5
D4
330
2
100
AcDbEntity
  8
0
100
AcDbCircle
 10
-1.098019916972978
 20
16.69464388763986
 30
0.0
 40
0.25
100
AcDbArc
 50
59.98676722414936
 51
90.00000000000017
  0
ARC
  5
D5
330
2
100
AcDbEntity
  8
0
100
AcDbCircle
 10
-1.098019916972985
 20
16.69464388763986
 30
0.0
 40
0.125
100
AcDbArc
 50
0.0
 51
90.0
  0
CIRCLE
  5
D6
330
2
100
AcDbEntity
  8
0
100
AcDbCircle
 10
-1.347969916972984
 20
17.88214388763985
 30
0.0
 40
0.1093750000000025
  0
LINE
  5
D7
330
2
100
AcDbEntity
  8
0
100
AcDbLine
 10
1.964530083027016
 20
16.81964388763986
 30
0.0
 11
0.8395300830270163
 21
16.81964388763986
 31
0.0
  0
LINE
  5
D8
330
2
100
AcDbEntity
  8
0
  6
HIDDEN
100
AcDbLine
 10
1.964530083027016
 20
16.94464388763986
 30
0.0
 11
0.9645300830270163
 21
16.94464388763986
 31
0.0
  0
ARC
  5
D9
330
2
100
AcDbEntity
  8
0
100
AcDbCircle
 10
0.9645300830270163
 20
16.69464388763986
 30
0.0
 40
0.25
100
AcDbArc
 50
119.9999999999994
 51
179.9999999999999
  0
ARC
  5
DA
330
2
100
AcDbEntity
  8
0
100
AcDbCircle
 10
0.9645300830270163
 20
16.69464388763986
 30
0.0
 40
0.25
100
AcDbArc
 50
89.99999999999982
 51
119.9999999999994
  0
ARC
  5
DB
330
2
100
AcDbEntity
  8
0
100
AcDbCircle
 10
0.9645300830270163
 20
16.69464388763986
 30
0.0
 40
0.125
100
AcDbArc
 50
90.0
 51
179.9999999999999
  0
CIRCLE
  5
DC
330
2
100
AcDbEntity
  8
0
100
AcDbCircle
 10
1.214530083027016
 20
17.88214388763985
 30
0.0
 40
0.1093750000000025
  0
CIRCLE
  5
DD
330
2
100
AcDbEntity
  8
0
100
AcDbCircle
 10
-1.722969916972984
 20
19.00714388763985
 30
0.0
 40
0.1093750000000025
  0
LINE
  5
DE
330
2
100
AcDbEntity
  8
0
100
AcDbLine
 10
1.964530083027016
 20
19.44464388763985
 30
0.0
 11
0.8395300830270163
 21
19.44464388763985
 31
0.0
  0
CIRCLE
  5
DF
330
2
100
AcDbEntity
  8
0
100
AcDbCircle
 10
1.589530083027016
 20
19.00714388763985
 30
0.0
 40
0.1093750000000025
  0
LINE
  5
E0
330
2
100
AcDbEntity
  8
0
100
AcDbLine
 10
8.327365338093429
 20
9.125000000000004
 30
0.0
 11
8.327365338093415
 21
1.4375
 31
0.0
  0
LINE
  5
E1
330
2
100
AcDbEntity
  8
0
100
AcDbLine
 10
8.202365338093415
 20
9.125000000000004
 30
0.0
 11
8.202365338093415
 21
1.4375
 31
0.0
  0
LINE
  5
E2
330
2
100
AcDbEntity
  8
0
100
AcDbLine
 10
7.077365338093401
 20
8.5
 30
0.0
 11
7.077365338093415
 21
3.1875
 31
0.0
  0
LINE
  5
E3
330
2
100
AcDbEntity
  8
0
100
AcDbLine
 10
6.077365338093408
 20
0.0
 30
0.0
 11
6.077365338093415
 21
1.4375
 31
0.0
  0
LINE
  5
E4
330
2
100
AcDbEntity
  8
0
100
AcDbLine
 10
8.202365338093401
 20
0.0
 30
0.0
 11
8.202365338093415
 21
2.124949999999998
 31
0.0
  0
LINE
  5
E5
330
2
100
AcDbEntity
  8
0
100
AcDbLine
 10
8.202365338093401
 20
0.0
 30
0.0
 11
6.077365338093408
 21
0.0
 31
0.0
  0
LINE
  5
E6
330
2
100
AcDbEntity
  8
0
  6
HIDDEN
100
AcDbLine
 10
8.202365338093401
 20
0.125
 30
0.0
 11
6.077365338093415
 21
0.125
 31
0.0
  0
LINE
  5
E7
330
2
100
AcDbEntity
  8
0
100
AcDbLine
 10
6.077365338093415
 20
1.4375
 30
0.0
 11
7.077365338093415
 21
3.1875
 31
0.0
  0
LINE
  5
E8
330
2
100
AcDbEntity
  8
0
100
AcDbLine
 10
8.202365338093415
 20
1.4375
 30
0.0
 11
8.327365338093415
 21
1.4375
 31
0.0
  0
CIRCLE
  5
EA
330
2
100
AcDbEntity
  8
0
100
AcDbCircle
 10
7.421115338093415
 20
3.1875
 30
0.0
 40
0.078
  0
ARC
  5
EB
330
2
100
AcDbEntity
  8
0
100
AcDbCircle
 10
8.452365338093415
 20
9.125000000000004
 30
0.0
 40
0.25
100
AcDbArc
 50
90.0
 51
179.9999999999999
  0
ARC
  5
EC
330
2
100
AcDbEntity
  8
0
100
AcDbCircle
 10
8.452365338093429
 20
9.125000000000004
 30
0.0
 40
0.125
100
AcDbArc
 50
90.0
 51
179.9999999999999
  0
CIRCLE
  5
EE
330
2
100
AcDbEntity
  8
0
100
AcDbCircle
 10
7.421115338093415
 20
6.96875
 30
0.0
 40
0.078
  0
LINE
  5
EF
330
2
100
AcDbEntity
  8
0
100
AcDbLine
 10
8.202365338093415
 20
8.5
 30
0.0
 11
7.077365338093401
 21
8.5
 31
0.0
  0
LINE
  5
F0
330
2
100
AcDbEntity
  8
0
100
AcDbLine
 10
10.82736533809342
 20
9.375
 30
0.0
 11
8.452365338093415
 21
9.375000000000004
 31
0.0
  0
LINE
  5
F1
330
2
100
AcDbEntity
  8
0
100
AcDbLine
 10
10.82736533809343
 20
9.250000000000004
 30
0.0
 11
8.452365338093429
 21
9.250000000000004
 31
0.0
  0
LINE
  5
F2
330
2
100
AcDbEntity
  8
0
100
AcDbLine
 10
10.82736533809342
 20
9.375
 30
0.0
 11
10.82736533809343
 21
9.250000000000007
 31
0.0
  0
LINE
  5
F7
330
2
100
AcDbEntity
  8
0
100
AcDbLine
 10
-6.077365338093415
 20
1.4375
 30
0.0
 11
-7.077365338093415
 21
3.1875
 31
0.0
  0
LINE
  5
F8
330
2
100
AcDbEntity
  8
0
100
AcDbLine
 10
-8.202365338093401
 20
0.0
 30
0.0
 11
-6.077365338093408
 21
0.0
 31
0.0
  0
LINE
  5
F9
330
2
100
AcDbEntity
  8
0
  6
HIDDEN
100
AcDbLine
 10
-8.202365338093401
 20
0.125
 30
0.0
 11
-6.077365338093415
 21
0.125
 31
0.0
  0
LINE
  5
FA
330
2
100
AcDbEntity
  8
0
100
AcDbLine
 10
-6.077365338093408
 20
0.0
 30
0.0
 11
-6.077365338093415
 21
1.4375
 31
0.0
  0
LINE
  5
FB
330
2
100
AcDbEntity
  8
0
100
AcDbLine
 10
-8.327365338093429
 20
9.125000000000004
 30
0.0
 11
-8.327365338093415
 21
1.4375
 31
0.0
  0
LINE
  5
FC
330
2
100
AcDbEntity
  8
0
100
AcDbLine
 10
-8.202365338093415
 20
9.125000000000004
 30
0.0
 11
-8.202365338093415
 21
1.4375
 31
0.0
  0
LINE
  5
FD
330
2
100
AcDbEntity
  8
0
100
AcDbLine
 10
-7.077365338093401
 20
8.5
 30
0.0
 11
-7.077365338093415
 21
3.1875
 31
0.0
  0
LINE
  5
FE
330
2
100
AcDbEntity
  8
0
100
AcDbLine
 10
-8.202365338093401
 20
0.0
 30
0.0
 11
-8.202365338093415
 21
2.124949999999998
 31
0.0
  0
CIRCLE
  5
FF
330
2
100
AcDbEntity
  8
0
100
AcDbCircle
 10
-7.421115338093415
 20
3.624602127682721
 30
0.0
 40
0.078
  0
LINE
  5
100
330
2
100
AcDbEntity
  8
0
100
AcDbLine
 10
-8.202365338093415
 20
1.4375
 30
0.0
 11
-8.327365338093415
 21
1.4375
 31
0.0
  0
LINE
  5
102
330
2
100
AcDbEntity
  8
0
100
AcDbLine
 10
-10.82736533809342
 20
9.375
 30
0.0
 11
-8.452365338093415
 21
9.375000000000004
 31
0.0
  0
LINE
  5
103
330
2
100
AcDbEntity
  8
0
100
AcDbLine
 10
-10.82736533809343
 20
9.250000000000004
 30
0.0
 11
-8.452365338093429
 21
9.250000000000004
 31
0.0
  0
CIRCLE
  5
105
330
2
100
AcDbEntity
  8
0
100
AcDbCircle
 10
-7.421115338093415
 20
6.528869480788174
 30
0.0
 40
0.078
  0
LINE
  5
106
330
2
100
AcDbEntity
  8
0
100
AcDbLine
 10
-8.202365338093415
 20
8.5
 30
0.0
 11
-7.077365338093401
 21
8.5
 31
0.0
  0
ARC
  5
107
330
2
100
AcDbEntity
  8
0
100
AcDbCircle
 10
-8.452365338093429
 20
9.125000000000004
 30
0.0
 40
0.125
100
AcDbArc
 50
0.0000000000001088
 51
90.0
  0
ARC
  5
108
330
2
100
AcDbEntity
  8
0
100
AcDbCircle
 10
-8.452365338093415
 20
9.125000000000004
 30
0.0
 40
0.25
100
AcDbArc
 50
0.0000000000000579
 51
90.0
  0
LINE
  5
109
330
2
100
AcDbEntity
  8
0
100
AcDbLine
 10
-10.82736533809342
 20
9.375
 30
0.0
 11
-10.82736533809343
 21
9.250000000000007
 31
0.0
  0
ENDSEC
  0
SECTION
  2
OBJECTS
  0
DICTIONARY
  5
9
330
0
100
AcDbDictionary
281
     1
  3
ACAD_COLOR
350
10D
  3
ACAD_GROUP
350
23
  3
ACAD_LAYOUT
350
D
  3
ACAD_MATERIAL
350
10C
  3
ACAD_MLINESTYLE
350
24
  3
ACAD_PLOTSETTINGS
350
25
  3
ACAD_PLOTSTYLENAME
350
8
  3
ACAD_TABLESTYLE
350
10E
  3
ACDBHEADERROUNDTRIPXREC
350
11E
  3
AcDbVariableDictionary
350
99
  0
DICTIONARY
  5
10D
102
{ACAD_REACTORS
330
9
102
}
330
9
100
AcDbDictionary
281
     1
  0
DICTIONARY
  5
23
102
{ACAD_REACTORS
330
9
102
}
330
9
100
AcDbDictionary
281
     1
  0
DICTIONARY
  5
D
102
{ACAD_REACTORS
330
9
102
}
330
9
100
AcDbDictionary
281
     1
  3
Layout1
350
13
  3
Model
350
C
  0
DICTIONARY
  5
10C
102
{ACAD_REACTORS
330
9
102
}
330
9
100
AcDbDictionary
281
     1
  0
DICTIONARY
  5
24
102
{ACAD_REACTORS
330
9
102
}
330
9
100
AcDbDictionary
281
     1
  3
Standard
350
27
  0
DICTIONARY
  5
25
102
{ACAD_REACTORS
330
9
102
}
330
9
100
AcDbDictionary
281
     1
  0
ACDBDICTIONARYWDFLT
  5
8
102
{ACAD_REACTORS
330
9
102
}
330
9
100
AcDbDictionary
281
     1
  3
Normal
350
7
100
AcDbDictionaryWithDefault
340
7
  0
DICTIONARY
  5
10E
102
{ACAD_REACTORS
330
9
102
}
330
9
100
AcDbDictionary
281
     1
  3
Standard
350
10F
  0
DICTIONARY
  5
11E
102
{ACAD_REACTORS
330
9
102
}
330
9
100
AcDbDictionary
281
     1
  3
COLORDICT
350
11F
  3
MATERIALDICT
350
120
  0
DICTIONARY
  5
99
102
{ACAD_REACTORS
330
9
102
}
330
9
100
AcDbDictionary
281
     1
  3
CTABLESTYLE
350
11B
  3
HIDETEXT
350
11D
  0
LAYOUT
  5
13
102
{ACAD_REACTORS
330
D
102
}
102
{ACAD_XDICTIONARY
360
121
102
}
330
D
100
AcDbPlotSettings
  1

  2
HP LaserJet 2100 Series PS
  4

  6

 40
0.0
 41
0.0
 42
0.0
 43
0.0
 44
0.0
 45
0.0
 46
0.0
 47
0.0
 48
0.0
 49
0.0
140
0.0
141
0.0
142
1.0
143
1.0
 70
   688
 72
     0
 73
     0
 74
     5
  7

 75
    16
147
1.0
148
0.0
149
0.0
100
AcDbLayout
  1
Layout1
 70
     0
 71
     1
 10
0.0
 20
0.0
 11
12.0
 21
9.0
 12
0.0
 22
0.0
 32
0.0
 14
1.000000000000000E+20
 24
1.000000000000000E+20
 34
1.000000000000000E+20
 15
-1.000000000000000E+20
 25
-1.000000000000000E+20
 35
-1.000000000000000E+20
146
0.0
 13
0.0
 23
0.0
 33
0.0
 16
1.0
 26
0.0
 36
0.0
 17
0.0
 27
1.0
 37
0.0
 76
     0
330
E
  0
LAYOUT
  5
C
102
{ACAD_REACTORS
330
D
102
}
102
{ACAD_XDICTIONARY
360
123
102
}
330
D
100
AcDbPlotSettings
  1

  2
HP LaserJet 2100 Series PS
  4
Letter
  6

 40
5.365749835968018
 41
5.408084392547607
 42
5.4080810546875
 43
5.365753173828125
 44
215.8999938964844
 45
279.3999938964844
 46
0.0
 47
0.0
 48
0.0
 49
0.0
140
0.0
141
0.0
142
1.0
143
1.0
 70
 11952
 72
     0
 73
     1
 74
     0
  7

 75
     0
147
1.0
148
-323.460756431176
149
6.751648396433125
100
AcDbLayout
  1
Model
 70
     1
 71
     0
 10
0.0
 20
0.0
 11
12.0
 21
9.0
 12
0.0
 22
0.0
 32
0.0
 14
0.0
 24
0.0
 34
0.0
 15
0.0
 25
0.0
 35
0.0
146
0.0
 13
0.0
 23
0.0
 33
0.0
 16
1.0
 26
0.0
 36
0.0
 17
0.0
 27
1.0
 37
0.0
 76
     0
330
2
  0
MLINESTYLE
  5
27
102
{ACAD_REACTORS
330
24
102
}
330
24
100
AcDbMlineStyle
  2
STANDARD
 70
     0
  3

 62
   256
 51
90.0
 52
90.0
 71
     2
 49
0.5
 62
   256
  6
BYLAYER
 49
-0.5
 62
   256
  6
BYLAYER
  0
ACDBPLACEHOLDER
  5
7
102
{ACAD_REACTORS
330
8
102
}
330
8
  0
ACAD_PROXY_OBJECT
  5
10F
102
{ACAD_REACTORS
330
10E
102
}
330
10E
100
AcDbProxyObject
 90
      499
 91
      524
 95
   983063
 70
     0
 93
     1841
310
4214DD185B99185C9928B81E85EB51B8AE3F2E07A17AD46E2B8FC02B5E8DC0F42B1CFD028000000C1008070000C3001FDFF8000000C1003FBFF000000182007F7FE00000030400FEFFC00000060801FDFF8000000C1003FBFF00000018200000000000000681FA0B0000001820100E000186003FBFF000000182007F7FE000
310
00030400FEFFC00000060801FDFF8000000C1003FBFF000000182007F7FE000000304000AD7A3703D0AC73F4160000003040201C00030C007F7FE00000030400FEFFC00000060801FDFF8000000C1003FBFF000000182007F7FE00000030400FEFFC000000608000
340
16
340
16
340
16
 94
        0
  0
XRECORD
  5
11F
102
{ACAD_REACTORS
330
11E
102
}
330
11E
100
AcDbXrecord
340
10D
  0
XRECORD
  5
120
102
{ACAD_REACTORS
330
11E
102
}
330
11E
100
AcDbXrecord
340
10C
  0
DICTIONARYVAR
  5
11B
102
{ACAD_REACTORS
330
99
102
}
330
99
100
DictionaryVariables
280
     0
  1
STANDARD
  0
DICTIONARYVAR
  5
11D
102
{ACAD_REACTORS
330
99
102
}
330
99
100
DictionaryVariables
280
     0
  1
0
  0
DICTIONARY
  5
121
330
13
100
AcDbDictionary
280
     1
281
     1
  3
ACAD_XREC_ROUNDTRIP
360
122
  0
DICTIONARY
  5
123
330
C
100
AcDbDictionary
280
     1
281
     1
  3
ACAD_XREC_ROUNDTRIP
360
124
  0
XRECORD
  5
122
102
{ACAD_REACTORS
330
121
102
}
330
121
100
AcDbXrecord
102
SHADEPLOT
 70
     0
102
SHADEPLOTRESLEVEL
 70
     2
102
SHADEPLOTCUSTOMDPI
 70
   300
  0
XRECORD
  5
124
102
{ACAD_REACTORS
330
123
102
}
330
123
100
AcDbXrecord
102
SHADEPLOT
 70
     0
102
SHADEPLOTRESLEVEL
 70
     2
102
SHADEPLOTCUSTOMDPI
 70
   300
  0
ENDSEC
  0
EOF
