  0
SECTION
  2
HEADER
  9
$ACADVER
  1
AC1015
  9
$ACADMAINTVER
 70
     6
  9
$DWGCODEPAGE
  3
ANSI_1252
  9
$INSBASE
 10
0.0
 20
0.0
 30
0.0
  9
$EXTMIN
 10
-10.04685766048213
 20
-0.0431138465446352
 30
-0.0000000000112498
  9
$EXTMAX
 10
10.04713967193311
 20
15.7853858307132
 30
0.0000000000002956
  9
$LIMMIN
 10
0.0
 20
0.0
  9
$LIMMAX
 10
31.660835
 20
23.350013
  9
$ORTHOMODE
 70
     1
  9
$REGENMODE
 70
     1
  9
$FILLMODE
 70
     1
  9
$QTEXTMODE
 70
     0
  9
$MIRRTEXT
 70
     0
  9
$LTSCALE
 40
1.0
  9
$ATTMODE
 70
     1
  9
$TEXTSIZE
 40
0.27
  9
$TRACEWID
 40
0.05
  9
$TEXTSTYLE
  7
STANDARD
  9
$CLAYER
  8
0
  9
$CELTYPE
  6
BYLAYER
  9
$CECOLOR
 62
   256
  9
$CELTSCALE
 40
1.0
  9
$DISPSILH
 70
     0
  9
$DIMSCALE
 40
1.0
  9
$DIMASZ
 40
0.375
  9
$DIMEXO
 40
0.0625
  9
$DIMDLI
 40
0.75
  9
$DIMRND
 40
0.0
  9
$DIMDLE
 40
0.0
  9
$DIMEXE
 40
0.18
  9
$DIMTP
 40
0.0
  9
$DIMTM
 40
0.0
  9
$DIMTXT
 40
0.27
  9
$DIMCEN
 40
-0.06
  9
$DIMTSZ
 40
0.0
  9
$DIMTOL
 70
     0
  9
$DIMLIM
 70
     0
  9
$DIMTIH
 70
     1
  9
$DIMTOH
 70
     1
  9
$DIMSE1
 70
     0
  9
$DIMSE2
 70
     0
  9
$DIMTAD
 70
     0
  9
$DIMZIN
 70
     0
  9
$DIMBLK
  1

  9
$DIMASO
 70
     0
  9
$DIMSHO
 70
     0
  9
$DIMPOST
  1

  9
$DIMAPOST
  1

  9
$DIMALT
 70
     0
  9
$DIMALTD
 70
     2
  9
$DIMALTF
 40
25.4
  9
$DIMLFAC
 40
1.0
  9
$DIMTOFL
 70
     0
  9
$DIMTVP
 40
0.0
  9
$DIMTIX
 70
     0
  9
$DIMSOXD
 70
     0
  9
$DIMSAH
 70
     0
  9
$DIMBLK1
  1

  9
$DIMBLK2
  1

  9
$DIMSTYLE
  2
STANDARD
  9
$DIMCLRD
 70
     0
  9
$DIMCLRE
 70
     0
  9
$DIMCLRT
 70
     0
  9
$DIMTFAC
 40
1.0
  9
$DIMGAP
 40
0.09
  9
$DIMJUST
 70
     0
  9
$DIMSD1
 70
     0
  9
$DIMSD2
 70
     0
  9
$DIMTOLJ
 70
     1
  9
$DIMTZIN
 70
     0
  9
$DIMALTZ
 70
     0
  9
$DIMALTTZ
 70
     0
  9
$DIMUPT
 70
     0
  9
$DIMDEC
 70
     4
  9
$DIMTDEC
 70
     4
  9
$DIMALTU
 70
     2
  9
$DIMALTTD
 70
     2
  9
$DIMTXSTY
  7
STANDARD
  9
$DIMAUNIT
 70
     0
  9
$DIMADEC
 70
     0
  9
$DIMALTRND
 40
0.0
  9
$DIMAZIN
 70
     0
  9
$DIMDSEP
 70
    46
  9
$DIMATFIT
 70
     3
  9
$DIMFRAC
 70
     0
  9
$DIMLDRBLK
  1

  9
$DIMLUNIT
 70
     2
  9
$DIMLWD
 70
    -2
  9
$DIMLWE
 70
    -2
  9
$DIMTMOVE
 70
     2
  9
$LUNITS
 70
     2
  9
$LUPREC
 70
     4
  9
$SKETCHINC
 40
0.1
  9
$FILLETRAD
 40
0.0625
  9
$AUNITS
 70
     0
  9
$AUPREC
 70
     0
  9
$MENU
  1
ACAD
  9
$ELEVATION
 40
0.0
  9
$PELEVATION
 40
0.0
  9
$THICKNESS
 40
0.0
  9
$LIMCHECK
 70
     0
  9
$CHAMFERA
 40
0.0
  9
$CHAMFERB
 40
0.0
  9
$CHAMFERC
 40
0.0
  9
$CHAMFERD
 40
0.0
  9
$SKPOLY
 70
     0
  9
$TDCREATE
 40
2450632.002369213
  9
$TDUCREATE
 40
2450632.335702546
  9
$TDUPDATE
 40
2454167.807793194
  9
$TDUUPDATE
 40
2454168.141126528
  9
$TDINDWG
 40
0.1539455787
  9
$TDUSRTIMER
 40
0.1539455787
  9
$USRTIMER
 70
     1
  9
$ANGBASE
 50
0.0
  9
$ANGDIR
 70
     0
  9
$PDMODE
 70
     0
  9
$PDSIZE
 40
0.0
  9
$PLINEWID
 40
0.0
  9
$SPLFRAME
 70
     0
  9
$SPLINETYPE
 70
     6
  9
$SPLINESEGS
 70
     8
  9
$HANDSEED
  5
151
  9
$SURFTAB1
 70
     6
  9
$SURFTAB2
 70
     6
  9
$SURFTYPE
 70
     6
  9
$SURFU
 70
     6
  9
$SURFV
 70
     6
  9
$UCSBASE
  2

  9
$UCSNAME
  2

  9
$UCSORG
 10
0.0
 20
0.0
 30
0.0
  9
$UCSXDIR
 10
1.0
 20
0.0
 30
0.0
  9
$UCSYDIR
 10
0.0
 20
1.0
 30
0.0
  9
$UCSORTHOREF
  2

  9
$UCSORTHOVIEW
 70
     0
  9
$UCSORGTOP
 10
0.0
 20
0.0
 30
0.0
  9
$UCSORGBOTTOM
 10
0.0
 20
0.0
 30
0.0
  9
$UCSORGLEFT
 10
0.0
 20
0.0
 30
0.0
  9
$UCSORGRIGHT
 10
0.0
 20
0.0
 30
0.0
  9
$UCSORGFRONT
 10
0.0
 20
0.0
 30
0.0
  9
$UCSORGBACK
 10
0.0
 20
0.0
 30
0.0
  9
$PUCSBASE
  2

  9
$PUCSNAME
  2

  9
$PUCSORG
 10
0.0
 20
0.0
 30
0.0
  9
$PUCSXDIR
 10
1.0
 20
0.0
 30
0.0
  9
$PUCSYDIR
 10
0.0
 20
1.0
 30
0.0
  9
$PUCSORTHOREF
  2

  9
$PUCSORTHOVIEW
 70
     0
  9
$PUCSORGTOP
 10
0.0
 20
0.0
 30
0.0
  9
$PUCSORGBOTTOM
 10
0.0
 20
0.0
 30
0.0
  9
$PUCSORGLEFT
 10
0.0
 20
0.0
 30
0.0
  9
$PUCSORGRIGHT
 10
0.0
 20
0.0
 30
0.0
  9
$PUCSORGFRONT
 10
0.0
 20
0.0
 30
0.0
  9
$PUCSORGBACK
 10
0.0
 20
0.0
 30
0.0
  9
$USERI1
 70
     0
  9
$USERI2
 70
     0
  9
$USERI3
 70
     0
  9
$USERI4
 70
     0
  9
$USERI5
 70
     0
  9
$USERR1
 40
0.0
  9
$USERR2
 40
0.0
  9
$USERR3
 40
0.0
  9
$USERR4
 40
0.0
  9
$USERR5
 40
0.0
  9
$WORLDVIEW
 70
     1
  9
$SHADEDGE
 70
     3
  9
$SHADEDIF
 70
    70
  9
$TILEMODE
 70
     1
  9
$MAXACTVP
 70
    16
  9
$PINSBASE
 10
0.0
 20
0.0
 30
0.0
  9
$PLIMCHECK
 70
     0
  9
$PEXTMIN
 10
1.000000000000000E+20
 20
1.000000000000000E+20
 30
1.000000000000000E+20
  9
$PEXTMAX
 10
-1.000000000000000E+20
 20
-1.000000000000000E+20
 30
-1.000000000000000E+20
  9
$PLIMMIN
 10
0.0
 20
0.0
  9
$PLIMMAX
 10
12.0
 20
9.0
  9
$UNITMODE
 70
     0
  9
$VISRETAIN
 70
     0
  9
$PLINEGEN
 70
     0
  9
$PSLTSCALE
 70
     0
  9
$TREEDEPTH
 70
  3020
  9
$CMLSTYLE
  2
STANDARD
  9
$CMLJUST
 70
     0
  9
$CMLSCALE
 40
1.0
  9
$PROXYGRAPHICS
 70
     1
  9
$MEASUREMENT
 70
     0
  9
$CELWEIGHT
370
    -1
  9
$ENDCAPS
280
     0
  9
$JOINSTYLE
280
     0
  9
$LWDISPLAY
290
     0
  9
$INSUNITS
 70
     0
  9
$HYPERLINKBASE
  1

  9
$STYLESHEET
  1

  9
$XEDIT
290
     1
  9
$CEPSNTYPE
380
     0
  9
$PSTYLEMODE
290
     1
  9
$FINGERPRINTGUID
  2
{6DDCF64C-B1BD-44FF-92CE-1A607D8DCD13}
  9
$VERSIONGUID
  2
{B9248A90-ED0C-4758-9F20-F1DAAA896AFF}
  9
$EXTNAMES
290
     1
  9
$PSVPSCALE
 40
0.0
  9
$OLESTARTUP
290
     0
  0
ENDSEC
  0
SECTION
  2
CLASSES
  0
CLASS
  1
DICTIONARYVAR
  2
AcDbDictionaryVar
  3
AutoCAD 2000
 90
        0
280
     0
281
     0
  0
CLASS
  1
ACDBDICTIONARYWDFLT
  2
AcDbDictionaryWithDefault
  3
AutoCAD 2000
 90
        0
280
     0
281
     0
  0
CLASS
  1
ACDBPLACEHOLDER
  2
AcDbPlaceHolder
  3
ObjectDBX Classes
 90
        0
280
     0
281
     0
  0
CLASS
  1
LAYOUT
  2
AcDbLayout
  3
ObjectDBX Classes
 90
        0
280
     0
281
     0
  0
CLASS
  1
LONG_TRANSACTION
  2
AcDbLongTransaction
  3
ObjectDBX Classes
 90
   -65536
280
     1
281
     0
  0
CLASS
  1
LWPOLYLINE
  2
AcDbPolyline
  3
AutoCAD 2000
 90
        0
280
     0
281
     1
  0
CLASS
  1
HATCH
  2
AcDbHatch
  3
AutoCAD 2000
 90
        0
280
     0
281
     1
  0
CLASS
  1
XRECORD
  2
AcDbXrecord
  3
AutoCAD 2000
 90
        0
280
     0
281
     0
  0
CLASS
  1
TABLESTYLE
  2
AcDbTableStyle
  3
ObjectDBX Classes
 90
     2047
280
     1
281
     0
  0
ENDSEC
  0
SECTION
  2
TABLES
  0
TABLE
  2
VPORT
  5
1D
330
0
100
AcDbSymbolTable
 70
     2
  0
VPORT
  5
141
330
1D
100
AcDbSymbolTableRecord
100
AcDbViewportTableRecord
  2
*Active
 70
     0
 10
0.0
 20
0.0
 11
1.0
 21
1.0
 12
10.80698866975893
 22
11.65344957672768
 13
0.0
 23
0.0
 14
0.0625
 24
0.0625
 15
0.5
 25
0.5
 16
0.0
 26
0.0
 36
1.0
 17
0.0
 27
0.0
 37
0.0
 40
23.68493300263459
 41
1.814583333333333
 42
50.0
 43
0.0
 44
0.0
 50
0.0
 51
0.0
 71
     0
 72
   100
 73
     1
 74
     0
 75
     0
 76
     0
 77
     0
 78
     0
281
     0
 65
     1
110
0.0
120
0.0
130
0.0
111
1.0
121
0.0
131
0.0
112
0.0
122
1.0
132
0.0
 79
     0
146
0.0
  0
ENDTAB
  0
TABLE
  2
LTYPE
  5
18
330
0
100
AcDbSymbolTable
 70
     2
  0
LTYPE
  5
19
330
18
100
AcDbSymbolTableRecord
100
AcDbLinetypeTableRecord
  2
BYBLOCK
 70
     0
  3

 72
    65
 73
     0
 40
0.0
  0
LTYPE
  5
1A
330
18
100
AcDbSymbolTableRecord
100
AcDbLinetypeTableRecord
  2
BYLAYER
 70
     0
  3

 72
    65
 73
     0
 40
0.0
  0
LTYPE
  5
A
330
18
100
AcDbSymbolTableRecord
100
AcDbLinetypeTableRecord
  2
CONTINUOUS
 70
     0
  3
Solid line
 72
    65
 73
     0
 40
0.0
  0
LTYPE
  5
140
330
18
100
AcDbSymbolTableRecord
100
AcDbLinetypeTableRecord
  2
HIDDEN
 70
     0
  3
Hidden __ __ __ __ __ __ __ __ __ __ __ __ __ _
 72
    65
 73
     2
 40
0.375
 49
0.25
 74
     0
 49
-0.125
 74
     0
  0
ENDTAB
  0
TABLE
  2
LAYER
  5
14
330
0
100
AcDbSymbolTable
 70
     2
  0
LAYER
  5
6
330
14
100
AcDbSymbolTableRecord
100
AcDbLayerTableRecord
  2
0
 70
     0
 62
     7
  6
CONTINUOUS
370
    -3
390
7
  0
ENDTAB
  0
TABLE
  2
STYLE
  5
15
330
0
100
AcDbSymbolTable
 70
     2
  0
STYLE
  5
16
330
15
100
AcDbSymbolTableRecord
100
AcDbTextStyleTableRecord
  2
STANDARD
 70
     0
 40
0.0
 41
1.0
 50
0.0
 71
     0
 42
0.27
  3
TXT
  4

  0
ENDTAB
  0
TABLE
  2
VIEW
  5
1B
330
0
100
AcDbSymbolTable
 70
     0
  0
ENDTAB
  0
TABLE
  2
UCS
  5
1C
330
0
100
AcDbSymbolTable
 70
     0
  0
ENDTAB
  0
TABLE
  2
APPID
  5
1F
330
0
100
AcDbSymbolTable
 70
     1
  0
APPID
  5
20
330
1F
100
AcDbSymbolTableRecord
100
AcDbRegAppTableRecord
  2
ACAD
 70
     0
  0
ENDTAB
  0
TABLE
  2
DIMSTYLE
  5
21
330
0
100
AcDbSymbolTable
 70
     1
100
AcDbDimStyleTable
  0
DIMSTYLE
105
28
330
21
100
AcDbSymbolTableRecord
100
AcDbDimStyleTableRecord
  2
STANDARD
 70
     0
  3

  4

340
16
  0
ENDTAB
  0
TABLE
  2
BLOCK_RECORD
  5
1
330
0
100
AcDbSymbolTable
 70
     0
  0
BLOCK_RECORD
  5
2
330
1
100
AcDbSymbolTableRecord
100
AcDbBlockTableRecord
  2
*MODEL_SPACE
340
C
  0
BLOCK_RECORD
  5
E
330
1
100
AcDbSymbolTableRecord
100
AcDbBlockTableRecord
  2
*PAPER_SPACE
340
13
  0
ENDTAB
  0
ENDSEC
  0
SECTION
  2
BLOCKS
  0
BLOCK
  5
5
330
2
100
AcDbEntity
  8
0
100
AcDbBlockBegin
  2
*MODEL_SPACE
 70
     0
 10
0.0
 20
0.0
 30
0.0
  3
*MODEL_SPACE
  1

  4

  0
ENDBLK
  5
B
330
2
100
AcDbEntity
  8
0
100
AcDbBlockEnd
  0
BLOCK
  5
11
330
E
100
AcDbEntity
 67
     1
  8
0
100
AcDbBlockBegin
  2
*PAPER_SPACE
 70
     0
 10
0.0
 20
0.0
 30
0.0
  3
*PAPER_SPACE
  1

  4

  0
ENDBLK
  5
12
330
E
100
AcDbEntity
 67
     1
  8
0
100
AcDbBlockEnd
  0
ENDSEC
  0
SECTION
  2
ENTITIES
  0
LINE
  5
B9
330
2
100
AcDbEntity
  8
0
100
AcDbLine
 10
9.920551011387214
 20
0.0
 30
0.0
 11
9.920551011387214
 21
0.1875
 31
0.0
  0
LINE
  5
BA
330
2
100
AcDbEntity
  8
0
100
AcDbLine
 10
7.675945011387213
 20
0.0
 30
0.0
 11
7.675945011387213
 21
0.1875
 31
0.0
  0
LINE
  5
BB
330
2
100
AcDbEntity
  8
0
  6
HIDDEN
100
AcDbLine
 10
7.675945011387213
 20
0.0625
 30
0.0
 11
9.920551011387214
 21
0.0625
 31
0.0
  0
LINE
  5
BC
330
2
100
AcDbEntity
  8
0
100
AcDbLine
 10
7.675945011387213
 20
0.0
 30
0.0
 11
9.920551011387214
 21
0.0
 31
0.0
  0
POINT
  5
BD
330
2
100
AcDbEntity
  8
0
100
AcDbPoint
 10
7.988445011387213
 20
0.0
 30
0.0
  0
LINE
  5
BE
330
2
100
AcDbEntity
  8
0
100
AcDbLine
 10
10.04462901138722
 20
0.1875
 30
0.0
 11
10.04462901138722
 21
10.1875
 31
0.0
  0
LINE
  5
BF
330
2
100
AcDbEntity
  8
0
100
AcDbLine
 10
9.965774011387211
 20
0.1875
 30
0.0
 11
9.965774011387214
 21
10.1875
 31
0.0
  0
LINE
  5
C0
330
2
100
AcDbEntity
  8
0
100
AcDbLine
 10
8.671761011387215
 20
10.1875
 30
0.0
 11
8.671761011387215
 21
1.9375
 31
0.0
  0
LINE
  5
C2
330
2
100
AcDbEntity
  8
0
100
AcDbLine
 10
8.671761011387215
 20
1.9375
 30
0.0
 11
7.675945011387213
 21
0.1875
 31
0.0
  0
LINE
  5
C3
330
2
100
AcDbEntity
  8
0
100
AcDbLine
 10
9.920551011387214
 20
0.1875
 30
0.0
 11
10.04462901138722
 21
0.1875
 31
0.0
  0
CIRCLE
  5
C4
330
2
100
AcDbEntity
  8
0
100
AcDbCircle
 10
8.988445011387213
 20
2.4375
 30
0.0
 40
0.109
  0
ARC
  5
C6
330
2
100
AcDbEntity
  8
0
100
AcDbCircle
 10
9.965774011387211
 20
3.5625
 30
0.0
 40
0.156
100
AcDbArc
 50
90.0
 51
270.0
  0
CIRCLE
  5
C7
330
2
100
AcDbEntity
  8
0
100
AcDbCircle
 10
8.988445011387213
 20
4.6875
 30
0.0
 40
0.109
  0
CIRCLE
  5
CA
330
2
100
AcDbEntity
  8
0
100
AcDbCircle
 10
8.988445011387213
 20
9.187499999999996
 30
0.0
 40
0.109
  0
LINE
  5
CD
330
2
100
AcDbEntity
  8
0
100
AcDbLine
 10
10.04462901138722
 20
10.1875
 30
0.0
 11
8.671761011387215
 21
10.1875
 31
0.0
  0
ARC
  5
CE
330
2
100
AcDbEntity
  8
0
100
AcDbCircle
 10
0.6564040000000002
 20
0.2041670000000018
 30
0.0
 40
0.125
100
AcDbArc
 50
270.0
 51
0.0
  0
ARC
  5
CF
330
2
100
AcDbEntity
  8
0
100
AcDbCircle
 10
-0.6560959999999998
 20
0.2041670000000018
 30
0.0
 40
0.125
100
AcDbArc
 50
180.0
 51
270.0
  0
ARC
  5
D0
330
2
100
AcDbEntity
  8
0
100
AcDbCircle
 10
0.6603209999999997
 20
0.1999999999999993
 30
0.0
 40
0.2
100
AcDbArc
 50
270.0
 51
0.0
  0
ARC
  5
D1
330
2
100
AcDbEntity
  8
0
100
AcDbCircle
 10
-0.6603209999999997
 20
0.1999999999999993
 30
0.0
 40
0.2
100
AcDbArc
 50
180.0
 51
270.0
  0
LINE
  5
D2
330
2
100
AcDbEntity
  8
0
100
AcDbLine
 10
-0.6603209999999997
 20
0.0
 30
0.0
 11
0.6603209999999997
 21
0.0
 31
0.0
  0
LINE
  5
D3
330
2
100
AcDbEntity
  8
0
100
AcDbLine
 10
-0.6560959999999998
 20
0.0791670000000018
 30
0.0
 11
0.6564040000000002
 21
0.0791670000000018
 31
0.0
  0
LINE
  5
D4
330
2
100
AcDbEntity
  8
0
100
AcDbLine
 10
-0.6563670000000021
 20
0.0
 30
0.0
 11
-0.6563670000000021
 21
0.0791672937643462
 31
0.0
  0
LINE
  5
D5
330
2
100
AcDbEntity
  8
0
100
AcDbLine
 10
0.6564050000000474
 20
0.0
 30
0.0
 11
0.6564050000000474
 21
0.0791670000040021
 31
0.0
  0
LINE
  5
D6
330
2
100
AcDbEntity
  8
0
100
AcDbLine
 10
-1.734940999999999
 20
10.235403
 30
0.0
 11
-1.734940999999999
 21
1.954167000000002
 31
0.0
  0
LINE
  5
D7
330
2
100
AcDbEntity
  8
0
100
AcDbLine
 10
-0.860320999999999
 20
10.235403
 30
0.0
 11
-0.860320999999999
 21
0.2050800000000024
 31
0.0
  0
LINE
  5
D8
330
2
100
AcDbEntity
  8
0
100
AcDbLine
 10
-0.7810959999999998
 20
10.235403
 30
0.0
 11
-0.7810959999999998
 21
0.2041670000000018
 31
0.0
  0
LINE
  5
D9
330
2
100
AcDbEntity
  8
0
100
AcDbLine
 10
-1.734940999999999
 20
1.954167000000002
 30
0.0
 11
-0.860320999999999
 21
0.2050800000000024
 31
0.0
  0
LINE
  5
DA
330
2
100
AcDbEntity
  8
0
100
AcDbLine
 10
-0.860320999999999
 20
0.2041670000000018
 30
0.0
 11
-0.7810959999999998
 21
0.2041670000000018
 31
0.0
  0
LINE
  5
DB
330
2
100
AcDbEntity
  8
0
100
AcDbLine
 10
-0.860320999999999
 20
0.1999999999999993
 30
0.0
 11
-0.860320999999999
 21
0.2050800000000024
 31
0.0
  0
CIRCLE
  5
DC
330
2
100
AcDbEntity
  8
0
100
AcDbCircle
 10
-1.172386
 20
1.549893999999998
 30
0.0
 40
0.109
  0
CIRCLE
  5
DD
330
2
100
AcDbEntity
  8
0
100
AcDbCircle
 10
-1.359471999999999
 20
2.799894000000002
 30
0.0
 40
0.109
  0
ARC
  5
DE
330
2
100
AcDbEntity
  8
0
100
AcDbCircle
 10
-0.860320999999999
 20
3.579167000000004
 30
0.0
 40
0.156
100
AcDbArc
 50
90.0
 51
270.0
  0
CIRCLE
  5
DF
330
2
100
AcDbEntity
  8
0
100
AcDbCircle
 10
-1.359613
 20
4.549894000000002
 30
0.0
 40
0.109
  0
CIRCLE
  5
E0
330
2
100
AcDbEntity
  8
0
100
AcDbCircle
 10
-1.359359
 20
6.362394000000002
 30
0.0
 40
0.109
  0
CIRCLE
  5
E1
330
2
100
AcDbEntity
  8
0
100
AcDbCircle
 10
-1.359359
 20
8.112394000000002
 30
0.0
 40
0.109
  0
LINE
  5
E2
330
2
100
AcDbEntity
  8
0
100
AcDbLine
 10
-0.860320999999999
 20
10.235403
 30
0.0
 11
-1.734940999999999
 21
10.235403
 31
0.0
  0
LINE
  5
E3
330
2
100
AcDbEntity
  8
0
100
AcDbLine
 10
-0.7810959999999998
 20
10.029283
 30
0.0
 11
-0.7810959999999998
 21
10.235419
 31
0.0
  0
LINE
  5
E4
330
2
100
AcDbEntity
  8
0
100
AcDbLine
 10
-0.860320999999999
 20
10.029283
 30
0.0
 11
-0.860320999999999
 21
10.167855
 31
0.0
  0
CIRCLE
  5
E5
330
2
100
AcDbEntity
  8
0
100
AcDbCircle
 10
-1.359359
 20
9.862394000000002
 30
0.0
 40
0.109
  0
LINE
  5
E6
330
2
100
AcDbEntity
  8
0
100
AcDbLine
 10
-0.860320999999999
 20
10.167855
 30
0.0
 11
-0.860320999999999
 21
10.235403
 31
0.0
  0
LINE
  5
E7
330
2
100
AcDbEntity
  8
0
100
AcDbLine
 10
-0.7810959999999998
 20
10.235403
 30
0.0
 11
-0.860320999999999
 21
10.235403
 31
0.0
  0
LINE
  5
E8
330
2
100
AcDbEntity
  8
0
100
AcDbLine
 10
0.8603210000000008
 20
10.234075
 30
0.0
 11
0.8603210000000008
 21
5.600755000000003
 31
0.0
  0
LINE
  5
E9
330
2
100
AcDbEntity
  8
0
100
AcDbLine
 10
1.735613999999998
 20
10.234075
 30
0.0
 11
1.735613999999998
 21
1.954167000000002
 31
0.0
  0
LINE
  5
EA
330
2
100
AcDbEntity
  8
0
100
AcDbLine
 10
0.7814040000000002
 20
5.600755000000003
 30
0.0
 11
0.7814040000000002
 21
10.234075
 31
0.0
  0
LINE
  5
EB
330
2
100
AcDbEntity
  8
0
100
AcDbLine
 10
0.8603210000000008
 20
4.641583000000001
 30
0.0
 11
0.8603210000000008
 21
0.2075250000000004
 31
0.0
  0
LINE
  5
EC
330
2
100
AcDbEntity
  8
0
100
AcDbLine
 10
0.7814040000000002
 20
0.2041670000000018
 30
0.0
 11
0.7814040000000002
 21
4.641583000000001
 31
0.0
  0
LINE
  5
ED
330
2
100
AcDbEntity
  8
0
100
AcDbLine
 10
1.735613999999998
 20
1.954167000000002
 30
0.0
 11
0.8603210000000008
 21
0.2075250000000004
 31
0.0
  0
LINE
  5
EE
330
2
100
AcDbEntity
  8
0
100
AcDbLine
 10
0.7814040000000002
 20
0.2041670000000018
 30
0.0
 11
0.8603210000000008
 21
0.2041670000000018
 31
0.0
  0
LINE
  5
EF
330
2
100
AcDbEntity
  8
0
100
AcDbLine
 10
0.8603210000000008
 20
0.1999999999999993
 30
0.0
 11
0.8603210000000008
 21
0.2075250000000004
 31
0.0
  0
CIRCLE
  5
F0
330
2
100
AcDbEntity
  8
0
100
AcDbCircle
 10
1.173524000000001
 20
1.549893999999998
 30
0.0
 40
0.109
  0
CIRCLE
  5
F1
330
2
100
AcDbEntity
  8
0
100
AcDbCircle
 10
1.360298
 20
2.799894000000002
 30
0.0
 40
0.109
  0
ARC
  5
F2
330
2
100
AcDbEntity
  8
0
100
AcDbCircle
 10
0.8603210000000008
 20
3.579167000000002
 30
0.0
 40
0.156
100
AcDbArc
 50
270.0
 51
90.0
  0
LINE
  5
F3
330
2
100
AcDbEntity
  8
0
100
AcDbLine
 10
0.8603210000000008
 20
5.600755000000003
 30
0.0
 11
0.8603210000000008
 21
4.641583000000001
 31
0.0
  0
LINE
  5
F4
330
2
100
AcDbEntity
  8
0
100
AcDbLine
 10
0.7814040000000002
 20
5.600755000000003
 30
0.0
 11
0.7814040000000002
 21
4.641583000000001
 31
0.0
  0
CIRCLE
  5
F5
330
2
100
AcDbEntity
  8
0
100
AcDbCircle
 10
1.360284
 20
4.549894000000002
 30
0.0
 40
0.109
  0
CIRCLE
  5
F6
330
2
100
AcDbEntity
  8
0
100
AcDbCircle
 10
1.360237999999999
 20
6.362394000000002
 30
0.0
 40
0.109
  0
CIRCLE
  5
F7
330
2
100
AcDbEntity
  8
0
100
AcDbCircle
 10
1.360237999999999
 20
8.112394000000002
 30
0.0
 40
0.109
  0
CIRCLE
  5
F8
330
2
100
AcDbEntity
  8
0
100
AcDbCircle
 10
1.360237999999999
 20
9.862394000000002
 30
0.0
 40
0.109
  0
LINE
  5
F9
330
2
100
AcDbEntity
  8
0
100
AcDbLine
 10
0.8603210000000008
 20
10.234075
 30
0.0
 11
1.735613999999998
 21
10.234075
 31
0.0
  0
LINE
  5
FA
330
2
100
AcDbEntity
  8
0
100
AcDbLine
 10
0.8603210000000008
 20
10.167984
 30
0.0
 11
0.8603210000000008
 21
10.234075
 31
0.0
  0
LINE
  5
FB
330
2
100
AcDbEntity
  8
0
100
AcDbLine
 10
0.7814040000000002
 20
10.234075
 30
0.0
 11
0.8603210000000008
 21
10.234075
 31
0.0
  0
LINE
  5
FC
330
2
100
AcDbEntity
  8
0
100
AcDbLine
 10
0.8603179999999995
 20
13.38792946135562
 30
0.0
 11
0.8603179999999995
 21
15.61666046135563
 31
0.0
  0
LINE
  5
FD
330
2
100
AcDbEntity
  8
0
100
AcDbLine
 10
0.7814050000000457
 20
15.63265646135562
 30
0.0
 11
0.7814050000000474
 21
13.38792946135562
 31
0.0
  0
LINE
  5
FE
330
2
100
AcDbEntity
  8
0
100
AcDbLine
 10
-0.8602799999999995
 20
15.62225646135562
 30
0.0
 11
-0.8602799999999977
 21
13.38792946135562
 31
0.0
  0
LINE
  5
FF
330
2
100
AcDbEntity
  8
0
100
AcDbLine
 10
-0.7813670000000013
 20
15.63265646135562
 30
0.0
 11
-0.7813670000000013
 21
13.38792946135563
 31
0.0
  0
LINE
  5
100
330
2
100
AcDbEntity
  8
0
100
AcDbLine
 10
0.6564050000000457
 20
15.63265646135562
 30
0.0
 11
-0.6563670000000013
 21
15.63265646135562
 31
0.0
  0
LINE
  5
101
330
2
100
AcDbEntity
  8
0
100
AcDbLine
 10
-1.735556000000001
 20
15.75839146135563
 30
0.0
 11
-0.9063670000000013
 21
15.75839146135563
 31
0.0
  0
LINE
  5
102
330
2
100
AcDbEntity
  8
0
100
AcDbLine
 10
-0.9222799999999989
 20
15.67925946135562
 30
0.0
 11
-1.735556000000001
 21
15.67925946135562
 31
0.0
  0
LINE
  5
103
330
2
100
AcDbEntity
  8
0
100
AcDbLine
 10
-1.735556000000001
 20
15.67925946135562
 30
0.0
 11
-1.735556000000001
 21
15.75839146135563
 31
0.0
  0
ARC
  5
104
330
2
100
AcDbEntity
  8
0
100
AcDbCircle
 10
-0.9063670000000013
 20
15.63339146135563
 30
0.0
 40
0.125
100
AcDbArc
 50
0.0
 51
90.00000000000003
  0
ARC
  5
105
330
2
100
AcDbEntity
  8
0
100
AcDbCircle
 10
-0.9222799999999989
 20
15.61725946135562
 30
0.0
 40
0.062
100
AcDbArc
 50
0.0
 51
90.00000000000003
  0
LINE
  5
106
330
2
100
AcDbEntity
  8
0
100
AcDbLine
 10
-0.8602799999999995
 20
15.55461446135562
 30
0.0
 11
-0.8602799999999995
 21
15.61725946135562
 31
0.0
  0
LINE
  5
107
330
2
100
AcDbEntity
  8
0
100
AcDbLine
 10
-0.6563670000000013
 20
15.63265646135562
 30
0.0
 11
-0.6563670000000013
 21
15.60140646135562
 31
0.0
  0
LINE
  5
108
330
2
100
AcDbEntity
  8
0
100
AcDbLine
 10
-0.7188670000000013
 20
15.53890646135562
 30
0.0
 11
-0.8622222578597167
 21
15.53890646135562
 31
0.0
  0
LINE
  5
109
330
2
100
AcDbEntity
  8
0
100
AcDbLine
 10
-0.7813670000000013
 20
15.63265646135562
 30
0.0
 11
-0.8622222578597167
 21
15.63265646135562
 31
0.0
  0
ARC
  5
10A
330
2
100
AcDbEntity
  8
0
100
AcDbCircle
 10
-0.7188670000000013
 20
15.60140646135562
 30
0.0
 40
0.0625
100
AcDbArc
 50
270.0
 51
359.9999999999994
  0
LINE
  5
10B
330
2
100
AcDbEntity
  8
0
100
AcDbLine
 10
0.9223180000000006
 20
15.67852446135563
 30
0.0
 11
1.735593999999999
 21
15.67852446135563
 31
0.0
  0
LINE
  5
10C
330
2
100
AcDbEntity
  8
0
100
AcDbLine
 10
1.735593999999999
 20
15.75765646135562
 30
0.0
 11
0.9064049999999995
 21
15.75765646135562
 31
0.0
  0
ARC
  5
10D
330
2
100
AcDbEntity
  8
0
100
AcDbCircle
 10
0.7189050000000457
 20
15.60140646135562
 30
0.0
 40
0.0625
100
AcDbArc
 50
180.0
 51
270.0
  0
LINE
  5
10E
330
2
100
AcDbEntity
  8
0
100
AcDbLine
 10
0.8624534981979082
 20
15.63265646135562
 30
0.0
 11
0.7814050000000457
 21
15.63265646135562
 31
0.0
  0
ARC
  5
10F
330
2
100
AcDbEntity
  8
0
100
AcDbCircle
 10
0.9223180000000006
 20
15.61652446135562
 30
0.0
 40
0.062
100
AcDbArc
 50
90.00000000000003
 51
180.0
  0
ARC
  5
110
330
2
100
AcDbEntity
  8
0
100
AcDbCircle
 10
0.9064049999999995
 20
15.63265646135562
 30
0.0
 40
0.125
100
AcDbArc
 50
90.00000000000003
 51
180.0
  0
LINE
  5
111
330
2
100
AcDbEntity
  8
0
100
AcDbLine
 10
0.8624534981979082
 20
15.53890646135562
 30
0.0
 11
0.7189050000000457
 21
15.53890646135562
 31
0.0
  0
LINE
  5
112
330
2
100
AcDbEntity
  8
0
100
AcDbLine
 10
0.6564050000000457
 20
15.63265646135562
 30
0.0
 11
0.6564050000000457
 21
15.60140646135562
 31
0.0
  0
LINE
  5
113
330
2
100
AcDbEntity
  8
0
100
AcDbLine
 10
1.735593999999999
 20
15.67852446135563
 30
0.0
 11
1.735593999999999
 21
15.75765646135562
 31
0.0
  0
LINE
  5
114
330
2
100
AcDbEntity
  8
0
100
AcDbLine
 10
-0.6563670000000013
 20
13.38792946135562
 30
0.0
 11
0.6564050000000474
 21
13.38792946135562
 31
0.0
  0
LINE
  5
115
330
2
100
AcDbEntity
  8
0
100
AcDbLine
 10
-0.8602799999999995
 20
13.38792946135562
 30
0.0
 11
-0.7813670000000013
 21
13.38792946135562
 31
0.0
  0
LINE
  5
116
330
2
100
AcDbEntity
  8
0
100
AcDbLine
 10
-0.8602799999999995
 20
13.48167946135562
 30
0.0
 11
-0.7188670000000021
 21
13.48167946135563
 31
0.0
  0
LINE
  5
117
330
2
100
AcDbEntity
  8
0
100
AcDbLine
 10
-0.6563670000000021
 20
13.41917946135563
 30
0.0
 11
-0.6563670000000013
 21
13.38792946135563
 31
0.0
  0
ARC
  5
118
330
2
100
AcDbEntity
  8
0
100
AcDbCircle
 10
-0.7188670000000021
 20
13.41917946135563
 30
0.0
 40
0.0625
100
AcDbArc
 50
0.0
 51
90.00000000000003
  0
ARC
  5
119
330
2
100
AcDbEntity
  8
0
100
AcDbCircle
 10
0.7189050000000474
 20
13.41917946135562
 30
0.0
 40
0.0625
100
AcDbArc
 50
90.00000000000003
 51
180.0
  0
LINE
  5
11A
330
2
100
AcDbEntity
  8
0
100
AcDbLine
 10
0.7189050000000474
 20
13.48167946135562
 30
0.0
 11
0.8603179999999995
 21
13.48167946135562
 31
0.0
  0
LINE
  5
11B
330
2
100
AcDbEntity
  8
0
100
AcDbLine
 10
0.6564050000000474
 20
13.41917946135562
 30
0.0
 11
0.6564050000000474
 21
13.38792946135562
 31
0.0
  0
LINE
  5
11C
330
2
100
AcDbEntity
  8
0
100
AcDbLine
 10
0.7814050000000474
 20
13.38792946135562
 30
0.0
 11
0.8603179999999995
 21
13.38792946135562
 31
0.0
  0
LINE
  5
121
330
2
100
AcDbEntity
  8
0
100
AcDbLine
 10
-8.671761011387215
 20
10.1875
 30
0.0
 11
-8.671761011387215
 21
1.9375
 31
0.0
  0
LINE
  5
122
330
2
100
AcDbEntity
  8
0
100
AcDbLine
 10
-9.965774011387211
 20
0.1875
 30
0.0
 11
-9.965774011387214
 21
10.1875
 31
0.0
  0
LINE
  5
123
330
2
100
AcDbEntity
  8
0
100
AcDbLine
 10
-10.04462901138722
 20
0.1875
 30
0.0
 11
-10.04462901138722
 21
10.1875
 31
0.0
  0
LINE
  5
124
330
2
100
AcDbEntity
  8
0
100
AcDbLine
 10
-7.675945011387213
 20
0.0
 30
0.0
 11
-9.920551011387214
 21
0.0
 31
0.0
  0
LINE
  5
125
330
2
100
AcDbEntity
  8
0
  6
HIDDEN
100
AcDbLine
 10
-7.675945011387213
 20
0.0625
 30
0.0
 11
-9.920551011387214
 21
0.0625
 31
0.0
  0
LINE
  5
126
330
2
100
AcDbEntity
  8
0
100
AcDbLine
 10
-8.671761011387215
 20
1.9375
 30
0.0
 11
-7.675945011387213
 21
0.1875
 31
0.0
  0
LINE
  5
127
330
2
100
AcDbEntity
  8
0
100
AcDbLine
 10
-7.675945011387213
 20
0.0
 30
0.0
 11
-7.675945011387213
 21
0.1875
 31
0.0
  0
POINT
  5
128
330
2
100
AcDbEntity
  8
0
100
AcDbPoint
 10
-7.988445011387213
 20
0.0
 30
0.0
  0
CIRCLE
  5
129
330
2
100
AcDbEntity
  8
0
100
AcDbCircle
 10
-8.988445011387213
 20
1.972209227277716
 30
0.0
 40
0.109
  0
LINE
  5
12E
330
2
100
AcDbEntity
  8
0
100
AcDbLine
 10
-9.920551011387214
 20
0.1875
 30
0.0
 11
-10.04462901138722
 21
0.1875
 31
0.0
  0
LINE
  5
12F
330
2
100
AcDbEntity
  8
0
100
AcDbLine
 10
-9.920551011387214
 20
0.0
 30
0.0
 11
-9.920551011387214
 21
0.1875
 31
0.0
  0
ARC
  5
130
330
2
100
AcDbEntity
  8
0
100
AcDbCircle
 10
-9.965774011387211
 20
3.5625
 30
0.0
 40
0.156
100
AcDbArc
 50
270.0
 51
90.0
  0
LINE
  5
131
330
2
100
AcDbEntity
  8
0
100
AcDbLine
 10
-10.04462901138722
 20
10.1875
 30
0.0
 11
-8.671761011387215
 21
10.1875
 31
0.0
  0
CIRCLE
  5
132
330
2
100
AcDbEntity
  8
0
100
AcDbCircle
 10
-8.988445011387213
 20
4.222209227277716
 30
0.0
 40
0.109
  0
CIRCLE
  5
135
330
2
100
AcDbEntity
  8
0
100
AcDbCircle
 10
-8.988445011387217
 20
8.722209227277716
 30
0.0
 40
0.109
  0
ENDSEC
  0
SECTION
  2
OBJECTS
  0
DICTIONARY
  5
9
330
0
100
AcDbDictionary
281
     1
  3
ACAD_COLOR
350
139
  3
ACAD_GROUP
350
23
  3
ACAD_LAYOUT
350
D
  3
ACAD_MATERIAL
350
138
  3
ACAD_MLINESTYLE
350
24
  3
ACAD_PLOTSETTINGS
350
25
  3
ACAD_PLOTSTYLENAME
350
8
  3
ACAD_TABLESTYLE
350
13A
  3
ACDBHEADERROUNDTRIPXREC
350
14A
  3
AcDbVariableDictionary
350
AD
  0
DICTIONARY
  5
139
102
{ACAD_REACTORS
330
9
102
}
330
9
100
AcDbDictionary
281
     1
  0
DICTIONARY
  5
23
102
{ACAD_REACTORS
330
9
102
}
330
9
100
AcDbDictionary
281
     1
  0
DICTIONARY
  5
D
102
{ACAD_REACTORS
330
9
102
}
330
9
100
AcDbDictionary
281
     1
  3
Layout1
350
13
  3
Model
350
C
  0
DICTIONARY
  5
138
102
{ACAD_REACTORS
330
9
102
}
330
9
100
AcDbDictionary
281
     1
  0
DICTIONARY
  5
24
102
{ACAD_REACTORS
330
9
102
}
330
9
100
AcDbDictionary
281
     1
  3
STANDARD
350
27
  0
DICTIONARY
  5
25
102
{ACAD_REACTORS
330
9
102
}
330
9
100
AcDbDictionary
281
     1
  0
ACDBDICTIONARYWDFLT
  5
8
102
{ACAD_REACTORS
330
9
102
}
330
9
100
AcDbDictionary
281
     1
  3
Normal
350
7
100
AcDbDictionaryWithDefault
340
7
  0
DICTIONARY
  5
13A
102
{ACAD_REACTORS
330
9
102
}
330
9
100
AcDbDictionary
281
     1
  3
Standard
350
13B
  0
DICTIONARY
  5
14A
102
{ACAD_REACTORS
330
9
102
}
330
9
100
AcDbDictionary
281
     1
  3
COLORDICT
350
14B
  3
MATERIALDICT
350
14C
  0
DICTIONARY
  5
AD
102
{ACAD_REACTORS
330
9
102
}
330
9
100
AcDbDictionary
281
     1
  3
CTABLESTYLE
350
147
  3
HIDETEXT
350
149
  0
LAYOUT
  5
13
102
{ACAD_REACTORS
330
D
102
}
102
{ACAD_XDICTIONARY
360
14D
102
}
330
D
100
AcDbPlotSettings
  1

  2
C:\ACAD2000\plotters\HP LaserJet 2100 Series PS.pc3
  4

  6

 40
0.0
 41
0.0
 42
0.0
 43
0.0
 44
0.0
 45
0.0
 46
0.0
 47
0.0
 48
0.0
 49
0.0
140
0.0
141
0.0
142
1.0
143
1.0
 70
   688
 72
     0
 73
     0
 74
     5
  7

 75
    16
147
1.0
148
0.0
149
0.0
100
AcDbLayout
  1
Layout1
 70
     0
 71
     1
 10
0.0
 20
0.0
 11
12.0
 21
9.0
 12
0.0
 22
0.0
 32
0.0
 14
1.000000000000000E+20
 24
1.000000000000000E+20
 34
1.000000000000000E+20
 15
-1.000000000000000E+20
 25
-1.000000000000000E+20
 35
-1.000000000000000E+20
146
0.0
 13
0.0
 23
0.0
 33
0.0
 16
1.0
 26
0.0
 36
0.0
 17
0.0
 27
1.0
 37
0.0
 76
     0
330
E
  0
LAYOUT
  5
C
102
{ACAD_REACTORS
330
D
102
}
102
{ACAD_XDICTIONARY
360
14F
102
}
330
D
100
AcDbPlotSettings
  1

  2
HP LaserJet 2100 Series PS
  4
Letter
  6

 40
5.365749835968018
 41
5.365735054016113
 42
3.175003051757813
 43
3.17498779296875
 44
210.4813232421875
 45
273.9813232421875
 46
0.0
 47
0.0
 48
0.0
 49
0.0
140
0.0
141
0.0
142
1.0
143
3.982286509285538
 70
 28336
 72
     0
 73
     1
 74
     2
  7

 75
     0
147
0.251112017598003
148
0.0
149
0.0
100
AcDbLayout
  1
Model
 70
     1
 71
     0
 10
0.0
 20
0.0
 11
12.0
 21
9.0
 12
0.0
 22
0.0
 32
0.0
 14
0.0
 24
0.0
 34
0.0
 15
0.0
 25
0.0
 35
0.0
146
0.0
 13
0.0
 23
0.0
 33
0.0
 16
1.0
 26
0.0
 36
0.0
 17
0.0
 27
1.0
 37
0.0
 76
     0
330
2
  0
MLINESTYLE
  5
27
102
{ACAD_REACTORS
330
24
102
}
330
24
100
AcDbMlineStyle
  2
STANDARD
 70
     0
  3

 62
   256
 51
90.0
 52
90.0
 71
     2
 49
0.5
 62
   256
  6
BYLAYER
 49
-0.5
 62
   256
  6
BYLAYER
  0
ACDBPLACEHOLDER
  5
7
102
{ACAD_REACTORS
330
8
102
}
330
8
  0
ACAD_PROXY_OBJECT
  5
13B
102
{ACAD_REACTORS
330
13A
102
}
330
13A
100
AcDbProxyObject
 90
      499
 91
      508
 95
   983063
 70
     0
 93
     1841
310
4214DD185B99185C9928B81E85EB51B8AE3F2E07A17AD46E2B8FC02B5E8DC0F42B1CFD028000000C1008070000C3001FDFF8000000C1003FBFF000000182007F7FE00000030400FEFFC00000060801FDFF8000000C1003FBFF00000018200000000000000681FA0B0000001820100E000186003FBFF000000182007F7FE000
310
00030400FEFFC00000060801FDFF8000000C1003FBFF000000182007F7FE000000304000AD7A3703D0AC73F4160000003040201C00030C007F7FE00000030400FEFFC00000060801FDFF8000000C1003FBFF000000182007F7FE00000030400FEFFC000000608000
340
16
340
16
340
16
 94
        0
  0
XRECORD
  5
14B
102
{ACAD_REACTORS
330
14A
102
}
330
14A
100
AcDbXrecord
340
139
  0
XRECORD
  5
14C
102
{ACAD_REACTORS
330
14A
102
}
330
14A
100
AcDbXrecord
340
138
  0
DICTIONARYVAR
  5
147
102
{ACAD_REACTORS
330
AD
102
}
330
AD
100
DictionaryVariables
280
     0
  1
STANDARD
  0
DICTIONARYVAR
  5
149
102
{ACAD_REACTORS
330
AD
102
}
330
AD
100
DictionaryVariables
280
     0
  1
0
  0
DICTIONARY
  5
14D
330
13
100
AcDbDictionary
280
     1
281
     1
  3
ACAD_XREC_ROUNDTRIP
360
14E
  0
DICTIONARY
  5
14F
330
C
100
AcDbDictionary
280
     1
281
     1
  3
ACAD_XREC_ROUNDTRIP
360
150
  0
XRECORD
  5
14E
102
{ACAD_REACTORS
330
14D
102
}
330
14D
100
AcDbXrecord
102
SHADEPLOT
 70
     0
102
SHADEPLOTRESLEVEL
 70
     2
102
SHADEPLOTCUSTOMDPI
 70
   300
  0
XRECORD
  5
150
102
{ACAD_REACTORS
330
14F
102
}
330
14F
100
AcDbXrecord
102
SHADEPLOT
 70
     0
102
SHADEPLOTRESLEVEL
 70
     2
102
SHADEPLOTCUSTOMDPI
 70
   300
  0
ENDSEC
  0
EOF
