  0
SECTION
  2
HEADER
  9
$ACADVER
  1
AC1015
  9
$ACADMAINTVER
 70
    20
  9
$DWGCODEPAGE
  3
ANSI_1252
  9
$INSBASE
 10
0.0
 20
0.0
 30
0.0
  9
$EXTMIN
 10
-10.03235303246587
 20
-0.0414213562373067
 30
0.0
  9
$EXTMAX
 10
9.903403032465874
 20
13.86571681235628
 30
0.0
  9
$LIMMIN
 10
0.0
 20
0.0
  9
$LIMMAX
 10
32.03875092730144
 20
24.0
  9
$ORTHOMODE
 70
     1
  9
$REGENMODE
 70
     1
  9
$FILLMODE
 70
     1
  9
$QTEXTMODE
 70
     0
  9
$MIRRTEXT
 70
     0
  9
$LTSCALE
 40
1.0
  9
$ATTMODE
 70
     1
  9
$TEXTSIZE
 40
0.27
  9
$TRACEWID
 40
0.05
  9
$TEXTSTYLE
  7
STANDARD
  9
$CLAYER
  8
0
  9
$CELTYPE
  6
BYLAYER
  9
$CECOLOR
 62
   256
  9
$CELTSCALE
 40
1.0
  9
$DISPSILH
 70
     0
  9
$DIMSCALE
 40
1.0
  9
$DIMASZ
 40
0.375
  9
$DIMEXO
 40
0.0625
  9
$DIMDLI
 40
0.75
  9
$DIMRND
 40
0.0
  9
$DIMDLE
 40
0.0
  9
$DIMEXE
 40
0.18
  9
$DIMTP
 40
0.0
  9
$DIMTM
 40
0.0
  9
$DIMTXT
 40
0.27
  9
$DIMCEN
 40
-0.06
  9
$DIMTSZ
 40
0.0
  9
$DIMTOL
 70
     0
  9
$DIMLIM
 70
     0
  9
$DIMTIH
 70
     1
  9
$DIMTOH
 70
     1
  9
$DIMSE1
 70
     0
  9
$DIMSE2
 70
     0
  9
$DIMTAD
 70
     0
  9
$DIMZIN
 70
     0
  9
$DIMBLK
  1

  9
$DIMASO
 70
     0
  9
$DIMSHO
 70
     0
  9
$DIMPOST
  1

  9
$DIMAPOST
  1

  9
$DIMALT
 70
     0
  9
$DIMALTD
 70
     2
  9
$DIMALTF
 40
25.4
  9
$DIMLFAC
 40
1.0
  9
$DIMTOFL
 70
     0
  9
$DIMTVP
 40
0.0
  9
$DIMTIX
 70
     0
  9
$DIMSOXD
 70
     0
  9
$DIMSAH
 70
     0
  9
$DIMBLK1
  1

  9
$DIMBLK2
  1

  9
$DIMSTYLE
  2
STANDARD
  9
$DIMCLRD
 70
     0
  9
$DIMCLRE
 70
     0
  9
$DIMCLRT
 70
     0
  9
$DIMTFAC
 40
1.0
  9
$DIMGAP
 40
0.09
  9
$DIMJUST
 70
     0
  9
$DIMSD1
 70
     0
  9
$DIMSD2
 70
     0
  9
$DIMTOLJ
 70
     1
  9
$DIMTZIN
 70
     0
  9
$DIMALTZ
 70
     0
  9
$DIMALTTZ
 70
     0
  9
$DIMUPT
 70
     0
  9
$DIMDEC
 70
     4
  9
$DIMTDEC
 70
     4
  9
$DIMALTU
 70
     5
  9
$DIMALTTD
 70
     2
  9
$DIMTXSTY
  7
STANDARD
  9
$DIMAUNIT
 70
     0
  9
$DIMADEC
 70
     0
  9
$DIMALTRND
 40
0.0
  9
$DIMAZIN
 70
     0
  9
$DIMDSEP
 70
    46
  9
$DIMATFIT
 70
     3
  9
$DIMFRAC
 70
     0
  9
$DIMLDRBLK
  1

  9
$DIMLUNIT
 70
     5
  9
$DIMLWD
 70
    -2
  9
$DIMLWE
 70
    -2
  9
$DIMTMOVE
 70
     2
  9
$LUNITS
 70
     5
  9
$LUPREC
 70
     4
  9
$SKETCHINC
 40
0.1
  9
$FILLETRAD
 40
0.07
  9
$AUNITS
 70
     0
  9
$AUPREC
 70
     0
  9
$MENU
  1
ACAD
  9
$ELEVATION
 40
0.0
  9
$PELEVATION
 40
0.0
  9
$THICKNESS
 40
0.0
  9
$LIMCHECK
 70
     0
  9
$CHAMFERA
 40
0.0
  9
$CHAMFERB
 40
0.0
  9
$CHAMFERC
 40
0.0
  9
$CHAMFERD
 40
0.0
  9
$SKPOLY
 70
     0
  9
$TDCREATE
 40
2449940.603271528
  9
$TDUCREATE
 40
2449940.894938195
  9
$TDUPDATE
 40
2455369.448345104
  9
$TDUUPDATE
 40
2455369.740011771
  9
$TDINDWG
 40
0.0407404745
  9
$TDUSRTIMER
 40
0.0407404745
  9
$USRTIMER
 70
     1
  9
$ANGBASE
 50
0.0
  9
$ANGDIR
 70
     0
  9
$PDMODE
 70
     0
  9
$PDSIZE
 40
0.0
  9
$PLINEWID
 40
0.0
  9
$SPLFRAME
 70
     0
  9
$SPLINETYPE
 70
     6
  9
$SPLINESEGS
 70
     8
  9
$HANDSEED
  5
509
  9
$SURFTAB1
 70
     6
  9
$SURFTAB2
 70
     6
  9
$SURFTYPE
 70
     6
  9
$SURFU
 70
     6
  9
$SURFV
 70
     6
  9
$UCSBASE
  2

  9
$UCSNAME
  2

  9
$UCSORG
 10
0.0
 20
0.0
 30
0.0
  9
$UCSXDIR
 10
1.0
 20
0.0
 30
0.0
  9
$UCSYDIR
 10
0.0
 20
1.0
 30
0.0
  9
$UCSORTHOREF
  2

  9
$UCSORTHOVIEW
 70
     0
  9
$UCSORGTOP
 10
0.0
 20
0.0
 30
0.0
  9
$UCSORGBOTTOM
 10
0.0
 20
0.0
 30
0.0
  9
$UCSORGLEFT
 10
0.0
 20
0.0
 30
0.0
  9
$UCSORGRIGHT
 10
0.0
 20
0.0
 30
0.0
  9
$UCSORGFRONT
 10
0.0
 20
0.0
 30
0.0
  9
$UCSORGBACK
 10
0.0
 20
0.0
 30
0.0
  9
$PUCSBASE
  2

  9
$PUCSNAME
  2

  9
$PUCSORG
 10
0.0
 20
0.0
 30
0.0
  9
$PUCSXDIR
 10
1.0
 20
0.0
 30
0.0
  9
$PUCSYDIR
 10
0.0
 20
1.0
 30
0.0
  9
$PUCSORTHOREF
  2

  9
$PUCSORTHOVIEW
 70
     0
  9
$PUCSORGTOP
 10
0.0
 20
0.0
 30
0.0
  9
$PUCSORGBOTTOM
 10
0.0
 20
0.0
 30
0.0
  9
$PUCSORGLEFT
 10
0.0
 20
0.0
 30
0.0
  9
$PUCSORGRIGHT
 10
0.0
 20
0.0
 30
0.0
  9
$PUCSORGFRONT
 10
0.0
 20
0.0
 30
0.0
  9
$PUCSORGBACK
 10
0.0
 20
0.0
 30
0.0
  9
$USERI1
 70
     0
  9
$USERI2
 70
     0
  9
$USERI3
 70
     0
  9
$USERI4
 70
     0
  9
$USERI5
 70
     0
  9
$USERR1
 40
0.0
  9
$USERR2
 40
0.0
  9
$USERR3
 40
0.0
  9
$USERR4
 40
0.0
  9
$USERR5
 40
0.0
  9
$WORLDVIEW
 70
     1
  9
$SHADEDGE
 70
     3
  9
$SHADEDIF
 70
    70
  9
$TILEMODE
 70
     1
  9
$MAXACTVP
 70
    16
  9
$PINSBASE
 10
0.0
 20
0.0
 30
0.0
  9
$PLIMCHECK
 70
     0
  9
$PEXTMIN
 10
1.000000000000000E+20
 20
1.000000000000000E+20
 30
1.000000000000000E+20
  9
$PEXTMAX
 10
-1.000000000000000E+20
 20
-1.000000000000000E+20
 30
-1.000000000000000E+20
  9
$PLIMMIN
 10
0.0
 20
0.0
  9
$PLIMMAX
 10
12.0
 20
9.0
  9
$UNITMODE
 70
     0
  9
$VISRETAIN
 70
     0
  9
$PLINEGEN
 70
     0
  9
$PSLTSCALE
 70
     0
  9
$TREEDEPTH
 70
  3020
  9
$CMLSTYLE
  2
STANDARD
  9
$CMLJUST
 70
     0
  9
$CMLSCALE
 40
1.0
  9
$PROXYGRAPHICS
 70
     1
  9
$MEASUREMENT
 70
     0
  9
$CELWEIGHT
370
    -1
  9
$ENDCAPS
280
     0
  9
$JOINSTYLE
280
     0
  9
$LWDISPLAY
290
     0
  9
$INSUNITS
 70
     0
  9
$HYPERLINKBASE
  1

  9
$STYLESHEET
  1

  9
$XEDIT
290
     1
  9
$CEPSNTYPE
380
     0
  9
$PSTYLEMODE
290
     1
  9
$FINGERPRINTGUID
  2
{3AE8221E-E309-11D5-BE3F-00508B5FCD51}
  9
$VERSIONGUID
  2
{95321D4A-BA97-4254-8F58-7B265901A532}
  9
$EXTNAMES
290
     1
  9
$PSVPSCALE
 40
0.0
  9
$OLESTARTUP
290
     0
  0
ENDSEC
  0
SECTION
  2
CLASSES
  0
CLASS
  1
DICTIONARYVAR
  2
AcDbDictionaryVar
  3
ObjectDBX Classes
 90
        0
280
     0
281
     0
  0
CLASS
  1
ACDBDICTIONARYWDFLT
  2
AcDbDictionaryWithDefault
  3
ObjectDBX Classes
 90
        0
280
     0
281
     0
  0
CLASS
  1
ACDBPLACEHOLDER
  2
AcDbPlaceHolder
  3
ObjectDBX Classes
 90
        0
280
     0
281
     0
  0
CLASS
  1
LAYOUT
  2
AcDbLayout
  3
ObjectDBX Classes
 90
        0
280
     0
281
     0
  0
CLASS
  1
TABLESTYLE
  2
AcDbTableStyle
  3
ObjectDBX Classes
 90
     2047
280
     0
281
     0
  0
CLASS
  1
SORTENTSTABLE
  2
AcDbSortentsTable
  3
ObjectDBX Classes
 90
        0
280
     0
281
     0
  0
ENDSEC
  0
SECTION
  2
TABLES
  0
TABLE
  2
VPORT
  5
8
330
0
100
AcDbSymbolTable
 70
     2
  0
VPORT
  5
503
330
8
100
AcDbSymbolTableRecord
100
AcDbViewportTableRecord
  2
*Active
 70
     0
 10
0.0
 20
0.0
 11
1.0
 21
1.0
 12
4.36310881911816
 22
7.054869574072913
 13
0.0
 23
0.0
 14
0.0625
 24
0.0625
 15
0.5
 25
0.5
 16
0.0
 26
0.0
 36
1.0
 17
0.0
 27
0.0
 37
0.0
 40
19.03486104721413
 41
1.902325581395348
 42
50.0
 43
0.0
 44
0.0
 50
0.0
 51
0.0
 71
     0
 72
   100
 73
     1
 74
     0
 75
     0
 76
     0
 77
     0
 78
     1
281
     0
 65
     1
110
0.0
120
0.0
130
0.0
111
1.0
121
0.0
131
0.0
112
0.0
122
1.0
132
0.0
 79
     0
146
0.0
  0
ENDTAB
  0
TABLE
  2
LTYPE
  5
5
330
0
100
AcDbSymbolTable
 70
     2
  0
LTYPE
  5
11
330
5
100
AcDbSymbolTableRecord
100
AcDbLinetypeTableRecord
  2
BYBLOCK
 70
     0
  3

 72
    65
 73
     0
 40
0.0
  0
LTYPE
  5
12
330
5
100
AcDbSymbolTableRecord
100
AcDbLinetypeTableRecord
  2
BYLAYER
 70
     0
  3

 72
    65
 73
     0
 40
0.0
  0
LTYPE
  5
13
330
5
100
AcDbSymbolTableRecord
100
AcDbLinetypeTableRecord
  2
CONTINUOUS
 70
     0
  3
Solid line
 72
    65
 73
     0
 40
0.0
  0
LTYPE
  5
2D
330
5
100
AcDbSymbolTableRecord
100
AcDbLinetypeTableRecord
  2
HIDDEN
 70
     0
  3
__ __ __ __ __ __ __ __ __ __ __ __ __ __ __ __
 72
    65
 73
     2
 40
0.375
 49
0.25
 74
     0
 49
-0.125
 74
     0
  0
ENDTAB
  0
TABLE
  2
LAYER
  5
2
102
{ACAD_XDICTIONARY
360
4E6
102
}
330
0
100
AcDbSymbolTable
 70
     1
  0
LAYER
  5
E
330
2
100
AcDbSymbolTableRecord
100
AcDbLayerTableRecord
  2
0
 70
     0
 62
     7
  6
CONTINUOUS
370
    -3
390
3C8
  0
ENDTAB
  0
TABLE
  2
STYLE
  5
3
330
0
100
AcDbSymbolTable
 70
     1
  0
STYLE
  5
F
330
3
100
AcDbSymbolTableRecord
100
AcDbTextStyleTableRecord
  2
STANDARD
 70
     0
 40
0.0
 41
1.0
 50
0.0
 71
     0
 42
0.27
  3
TXT
  4

  0
ENDTAB
  0
TABLE
  2
VIEW
  5
6
330
0
100
AcDbSymbolTable
 70
     1
  0
VIEW
  5
31
330
6
100
AcDbSymbolTableRecord
100
AcDbViewTableRecord
  2
PLOTTER
 70
     0
 40
23.51219512195122
 10
16.93206656412709
 20
11.75609756097561
 41
0.0
 11
0.0
 21
0.0
 31
1.0
 12
0.0
 22
0.0
 32
0.0
 42
0.0
 43
0.0
 44
0.0
 50
0.0
 71
     0
281
     0
 72
     0
  0
ENDTAB
  0
TABLE
  2
UCS
  5
7
330
0
100
AcDbSymbolTable
 70
     0
  0
ENDTAB
  0
TABLE
  2
APPID
  5
9
330
0
100
AcDbSymbolTable
 70
     1
  0
APPID
  5
10
330
9
100
AcDbSymbolTableRecord
100
AcDbRegAppTableRecord
  2
ACAD
 70
     0
  0
ENDTAB
  0
TABLE
  2
DIMSTYLE
  5
A
330
0
100
AcDbSymbolTable
 70
     1
100
AcDbDimStyleTable
 71
     0
  0
DIMSTYLE
105
372
330
A
100
AcDbSymbolTableRecord
100
AcDbDimStyleTableRecord
  2
STANDARD
 70
     0
340
F
  0
ENDTAB
  0
TABLE
  2
BLOCK_RECORD
  5
1
330
0
100
AcDbSymbolTable
 70
     0
  0
BLOCK_RECORD
  5
17
102
{ACAD_XDICTIONARY
360
3F8
102
}
330
1
100
AcDbSymbolTableRecord
100
AcDbBlockTableRecord
  2
*MODEL_SPACE
340
3CB
  0
BLOCK_RECORD
  5
14
102
{ACAD_XDICTIONARY
360
3F6
102
}
330
1
100
AcDbSymbolTableRecord
100
AcDbBlockTableRecord
  2
*PAPER_SPACE
340
3CC
  0
ENDTAB
  0
ENDSEC
  0
SECTION
  2
BLOCKS
  0
BLOCK
  5
47
330
17
100
AcDbEntity
  8
0
100
AcDbBlockBegin
  2
*MODEL_SPACE
 70
     0
 10
0.0
 20
0.0
 30
0.0
  3
*MODEL_SPACE
  1

  0
ENDBLK
  5
48
330
17
100
AcDbEntity
  8
0
100
AcDbBlockEnd
  0
BLOCK
  5
45
330
14
100
AcDbEntity
 67
     1
  8
0
100
AcDbBlockBegin
  2
*PAPER_SPACE
 70
     0
 10
0.0
 20
0.0
 30
0.0
  3
*PAPER_SPACE
  1

  0
ENDBLK
  5
46
330
14
100
AcDbEntity
 67
     1
  8
0
100
AcDbBlockEnd
  0
ENDSEC
  0
SECTION
  2
ENTITIES
  0
LINE
  5
299
330
17
100
AcDbEntity
  8
0
100
AcDbLine
 10
2.453950323753392
 20
12.78855169725314
 30
0.0
 11
2.453950323753392
 21
11.21983781637966
 31
0.0
  0
LINE
  5
29A
330
17
100
AcDbEntity
  8
0
100
AcDbLine
 10
-2.445173227530563
 20
12.78855169725314
 30
0.0
 11
-2.445173227530563
 21
11.21983781637966
 31
0.0
  0
LINE
  5
29F
330
17
100
AcDbEntity
  8
0
100
AcDbLine
 10
2.453950323753392
 20
12.78855169725314
 30
0.0
 11
2.453950323753392
 21
13.68282326121457
 31
0.0
  0
LINE
  5
2A1
330
17
100
AcDbEntity
  8
0
100
AcDbLine
 10
2.523950323753393
 20
13.75282326121457
 30
0.0
 11
3.707182440296925
 21
13.75282326121457
 31
0.0
  0
LINE
  5
2A2
330
17
100
AcDbEntity
  8
0
100
AcDbLine
 10
-3.694207235900169
 20
13.75309610219596
 30
0.0
 11
-2.515173227530564
 21
13.75309610219596
 31
0.0
  0
LINE
  5
2A3
330
17
100
AcDbEntity
  8
0
100
AcDbLine
 10
-2.445173227530563
 20
13.68309610219596
 30
0.0
 11
-2.445173227530563
 21
12.78855169725314
 31
0.0
  0
LINE
  5
2A4
330
17
100
AcDbEntity
  8
0
100
AcDbLine
 10
3.707182440296925
 20
13.75282326121457
 30
0.0
 11
3.707182440296925
 21
13.83672186299016
 31
0.0
  0
LINE
  5
2A5
330
17
100
AcDbEntity
  8
0
100
AcDbLine
 10
-3.694207235900169
 20
13.83672186299017
 30
0.0
 11
-3.694207235900169
 21
13.75309610219596
 31
0.0
  0
LINE
  5
2A6
330
17
100
AcDbEntity
  8
0
100
AcDbLine
 10
-3.694207235900169
 20
13.83672186299017
 30
0.0
 11
-2.476015879770134
 21
13.83672186299016
 31
0.0
  0
LINE
  5
2A7
330
17
100
AcDbEntity
  8
0
100
AcDbLine
 10
-2.337937450249423
 20
13.71983781637966
 30
0.0
 11
2.28773429692406
 21
13.71983781637966
 31
0.0
  0
LINE
  5
2A8
330
17
100
AcDbEntity
  8
0
100
AcDbLine
 10
2.509293504771807
 20
13.83672186299016
 30
0.0
 11
3.707182440296925
 21
13.83672186299016
 31
0.0
  0
LINE
  5
2A9
330
17
100
AcDbEntity
  8
0
100
AcDbLine
 10
1.87903947521455
 20
13.71983781637966
 30
0.0
 11
2.371215075251068
 21
13.71983781637966
 31
0.0
  0
LINE
  5
2AE
330
17
100
AcDbEntity
  8
0
100
AcDbLine
 10
2.369293504771807
 20
13.69672186299016
 30
0.0
 11
2.369293504771807
 21
11.21983781637966
 31
0.0
  0
LINE
  5
2AF
330
17
100
AcDbEntity
  8
0
100
AcDbLine
 10
-2.33601587977014
 20
13.69672186299016
 30
0.0
 11
-2.33601587977014
 21
11.21983781637966
 31
0.0
  0
LINE
  5
2B5
330
17
100
AcDbEntity
  8
0
100
AcDbLine
 10
-3.698937036935301
 20
5.579614891045597
 30
0.0
 11
-2.386716680952051
 21
5.579614891045601
 31
0.0
  0
LINE
  5
2B6
330
17
100
AcDbEntity
  8
0
100
AcDbLine
 10
-2.465646680952051
 20
0.2167999999999992
 30
0.0
 11
-3.698937036935301
 21
1.818260167360243
 31
0.0
  0
LINE
  5
2B7
330
17
100
AcDbEntity
  8
0
100
AcDbLine
 10
2.445342963064693
 20
0.2167999999999992
 30
0.0
 11
3.695342963064693
 21
1.83995808235144
 31
0.0
  0
LINE
  5
2B8
330
17
100
AcDbEntity
  8
0
100
AcDbLine
 10
-2.370327036935304
 20
5.579614891045602
 30
0.0
 11
-2.370327036935304
 21
0.201509999999999
 31
0.0
  0
LINE
  5
2B9
330
17
100
AcDbEntity
  8
0
100
AcDbLine
 10
-2.448937036935301
 20
1.139220000000001
 30
0.0
 11
-2.448937036935301
 21
0.1971900000000026
 31
0.0
  0
LINE
  5
2BA
330
17
100
AcDbEntity
  8
0
100
AcDbLine
 10
2.445342963064693
 20
5.579614891045602
 30
0.0
 11
2.445342963064693
 21
0.2000000000000028
 31
0.0
  0
ARC
  5
2BF
330
17
100
AcDbEntity
  8
0
100
AcDbCircle
 10
2.241412963064693
 20
0.2040700000000015
 30
0.0
 40
0.125
100
AcDbArc
 50
269.9927
 51
0.0
  0
ARC
  5
2C0
330
17
100
AcDbEntity
  8
0
100
AcDbCircle
 10
-2.245327036935304
 20
0.2043700000000008
 30
0.0
 40
0.125
100
AcDbArc
 50
180.0
 51
269.9927
  0
ARC
  5
2C1
330
17
100
AcDbEntity
  8
0
100
AcDbCircle
 10
2.24534296306469
 20
0.2000000000000028
 30
0.0
 40
0.2
100
AcDbArc
 50
270.0
 51
0.0
  0
ARC
  5
2C2
330
17
100
AcDbEntity
  8
0
100
AcDbCircle
 10
-2.248937036935306
 20
0.2000000000000028
 30
0.0
 40
0.2
100
AcDbArc
 50
180.0
 51
270.0
  0
LINE
  5
2C3
330
17
100
AcDbEntity
  8
0
100
AcDbLine
 10
-2.24534296306469
 20
0.0
 30
0.0
 11
2.24534296306469
 21
0.0
 31
0.0
  0
LINE
  5
2C4
330
17
100
AcDbEntity
  8
0
100
AcDbLine
 10
-2.448937036935301
 20
5.579614891045602
 30
0.0
 11
-2.448937036935301
 21
1.1294
 31
0.0
  0
LINE
  5
2C5
330
17
100
AcDbEntity
  8
0
100
AcDbLine
 10
2.366412963064693
 20
5.579614891045601
 30
0.0
 11
2.445342963064693
 21
5.579614891045601
 31
0.0
  0
LINE
  5
2C6
330
17
100
AcDbEntity
  8
0
100
AcDbLine
 10
-2.370327036935304
 20
5.579614891045601
 30
0.0
 11
-2.448937036935301
 21
5.579614891045601
 31
0.0
  0
LINE
  5
2C7
330
17
100
AcDbEntity
  8
0
100
AcDbLine
 10
-2.24534296306469
 20
0.0790700000000015
 30
0.0
 11
2.241392963064694
 21
0.0790700000000015
 31
0.0
  0
LINE
  5
2C8
330
17
100
AcDbEntity
  8
0
100
AcDbLine
 10
2.366412963064693
 20
0.2040700000000015
 30
0.0
 11
2.366412963064693
 21
5.579614891045601
 31
0.0
  0
CIRCLE
  5
2C9
330
17
100
AcDbEntity
  8
0
100
AcDbCircle
 10
3.374852504020989
 20
5.213986129046347
 30
0.0
 40
0.109
  0
LINE
  5
2CA
330
17
100
AcDbEntity
  8
0
100
AcDbLine
 10
3.695342963064693
 20
5.579614891045597
 30
0.0
 11
2.366412963064693
 21
5.579614891045601
 31
0.0
  0
LINE
  5
2CB
330
17
100
AcDbEntity
  8
0
100
AcDbLine
 10
7.297447032465878
 20
0.0205100000000016
 30
0.0
 11
9.797447032465875
 21
0.0205100000000016
 31
0.0
  0
LINE
  5
2CC
330
17
100
AcDbEntity
  8
0
100
AcDbLine
 10
9.797447032465875
 20
0.3197103976493736
 30
0.0
 11
9.797447032465875
 21
5.584364479033148
 31
0.0
  0
LINE
  5
2D1
330
17
100
AcDbEntity
  8
0
100
AcDbLine
 10
9.797447032465875
 20
0.3197103976493736
 30
0.0
 11
9.797447032465875
 21
0.0203500000000005
 31
0.0
  0
LINE
  5
2D2
330
17
100
AcDbEntity
  8
0
100
AcDbLine
 10
9.903403032465874
 20
5.584194479033143
 30
0.0
 11
9.797447032465875
 21
5.584194479033143
 31
0.0
  0
LINE
  5
2D3
330
17
100
AcDbEntity
  8
0
100
AcDbLine
 10
9.797447032465875
 20
0.3197103976493736
 30
0.0
 11
9.903403032465874
 21
0.3197103976493736
 31
0.0
  0
LINE
  5
2D4
330
17
100
AcDbEntity
  8
0
100
AcDbLine
 10
9.797447032465875
 20
5.584364479033148
 30
0.0
 11
8.547447032465875
 21
5.584364479033148
 31
0.0
  0
LINE
  5
2D5
330
17
100
AcDbEntity
  8
0
100
AcDbLine
 10
9.903403032465874
 20
0.3197103976493736
 30
0.0
 11
9.903403032465874
 21
5.584194479033143
 31
0.0
  0
LINE
  5
2D6
330
17
100
AcDbEntity
  8
0
100
AcDbLine
 10
9.797447032465875
 20
2.652283610308796
 30
0.0
 11
9.797447032465875
 21
2.475943610308792
 31
0.0
  0
LINE
  5
2DA
330
17
100
AcDbEntity
  8
0
  6
HIDDEN
100
AcDbLine
 10
7.297447032465878
 20
0.0830100000000016
 30
0.0
 11
9.797447032465875
 21
0.0830100000000016
 31
0.0
  0
LINE
  5
2DD
330
17
100
AcDbEntity
  8
0
100
AcDbLine
 10
-2.445173227530563
 20
11.21983781637966
 30
0.0
 11
2.453950323753392
 21
11.21983781637966
 31
0.0
  0
CIRCLE
  5
307
330
17
100
AcDbEntity
  8
0
100
AcDbCircle
 10
3.374852504020989
 20
3.463986129046347
 30
0.0
 40
0.109
  0
CIRCLE
  5
308
330
17
100
AcDbEntity
  8
0
100
AcDbCircle
 10
2.812352504020989
 20
4.338986129046347
 30
0.0
 40
0.109
  0
CIRCLE
  5
309
330
17
100
AcDbEntity
  8
0
100
AcDbCircle
 10
2.812352504020989
 20
2.588986129046347
 30
0.0
 40
0.109
  0
CIRCLE
  5
30A
330
17
100
AcDbEntity
  8
0
100
AcDbCircle
 10
-3.378446577891597
 20
5.213986129046347
 30
0.0
 40
0.109
  0
CIRCLE
  5
30B
330
17
100
AcDbEntity
  8
0
100
AcDbCircle
 10
-2.815946577891597
 20
4.338986129046347
 30
0.0
 40
0.109
  0
CIRCLE
  5
30C
330
17
100
AcDbEntity
  8
0
100
AcDbCircle
 10
-2.815946577891597
 20
2.588986129046347
 30
0.0
 40
0.109
  0
CIRCLE
  5
30D
330
17
100
AcDbEntity
  8
0
100
AcDbCircle
 10
-3.378446577891597
 20
3.463986129046347
 30
0.0
 40
0.109
  0
LINE
  5
317
330
17
100
AcDbEntity
  8
0
100
AcDbLine
 10
7.297447032465875
 20
0.31971039764937
 30
0.0
 11
8.547447032465871
 21
1.942868480000807
 31
0.0
  0
LINE
  5
318
330
17
100
AcDbEntity
  8
0
100
AcDbLine
 10
7.297447032465878
 20
0.31971039764937
 30
0.0
 11
7.297447032465875
 21
0.0203500000000005
 31
0.0
  0
LINE
  5
323
330
17
100
AcDbEntity
  8
0
100
AcDbLine
 10
8.547447032465871
 20
1.942868480000807
 30
0.0
 11
8.547447032465875
 21
5.584364479033148
 31
0.0
  0
CIRCLE
  5
324
330
17
100
AcDbEntity
  8
0
100
AcDbCircle
 10
8.859947032465875
 20
5.209343786852222
 30
0.0
 40
0.078
  0
CIRCLE
  5
325
330
17
100
AcDbEntity
  8
0
100
AcDbCircle
 10
8.859947032465875
 20
1.028571767075607
 30
0.0
 40
0.078
  0
LINE
  5
326
330
17
100
AcDbEntity
  8
0
100
AcDbLine
 10
3.695342963064693
 20
5.579614891045599
 30
0.0
 11
3.695342963064693
 21
1.83995808235144
 31
0.0
  0
LINE
  5
327
330
17
100
AcDbEntity
  8
0
100
AcDbLine
 10
-3.698937036935305
 20
5.579614891045595
 30
0.0
 11
-3.698937036935301
 21
1.818260167360243
 31
0.0
  0
ARC
  5
336
330
17
100
AcDbEntity
  8
0
100
AcDbCircle
 10
2.523950323753393
 20
13.68282326121457
 30
0.0
 40
0.07
100
AcDbArc
 50
90.0
 51
180.0
  0
ARC
  5
337
330
17
100
AcDbEntity
  8
0
100
AcDbCircle
 10
2.509293504771807
 20
13.69672186299016
 30
0.0
 40
0.14
100
AcDbArc
 50
90.0
 51
180.0
  0
ARC
  5
338
330
17
100
AcDbEntity
  8
0
100
AcDbCircle
 10
-2.476015879770134
 20
13.69672186299016
 30
0.0
 40
0.14
100
AcDbArc
 50
0.0
 51
90.0
  0
ARC
  5
339
330
17
100
AcDbEntity
  8
0
100
AcDbCircle
 10
-2.515173227530564
 20
13.68309610219596
 30
0.0
 40
0.07
100
AcDbArc
 50
0.0
 51
90.0
  0
LINE
  5
36B
330
17
100
AcDbEntity
  8
0
100
AcDbLine
 10
-0.0644749999999981
 20
0.0790700000000015
 30
0.0
 11
-0.1819749999999978
 21
0.0790700000000015
 31
0.0
  0
LWPOLYLINE
  5
4A6
330
17
100
AcDbEntity
  8
0
100
AcDbPolyline
 90
        6
 70
     1
 43
0.0
 10
-3.170523747030366
 20
4.879776058989611
 10
-3.121492275613194
 20
4.696788117763405
 42
0.5773502686101053
 10
-3.069210006643643
 20
4.682779126063259
 10
-2.935253536335188
 20
4.816735596371714
 42
0.5773502697691459
 10
-2.949262528140292
 20
4.869017865369388
 10
-3.132250469799379
 20
4.918049336220597
 42
0.5773502691896259
  0
LWPOLYLINE
  5
4AE
330
17
100
AcDbEntity
  8
0
100
AcDbPolyline
 90
        6
 70
     1
 43
0.0
 10
-3.170523747030366
 20
3.139332049485391
 10
-3.121492275613194
 20
2.956344108259186
 42
0.5773502686101053
 10
-3.069210006643643
 20
2.942335116559039
 10
-2.935253536335188
 20
3.076291586867494
 42
0.5773502697691459
 10
-2.949262528140292
 20
3.128573855865168
 10
-3.132250469799379
 20
3.177605326716378
 42
0.5773502691896259
  0
LWPOLYLINE
  5
4B5
330
17
100
AcDbEntity
  8
0
100
AcDbPolyline
 90
        6
 70
     1
 43
0.0
 10
3.128656395237284
 20
4.918049336912094
 10
2.945668454011078
 20
4.869017865494923
 42
0.5773502686101053
 10
2.931659462310932
 20
4.816735596525372
 10
3.065615932619387
 20
4.682779126216917
 42
0.5773502697691459
 10
3.117898201617061
 20
4.696788118022022
 10
3.16692967246827
 20
4.879776059681107
 42
0.5773502691896259
  0
LWPOLYLINE
  5
4BC
330
17
100
AcDbEntity
  8
0
100
AcDbPolyline
 90
        6
 70
     1
 43
0.0
 10
3.128656395237284
 20
3.177605327407878
 10
2.945668454011078
 20
3.128573855990707
 42
0.5773502686101053
 10
2.931659462310932
 20
3.076291587021156
 10
3.065615932619387
 20
2.942335116712701
 42
0.5773502697691459
 10
3.117898201617061
 20
2.956344108517805
 10
3.16692967246827
 20
3.139332050176891
 42
0.5773502691896259
  0
LINE
  5
4C3
330
17
100
AcDbEntity
  8
0
100
AcDbLine
 10
-7.426397032465876
 20
0.0205100000000016
 30
0.0
 11
-9.926397032465875
 21
0.0205100000000016
 31
0.0
  0
LINE
  5
4C4
330
17
100
AcDbEntity
  8
0
100
AcDbLine
 10
-9.926397032465875
 20
0.3197103976493736
 30
0.0
 11
-9.926397032465875
 21
5.584364479033148
 31
0.0
  0
LINE
  5
4C5
330
17
100
AcDbEntity
  8
0
100
AcDbLine
 10
-9.926397032465875
 20
0.3197103976493736
 30
0.0
 11
-9.926397032465875
 21
0.0203500000000005
 31
0.0
  0
LINE
  5
4C6
330
17
100
AcDbEntity
  8
0
100
AcDbLine
 10
-10.03235303246587
 20
5.584194479033143
 30
0.0
 11
-9.926397032465875
 21
5.584194479033143
 31
0.0
  0
LINE
  5
4C7
330
17
100
AcDbEntity
  8
0
100
AcDbLine
 10
-9.926397032465875
 20
0.3197103976493736
 30
0.0
 11
-10.03235303246587
 21
0.3197103976493736
 31
0.0
  0
LINE
  5
4C8
330
17
100
AcDbEntity
  8
0
100
AcDbLine
 10
-9.926397032465875
 20
5.584364479033148
 30
0.0
 11
-8.676397032465875
 21
5.584364479033148
 31
0.0
  0
LINE
  5
4C9
330
17
100
AcDbEntity
  8
0
100
AcDbLine
 10
-10.03235303246587
 20
0.3197103976493736
 30
0.0
 11
-10.03235303246587
 21
5.584194479033143
 31
0.0
  0
LINE
  5
4CA
330
17
100
AcDbEntity
  8
0
100
AcDbLine
 10
-9.926397032465875
 20
2.652283610308796
 30
0.0
 11
-9.926397032465875
 21
2.475943610308792
 31
0.0
  0
LINE
  5
4CB
330
17
100
AcDbEntity
  8
0
  6
HIDDEN
100
AcDbLine
 10
-7.426397032465876
 20
0.0830100000000016
 30
0.0
 11
-9.926397032465875
 21
0.0830100000000016
 31
0.0
  0
LINE
  5
4D0
330
17
100
AcDbEntity
  8
0
100
AcDbLine
 10
-7.426397032465873
 20
0.31971039764937
 30
0.0
 11
-8.676397032465871
 21
1.942868480000807
 31
0.0
  0
LINE
  5
4D1
330
17
100
AcDbEntity
  8
0
100
AcDbLine
 10
-7.426397032465876
 20
0.31971039764937
 30
0.0
 11
-7.426397032465873
 21
0.0203500000000005
 31
0.0
  0
LINE
  5
4D2
330
17
100
AcDbEntity
  8
0
100
AcDbLine
 10
-8.676397032465871
 20
1.942868480000807
 30
0.0
 11
-8.676397032465875
 21
5.584364479033148
 31
0.0
  0
CIRCLE
  5
4D3
330
17
100
AcDbEntity
  8
0
100
AcDbCircle
 10
-8.988897032465875
 20
4.602128991027271
 30
0.0
 40
0.078
  0
CIRCLE
  5
4D4
330
17
100
AcDbEntity
  8
0
100
AcDbCircle
 10
-8.988897032465875
 20
1.635786562900559
 30
0.0
 40
0.078
  0
LWPOLYLINE
  5
4D8
330
17
100
AcDbEntity
  8
0
100
AcDbPolyline
 90
        6
 70
     1
 43
0.0
 10
8.929198741152946
 20
3.530090161485958
 10
8.746210799926741
 20
3.481058690068785
 42
0.5773502686101053
 10
8.732201808226594
 20
3.428776421099234
 10
8.866158278535049
 20
3.294819950790779
 42
0.5773502697691459
 10
8.918440547532723
 20
3.308828942595884
 10
8.967472018383933
 20
3.491816884254969
 42
0.5773502691896259
  0
LWPOLYLINE
  5
4DF
330
17
100
AcDbEntity
  8
0
100
AcDbPolyline
 90
        6
 70
     1
 43
0.0
 10
-9.058148741152946
 20
2.922875365661006
 10
-8.875160799926741
 20
2.873843894243833
 42
-0.5773502686101053
 10
-8.861151808226594
 20
2.821561625274283
 10
-8.995108278535049
 20
2.687605154965828
 42
-0.5773502697691459
 10
-9.047390547532724
 20
2.701614146770932
 10
-9.096422018383933
 20
2.884602088430018
 42
-0.5773502691896259
  0
ENDSEC
  0
SECTION
  2
OBJECTS
  0
DICTIONARY
  5
C
330
0
100
AcDbDictionary
281
     1
  3
ACAD_COLOR
350
491
  3
ACAD_GROUP
350
D
  3
ACAD_LAYOUT
350
3C9
  3
ACAD_MATERIAL
350
490
  3
ACAD_MLINESTYLE
350
1A
  3
ACAD_PLOTSETTINGS
350
3CA
  3
ACAD_PLOTSTYLENAME
350
3C7
  3
ACAD_TABLESTYLE
350
492
  3
ACDBHEADERROUNDTRIPXREC
350
504
  3
ACDBVARIABLEDICTIONARY
350
49
  0
DICTIONARY
  5
4E6
330
2
100
AcDbDictionary
280
     1
281
     1
  3
ACAD_LAYERFILTERS
360
4E8
  3
ACLYDICTIONARY
360
4E7
  0
DICTIONARY
  5
3F8
330
17
100
AcDbDictionary
280
     1
281
     1
  3
ACAD_LAYOUTSELFREF
360
430
  3
ACAD_SORTENTS
360
4AD
  0
DICTIONARY
  5
3F6
330
14
100
AcDbDictionary
280
     1
281
     1
  3
ACAD_LAYOUTSELFREF
360
42F
  0
DICTIONARY
  5
491
102
{ACAD_REACTORS
330
C
102
}
330
C
100
AcDbDictionary
281
     1
  0
DICTIONARY
  5
D
102
{ACAD_REACTORS
330
C
102
}
330
C
100
AcDbDictionary
281
     1
  0
DICTIONARY
  5
3C9
102
{ACAD_REACTORS
330
C
102
}
330
C
100
AcDbDictionary
281
     1
  3
Layout1
350
3CC
  3
Model
350
3CB
  0
DICTIONARY
  5
490
102
{ACAD_REACTORS
330
C
102
}
330
C
100
AcDbDictionary
281
     1
  0
DICTIONARY
  5
1A
102
{ACAD_REACTORS
330
C
102
}
330
C
100
AcDbDictionary
281
     1
  3
STANDARD
350
1B
  0
DICTIONARY
  5
3CA
102
{ACAD_REACTORS
330
C
102
}
330
C
100
AcDbDictionary
281
     1
  0
ACDBDICTIONARYWDFLT
  5
3C7
102
{ACAD_REACTORS
330
C
102
}
330
C
100
AcDbDictionary
281
     1
  3
Normal
350
3C8
100
AcDbDictionaryWithDefault
340
3C8
  0
DICTIONARY
  5
492
102
{ACAD_REACTORS
330
C
102
}
330
C
100
AcDbDictionary
281
     1
  3
Standard
350
493
  0
DICTIONARY
  5
504
102
{ACAD_REACTORS
330
C
102
}
330
C
100
AcDbDictionary
281
     1
  0
DICTIONARY
  5
49
102
{ACAD_REACTORS
330
C
102
}
330
C
100
AcDbDictionary
281
     1
  3
CTABLESTYLE
350
49E
  3
DIMADEC
350
4A
  3
DIMASSOC
350
49F
  3
PROJECTNAME
350
4A0
  0
DICTIONARY
  5
4E8
102
{ACAD_REACTORS
330
4E6
102
}
330
4E6
100
AcDbDictionary
281
     1
  0
DICTIONARY
  5
4E7
102
{ACAD_REACTORS
330
4E6
102
}
330
4E6
100
AcDbDictionary
281
     1
1001
ACAD
1000
<All
  0
XRECORD
  5
430
102
{ACAD_REACTORS
330
3F8
102
}
330
3F8
100
AcDbXrecord
280
     1
340
17
  0
SORTENTSTABLE
  5
4AD
102
{ACAD_REACTORS
330
3F8
102
}
330
3F8
100
AcDbSortentsTable
330
17
331
4D1
  5
4D8
331
2A2
  5
2A9
331
2C9
  5
2D4
331
2A1
  5
2A8
331
2C8
  5
2D3
331
4D0
  5
4D7
331
2C7
  5
2D2
331
29F
  5
2A7
331
2C6
  5
2D1
331
4A6
  5
299
331
2C5
  5
2CC
331
2C4
  5
2CB
331
4CB
  5
4D2
331
2C3
  5
2CA
331
2C2
  5
2C9
331
4CA
  5
4D1
331
4C9
  5
4D0
331
29A
  5
2A6
331
2C1
  5
2C8
331
2C0
  5
2C7
331
4C8
  5
4CF
331
299
  5
2A5
331
4C7
  5
4CE
331
2BF
  5
2C6
331
4C6
  5
4CD
331
4C5
  5
4CC
331
4C4
  5
4CB
331
4C3
  5
4CA
331
2BA
  5
2C5
331
2B9
  5
2C4
331
2B8
  5
2C3
331
30D
  5
322
331
30C
  5
320
331
30B
  5
31F
331
30A
  5
318
331
309
  5
317
331
308
  5
310
331
337
  5
4BB
331
307
  5
30E
331
336
  5
4B8
331
327
  5
4B7
331
326
  5
4B6
331
325
  5
4B5
331
324
  5
4B4
331
2DD
  5
308
331
323
  5
4B3
331
2DA
  5
307
331
2D6
  5
305
331
2D5
  5
2E1
331
2D4
  5
2E0
331
2D3
  5
2DF
331
2D2
  5
2DE
331
2D1
  5
2DD
331
318
  5
326
331
317
  5
325
331
36B
  5
4C9
331
2B7
  5
2C2
331
2B6
  5
2C1
331
2B5
  5
2C0
331
4BC
  5
4A7
331
4DF
  5
4DF
331
2AF
  5
2BF
331
2AE
  5
2BA
331
339
  5
4BD
331
338
  5
4BC
331
4B5
  5
336
331
4D8
  5
4C2
331
2A9
  5
2B9
331
2A8
  5
2B8
331
2A7
  5
2B7
331
2A6
  5
2B6
331
4AE
  5
4B2
331
4D4
  5
4DB
331
2A5
  5
2B5
331
2CC
  5
2DA
331
2CB
  5
2D6
331
4D3
  5
4DA
331
2A4
  5
2AF
331
4D2
  5
4D9
331
2A3
  5
2AE
331
2CA
  5
2D5
  0
XRECORD
  5
42F
102
{ACAD_REACTORS
330
3F6
102
}
330
3F6
100
AcDbXrecord
280
     1
340
14
  0
LAYOUT
  5
3CC
102
{ACAD_XDICTIONARY
360
507
102
}
102
{ACAD_REACTORS
330
3C9
102
}
330
3C9
100
AcDbPlotSettings
  1

  2
HP LaserJet 2100 Series PS
  4

  6

 40
0.0
 41
0.0
 42
0.0
 43
0.0
 44
0.0
 45
0.0
 46
0.0
 47
0.0
 48
0.0
 49
0.0
140
0.0
141
0.0
142
1.0
143
1.0
 70
   688
 72
     0
 73
     0
 74
     5
  7

 75
    16
147
1.0
148
0.0
149
0.0
100
AcDbLayout
  1
Layout1
 70
     0
 71
     1
 10
0.0
 20
0.0
 11
12.0
 21
9.0
 12
0.0
 22
0.0
 32
0.0
 14
1.000000000000000E+20
 24
1.000000000000000E+20
 34
1.000000000000000E+20
 15
-1.000000000000000E+20
 25
-1.000000000000000E+20
 35
-1.000000000000000E+20
146
0.0
 13
0.0
 23
0.0
 33
0.0
 16
1.0
 26
0.0
 36
0.0
 17
0.0
 27
1.0
 37
0.0
 76
     0
330
14
  0
LAYOUT
  5
3CB
102
{ACAD_XDICTIONARY
360
505
102
}
102
{ACAD_REACTORS
330
3C9
102
}
330
3C9
100
AcDbPlotSettings
  1

  2
HP LaserJet 2100 Series PS
  4
Letter
  6

 40
5.365749835968017
 41
5.408084392547607
 42
5.4080810546875
 43
5.365753173828125
 44
215.8999938964844
 45
279.3999938964844
 46
0.0
 47
0.0
 48
0.0
 49
0.0
140
0.0
141
0.0
142
1.0
143
1.0
 70
 11952
 72
     0
 73
     1
 74
     0
  7

 75
     0
147
1.0
148
-263.2195811662431
149
30.97946559319756
100
AcDbLayout
  1
Model
 70
     1
 71
     0
 10
0.0
 20
0.0
 11
12.0
 21
9.0
 12
0.0
 22
0.0
 32
0.0
 14
0.0
 24
0.0
 34
0.0
 15
0.0
 25
0.0
 35
0.0
146
0.0
 13
0.0
 23
0.0
 33
0.0
 16
1.0
 26
0.0
 36
0.0
 17
0.0
 27
1.0
 37
0.0
 76
     0
330
17
  0
MLINESTYLE
  5
1B
102
{ACAD_REACTORS
330
1A
102
}
330
1A
100
AcDbMlineStyle
  2
STANDARD
 70
     0
  3

 62
   256
 51
90.0
 52
90.0
 71
     2
 49
0.5
 62
   256
  6
BYLAYER
 49
-0.5
 62
   256
  6
BYLAYER
  0
ACDBPLACEHOLDER
  5
3C8
102
{ACAD_REACTORS
330
3C7
102
}
330
3C7
  0
TABLESTYLE
  5
493
102
{ACAD_REACTORS
330
492
102
}
330
492
100
AcDbTableStyle
  3
Standard
 70
     0
 71
     0
 40
0.06
 41
0.06
280
     0
281
     0
  7
STANDARD
140
0.18
170
     2
 62
     0
 63
     7
283
     0
274
    -2
284
     1
 64
     0
275
    -2
285
     1
 65
     0
276
    -2
286
     1
 66
     0
277
    -2
287
     1
 67
     0
278
    -2
288
     1
 68
     0
279
    -2
289
     1
 69
     0
  7
STANDARD
140
0.25
170
     5
 62
     0
 63
     7
283
     0
274
    -2
284
     1
 64
     0
275
    -2
285
     1
 65
     0
276
    -2
286
     1
 66
     0
277
    -2
287
     1
 67
     0
278
    -2
288
     1
 68
     0
279
    -2
289
     1
 69
     0
  7
STANDARD
140
0.18
170
     5
 62
     0
 63
     7
283
     0
274
    -2
284
     1
 64
     0
275
    -2
285
     1
 65
     0
276
    -2
286
     1
 66
     0
277
    -2
287
     1
 67
     0
278
    -2
288
     1
 68
     0
279
    -2
289
     1
 69
     0
  0
DICTIONARYVAR
  5
49E
102
{ACAD_REACTORS
330
49
102
}
330
49
100
DictionaryVariables
280
     0
  1
STANDARD
  0
DICTIONARYVAR
  5
4A
102
{ACAD_REACTORS
330
49
102
}
330
49
100
DictionaryVariables
280
     0
  1
0
  0
DICTIONARYVAR
  5
49F
102
{ACAD_REACTORS
330
49
102
}
330
49
100
DictionaryVariables
280
     0
  1
0
  0
DICTIONARYVAR
  5
4A0
102
{ACAD_REACTORS
330
49
102
}
330
49
100
DictionaryVariables
280
     0
  1

  0
DICTIONARY
  5
507
330
3CC
100
AcDbDictionary
280
     1
281
     1
  3
ACAD_XREC_ROUNDTRIP
360
508
  0
DICTIONARY
  5
505
330
3CB
100
AcDbDictionary
280
     1
281
     1
  3
ACAD_XREC_ROUNDTRIP
360
506
  0
XRECORD
  5
508
102
{ACAD_REACTORS
330
507
102
}
330
507
100
AcDbXrecord
280
     1
102
SHADEPLOT
 70
     0
102
SHADEPLOTRESLEVEL
 70
     2
102
SHADEPLOTCUSTOMDPI
 70
   300
  0
XRECORD
  5
506
102
{ACAD_REACTORS
330
505
102
}
330
505
100
AcDbXrecord
280
     1
102
SHADEPLOT
 70
     0
102
SHADEPLOTRESLEVEL
 70
     2
102
SHADEPLOTCUSTOMDPI
 70
   300
  0
ENDSEC
  0
EOF
