  0
SECTION
  2
HEADER
  9
$ACADVER
  1
AC1015
  9
$ACADMAINTVER
 70
     6
  9
$DWGCODEPAGE
  3
ANSI_1252
  9
$INSBASE
 10
0.0
 20
0.0
 30
0.0
  9
$EXTMIN
 10
-7.870383427608772
 20
-0.043219422964313
 30
-0.0000000000000058
  9
$EXTMAX
 10
7.87164254693775
 20
16.20130677454835
 30
0.0000000000000104
  9
$LIMMIN
 10
0.0
 20
0.0
  9
$LIMMAX
 10
31.5
 20
24.0
  9
$ORTHOMODE
 70
     1
  9
$REGENMODE
 70
     1
  9
$FILLMODE
 70
     1
  9
$QTEXTMODE
 70
     0
  9
$MIRRTEXT
 70
     0
  9
$LTSCALE
 40
1.0
  9
$ATTMODE
 70
     1
  9
$TEXTSIZE
 40
0.22
  9
$TRACEWID
 40
0.05
  9
$TEXTSTYLE
  7
STANDARD
  9
$CLAYER
  8
0
  9
$CELTYPE
  6
BYLAYER
  9
$CECOLOR
 62
   256
  9
$CELTSCALE
 40
1.0
  9
$DISPSILH
 70
     0
  9
$DIMSCALE
 40
1.0
  9
$DIMASZ
 40
0.375
  9
$DIMEXO
 40
0.0625
  9
$DIMDLI
 40
0.75
  9
$DIMRND
 40
0.0
  9
$DIMDLE
 40
0.0
  9
$DIMEXE
 40
0.18
  9
$DIMTP
 40
0.0
  9
$DIMTM
 40
0.0
  9
$DIMTXT
 40
0.27
  9
$DIMCEN
 40
-0.06
  9
$DIMTSZ
 40
0.0
  9
$DIMTOL
 70
     0
  9
$DIMLIM
 70
     0
  9
$DIMTIH
 70
     1
  9
$DIMTOH
 70
     1
  9
$DIMSE1
 70
     0
  9
$DIMSE2
 70
     0
  9
$DIMTAD
 70
     0
  9
$DIMZIN
 70
     0
  9
$DIMBLK
  1

  9
$DIMASO
 70
     0
  9
$DIMSHO
 70
     0
  9
$DIMPOST
  1

  9
$DIMAPOST
  1

  9
$DIMALT
 70
     0
  9
$DIMALTD
 70
     2
  9
$DIMALTF
 40
25.4
  9
$DIMLFAC
 40
1.0
  9
$DIMTOFL
 70
     0
  9
$DIMTVP
 40
0.0
  9
$DIMTIX
 70
     0
  9
$DIMSOXD
 70
     0
  9
$DIMSAH
 70
     0
  9
$DIMBLK1
  1

  9
$DIMBLK2
  1

  9
$DIMSTYLE
  2
STANDARD
  9
$DIMCLRD
 70
     0
  9
$DIMCLRE
 70
     0
  9
$DIMCLRT
 70
     0
  9
$DIMTFAC
 40
1.0
  9
$DIMGAP
 40
0.09
  9
$DIMJUST
 70
     0
  9
$DIMSD1
 70
     0
  9
$DIMSD2
 70
     0
  9
$DIMTOLJ
 70
     1
  9
$DIMTZIN
 70
     0
  9
$DIMALTZ
 70
     0
  9
$DIMALTTZ
 70
     0
  9
$DIMUPT
 70
     0
  9
$DIMDEC
 70
     4
  9
$DIMTDEC
 70
     4
  9
$DIMALTU
 70
     2
  9
$DIMALTTD
 70
     2
  9
$DIMTXSTY
  7
STANDARD
  9
$DIMAUNIT
 70
     0
  9
$DIMADEC
 70
     0
  9
$DIMALTRND
 40
0.0
  9
$DIMAZIN
 70
     0
  9
$DIMDSEP
 70
    46
  9
$DIMATFIT
 70
     3
  9
$DIMFRAC
 70
     0
  9
$DIMLDRBLK
  1

  9
$DIMLUNIT
 70
     2
  9
$DIMLWD
 70
    -2
  9
$DIMLWE
 70
    -2
  9
$DIMTMOVE
 70
     2
  9
$LUNITS
 70
     2
  9
$LUPREC
 70
     4
  9
$SKETCHINC
 40
0.1
  9
$FILLETRAD
 40
0.0
  9
$AUNITS
 70
     0
  9
$AUPREC
 70
     0
  9
$MENU
  1
ACAD
  9
$ELEVATION
 40
0.0
  9
$PELEVATION
 40
0.0
  9
$THICKNESS
 40
0.0
  9
$LIMCHECK
 70
     0
  9
$CHAMFERA
 40
0.0
  9
$CHAMFERB
 40
0.0
  9
$CHAMFERC
 40
0.0
  9
$CHAMFERD
 40
0.0
  9
$SKPOLY
 70
     0
  9
$TDCREATE
 40
2447099.210990741
  9
$TDUCREATE
 40
2447099.544324074
  9
$TDUPDATE
 40
2454167.954204352
  9
$TDUUPDATE
 40
2454168.287537685
  9
$TDINDWG
 40
0.1845066551
  9
$TDUSRTIMER
 40
0.1845066551
  9
$USRTIMER
 70
     1
  9
$ANGBASE
 50
0.0
  9
$ANGDIR
 70
     0
  9
$PDMODE
 70
     0
  9
$PDSIZE
 40
0.0
  9
$PLINEWID
 40
0.0
  9
$SPLFRAME
 70
     0
  9
$SPLINETYPE
 70
     6
  9
$SPLINESEGS
 70
     8
  9
$HANDSEED
  5
1AC
  9
$SURFTAB1
 70
     6
  9
$SURFTAB2
 70
     6
  9
$SURFTYPE
 70
     6
  9
$SURFU
 70
     6
  9
$SURFV
 70
     6
  9
$UCSBASE
  2

  9
$UCSNAME
  2

  9
$UCSORG
 10
0.0
 20
0.0
 30
0.0
  9
$UCSXDIR
 10
1.0
 20
0.0
 30
0.0
  9
$UCSYDIR
 10
0.0
 20
1.0
 30
0.0
  9
$UCSORTHOREF
  2

  9
$UCSORTHOVIEW
 70
     0
  9
$UCSORGTOP
 10
0.0
 20
0.0
 30
0.0
  9
$UCSORGBOTTOM
 10
0.0
 20
0.0
 30
0.0
  9
$UCSORGLEFT
 10
0.0
 20
0.0
 30
0.0
  9
$UCSORGRIGHT
 10
0.0
 20
0.0
 30
0.0
  9
$UCSORGFRONT
 10
0.0
 20
0.0
 30
0.0
  9
$UCSORGBACK
 10
0.0
 20
0.0
 30
0.0
  9
$PUCSBASE
  2

  9
$PUCSNAME
  2

  9
$PUCSORG
 10
0.0
 20
0.0
 30
0.0
  9
$PUCSXDIR
 10
1.0
 20
0.0
 30
0.0
  9
$PUCSYDIR
 10
0.0
 20
1.0
 30
0.0
  9
$PUCSORTHOREF
  2

  9
$PUCSORTHOVIEW
 70
     0
  9
$PUCSORGTOP
 10
0.0
 20
0.0
 30
0.0
  9
$PUCSORGBOTTOM
 10
0.0
 20
0.0
 30
0.0
  9
$PUCSORGLEFT
 10
0.0
 20
0.0
 30
0.0
  9
$PUCSORGRIGHT
 10
0.0
 20
0.0
 30
0.0
  9
$PUCSORGFRONT
 10
0.0
 20
0.0
 30
0.0
  9
$PUCSORGBACK
 10
0.0
 20
0.0
 30
0.0
  9
$USERI1
 70
     0
  9
$USERI2
 70
     0
  9
$USERI3
 70
     0
  9
$USERI4
 70
     0
  9
$USERI5
 70
     0
  9
$USERR1
 40
0.0
  9
$USERR2
 40
0.0
  9
$USERR3
 40
0.0
  9
$USERR4
 40
0.0
  9
$USERR5
 40
0.0
  9
$WORLDVIEW
 70
     1
  9
$SHADEDGE
 70
     3
  9
$SHADEDIF
 70
    70
  9
$TILEMODE
 70
     1
  9
$MAXACTVP
 70
    16
  9
$PINSBASE
 10
0.0
 20
0.0
 30
0.0
  9
$PLIMCHECK
 70
     0
  9
$PEXTMIN
 10
1.000000000000000E+20
 20
1.000000000000000E+20
 30
1.000000000000000E+20
  9
$PEXTMAX
 10
-1.000000000000000E+20
 20
-1.000000000000000E+20
 30
-1.000000000000000E+20
  9
$PLIMMIN
 10
0.0
 20
0.0
  9
$PLIMMAX
 10
12.0
 20
9.0
  9
$UNITMODE
 70
     0
  9
$VISRETAIN
 70
     0
  9
$PLINEGEN
 70
     0
  9
$PSLTSCALE
 70
     0
  9
$TREEDEPTH
 70
  3020
  9
$CMLSTYLE
  2
STANDARD
  9
$CMLJUST
 70
     0
  9
$CMLSCALE
 40
1.0
  9
$PROXYGRAPHICS
 70
     1
  9
$MEASUREMENT
 70
     0
  9
$CELWEIGHT
370
    -1
  9
$ENDCAPS
280
     0
  9
$JOINSTYLE
280
     0
  9
$LWDISPLAY
290
     0
  9
$INSUNITS
 70
     0
  9
$HYPERLINKBASE
  1

  9
$STYLESHEET
  1

  9
$XEDIT
290
     1
  9
$CEPSNTYPE
380
     0
  9
$PSTYLEMODE
290
     1
  9
$FINGERPRINTGUID
  2
{9DB7D22C-5282-4465-9A90-B0A00FA2ED7D}
  9
$VERSIONGUID
  2
{E5EA0876-69CC-4FA8-9159-11943E3E0E4B}
  9
$EXTNAMES
290
     1
  9
$PSVPSCALE
 40
0.0
  9
$OLESTARTUP
290
     0
  0
ENDSEC
  0
SECTION
  2
CLASSES
  0
CLASS
  1
DICTIONARYVAR
  2
AcDbDictionaryVar
  3
AutoCAD 2000
 90
        0
280
     0
281
     0
  0
CLASS
  1
LWPOLYLINE
  2
AcDbPolyline
  3
AutoCAD 2000
 90
        0
280
     0
281
     1
  0
CLASS
  1
ACDBDICTIONARYWDFLT
  2
AcDbDictionaryWithDefault
  3
AutoCAD 2000
 90
        0
280
     0
281
     0
  0
CLASS
  1
ACDBPLACEHOLDER
  2
AcDbPlaceHolder
  3
ObjectDBX Classes
 90
        0
280
     0
281
     0
  0
CLASS
  1
LAYOUT
  2
AcDbLayout
  3
ObjectDBX Classes
 90
        0
280
     0
281
     0
  0
CLASS
  1
LONG_TRANSACTION
  2
AcDbLongTransaction
  3
ObjectDBX Classes
 90
   -65536
280
     1
281
     0
  0
CLASS
  1
LWPOLYLINE
  2
AcDbPolyline
  3
AutoCAD 2000
 90
        0
280
     0
281
     1
  0
CLASS
  1
HATCH
  2
AcDbHatch
  3
AutoCAD 2000
 90
        0
280
     0
281
     1
  0
CLASS
  1
XRECORD
  2
AcDbXrecord
  3
AutoCAD 2000
 90
        0
280
     0
281
     0
  0
CLASS
  1
LONG_TRANSACTION
  2
AcDbLongTransaction
  3
ObjectDBX Classes
 90
   -65536
280
     1
281
     0
  0
CLASS
  1
LWPOLYLINE
  2
AcDbPolyline
  3
AutoCAD 2000
 90
        0
280
     0
281
     1
  0
CLASS
  1
HATCH
  2
AcDbHatch
  3
AutoCAD 2000
 90
        0
280
     0
281
     1
  0
CLASS
  1
XRECORD
  2
AcDbXrecord
  3
AutoCAD 2000
 90
        0
280
     0
281
     0
  0
CLASS
  1
TABLESTYLE
  2
AcDbTableStyle
  3
ObjectDBX Classes
 90
     2047
280
     1
281
     0
  0
ENDSEC
  0
SECTION
  2
TABLES
  0
TABLE
  2
VPORT
  5
1D
330
0
100
AcDbSymbolTable
 70
     3
  0
VPORT
  5
19C
330
1D
100
AcDbSymbolTableRecord
100
AcDbViewportTableRecord
  2
*Active
 70
     0
 10
0.0
 20
0.0
 11
1.0
 21
1.0
 12
11.81480828619561
 22
11.97839028851785
 13
0.0
 23
0.0
 14
0.0625
 24
0.0625
 15
0.5
 25
0.5
 16
0.0
 26
0.0
 36
1.0
 17
0.0
 27
0.0
 37
0.0
 40
24.34313484196179
 41
1.814583333333333
 42
50.0
 43
0.0
 44
0.0
 50
0.0
 51
0.0
 71
     0
 72
   100
 73
     1
 74
     0
 75
     0
 76
     0
 77
     0
 78
     0
281
     0
 65
     1
110
0.0
120
0.0
130
0.0
111
1.0
121
0.0
131
0.0
112
0.0
122
1.0
132
0.0
 79
     0
146
0.0
  0
ENDTAB
  0
TABLE
  2
LTYPE
  5
18
330
0
100
AcDbSymbolTable
 70
     2
  0
LTYPE
  5
19
330
18
100
AcDbSymbolTableRecord
100
AcDbLinetypeTableRecord
  2
BYBLOCK
 70
     0
  3

 72
    65
 73
     0
 40
0.0
  0
LTYPE
  5
1A
330
18
100
AcDbSymbolTableRecord
100
AcDbLinetypeTableRecord
  2
BYLAYER
 70
     0
  3

 72
    65
 73
     0
 40
0.0
  0
LTYPE
  5
A
330
18
100
AcDbSymbolTableRecord
100
AcDbLinetypeTableRecord
  2
CONTINUOUS
 70
     0
  3
Solid line
 72
    65
 73
     0
 40
0.0
  0
LTYPE
  5
193
330
18
100
AcDbSymbolTableRecord
100
AcDbLinetypeTableRecord
  2
HIDDEN
 70
     0
  3
Hidden __ __ __ __ __ __ __ __ __ __ __ __ __ _
 72
    65
 73
     2
 40
0.375
 49
0.25
 74
     0
 49
-0.125
 74
     0
  0
ENDTAB
  0
TABLE
  2
LAYER
  5
14
330
0
100
AcDbSymbolTable
 70
     1
  0
LAYER
  5
6
330
14
100
AcDbSymbolTableRecord
100
AcDbLayerTableRecord
  2
0
 70
     0
 62
     7
  6
CONTINUOUS
370
    -3
390
7
  0
ENDTAB
  0
TABLE
  2
STYLE
  5
15
330
0
100
AcDbSymbolTable
 70
     2
  0
STYLE
  5
16
330
15
100
AcDbSymbolTableRecord
100
AcDbTextStyleTableRecord
  2
STANDARD
 70
     0
 40
0.0
 41
1.0
 50
0.0
 71
     0
 42
0.22
  3
TXT
  4

  0
STYLE
  5
192
330
15
100
AcDbSymbolTableRecord
100
AcDbTextStyleTableRecord
  2

 70
     1
 40
0.0
 41
1.0
 50
0.0
 71
     0
 42
0.22
  3
ltypeshp.shx
  4

  0
ENDTAB
  0
TABLE
  2
VIEW
  5
1B
330
0
100
AcDbSymbolTable
 70
     0
  0
ENDTAB
  0
TABLE
  2
UCS
  5
1C
330
0
100
AcDbSymbolTable
 70
     0
  0
ENDTAB
  0
TABLE
  2
APPID
  5
1F
330
0
100
AcDbSymbolTable
 70
     1
  0
APPID
  5
20
330
1F
100
AcDbSymbolTableRecord
100
AcDbRegAppTableRecord
  2
ACAD
 70
     0
  0
ENDTAB
  0
TABLE
  2
DIMSTYLE
  5
21
330
0
100
AcDbSymbolTable
 70
     1
100
AcDbDimStyleTable
  0
DIMSTYLE
105
28
330
21
100
AcDbSymbolTableRecord
100
AcDbDimStyleTableRecord
  2
STANDARD
 70
     0
  3

  4

340
16
  0
ENDTAB
  0
TABLE
  2
BLOCK_RECORD
  5
1
330
0
100
AcDbSymbolTable
 70
     0
  0
BLOCK_RECORD
  5
2
330
1
100
AcDbSymbolTableRecord
100
AcDbBlockTableRecord
  2
*MODEL_SPACE
340
C
  0
BLOCK_RECORD
  5
E
330
1
100
AcDbSymbolTableRecord
100
AcDbBlockTableRecord
  2
*PAPER_SPACE
340
13
  0
ENDTAB
  0
ENDSEC
  0
SECTION
  2
BLOCKS
  0
BLOCK
  5
5
330
2
100
AcDbEntity
  8
0
100
AcDbBlockBegin
  2
*MODEL_SPACE
 70
     0
 10
0.0
 20
0.0
 30
0.0
  3
*MODEL_SPACE
  1

  4

  0
ENDBLK
  5
B
330
2
100
AcDbEntity
  8
0
100
AcDbBlockEnd
  0
BLOCK
  5
11
330
E
100
AcDbEntity
 67
     1
  8
0
100
AcDbBlockBegin
  2
*PAPER_SPACE
 70
     0
 10
0.0
 20
0.0
 30
0.0
  3
*PAPER_SPACE
  1

  4

  0
ENDBLK
  5
12
330
E
100
AcDbEntity
 67
     1
  8
0
100
AcDbBlockEnd
  0
ENDSEC
  0
SECTION
  2
ENTITIES
  0
LINE
  5
DC
330
2
100
AcDbEntity
  8
0
100
AcDbLine
 10
3.017732912049201
 20
10.39139583085731
 30
0.0
 11
3.017740428729201
 21
1.694653527535557
 31
0.0
  0
CIRCLE
  5
DD
330
2
100
AcDbEntity
  8
0
100
AcDbCircle
 10
2.6972395409563
 20
5.474543942501377
 30
0.0
 40
0.109
  0
LINE
  5
DE
330
2
100
AcDbEntity
  8
0
100
AcDbLine
 10
-1.801030000000001
 20
10.39202120564799
 30
0.0
 11
-1.801030000000001
 21
1.129399999999999
 31
0.0
  0
LINE
  5
DF
330
2
100
AcDbEntity
  8
0
100
AcDbLine
 10
-1.879639999999998
 20
10.39203140758429
 30
0.0
 11
-1.879639999999998
 21
1.129399999999999
 31
0.0
  0
LINE
  5
E0
330
2
100
AcDbEntity
  8
0
100
AcDbLine
 10
1.879639999999998
 20
9.01422
 30
0.0
 11
1.879639999999998
 21
5.13922
 31
0.0
  0
LINE
  5
E1
330
2
100
AcDbEntity
  8
0
100
AcDbLine
 10
1.800709999999999
 20
5.13922
 30
0.0
 11
1.800709999999999
 21
10.39155377501493
 31
0.0
  0
CIRCLE
  5
E2
330
2
100
AcDbEntity
  8
0
100
AcDbCircle
 10
-2.713949184973043
 20
5.474543942501377
 30
0.0
 40
0.109
  0
LINE
  5
E3
330
2
100
AcDbEntity
  8
0
100
AcDbLine
 10
-3.034442555387077
 20
10.39218127683902
 30
0.0
 11
-3.034450072745944
 21
1.694653527535557
 31
0.0
  0
LINE
  5
E4
330
2
100
AcDbEntity
  8
0
100
AcDbLine
 10
1.879639999999998
 20
0.2167999999999974
 30
0.0
 11
3.017740428729208
 21
1.694653527535559
 31
0.0
  0
LINE
  5
E5
330
2
100
AcDbEntity
  8
0
100
AcDbLine
 10
1.800709999999999
 20
0.1821800000000007
 30
0.0
 11
1.800709999999999
 21
5.145110000000001
 31
0.0
  0
LINE
  5
E6
330
2
100
AcDbEntity
  8
0
100
AcDbLine
 10
1.879639999999998
 20
5.145110000000001
 30
0.0
 11
1.879639999999998
 21
0.1857699999999998
 31
0.0
  0
LINE
  5
E7
330
2
100
AcDbEntity
  8
0
100
AcDbLine
 10
-1.896349644016741
 20
0.2167999999999974
 30
0.0
 11
-3.034450072745951
 21
1.694653527535559
 31
0.0
  0
LINE
  5
E8
330
2
100
AcDbEntity
  8
0
100
AcDbLine
 10
-1.099030000000003
 20
0.0793699999999991
 30
0.0
 11
-1.682579999999998
 21
0.0793699999999991
 31
0.0
  0
LINE
  5
E9
330
2
100
AcDbEntity
  8
0
100
AcDbLine
 10
-1.682579999999998
 20
0.0793699999999991
 30
0.0
 11
1.67569
 21
0.0790699999999998
 31
0.0
  0
LINE
  5
EA
330
2
100
AcDbEntity
  8
0
100
AcDbLine
 10
-1.679640000000003
 20
0.0000000000000009
 30
0.0
 11
1.679640000000003
 21
-0.0000000000000018
 31
0.0
  0
LINE
  5
EB
330
2
100
AcDbEntity
  8
0
100
AcDbLine
 10
-1.879639999999998
 20
1.13922
 30
0.0
 11
-1.879639999999998
 21
0.1971900000000009
 31
0.0
  0
LINE
  5
EC
330
2
100
AcDbEntity
  8
0
100
AcDbLine
 10
-1.801030000000001
 20
1.13922
 30
0.0
 11
-1.801030000000001
 21
0.2015099999999972
 31
0.0
  0
ARC
  5
ED
330
2
100
AcDbEntity
  8
0
100
AcDbCircle
 10
-1.679640000000003
 20
0.2000000000000011
 30
0.0
 40
0.2
100
AcDbArc
 50
180.0
 51
270.0
  0
ARC
  5
EE
330
2
100
AcDbEntity
  8
0
100
AcDbCircle
 10
-1.676030000000001
 20
0.2043699999999991
 30
0.0
 40
0.125
100
AcDbArc
 50
180.0
 51
269.9927
  0
CIRCLE
  5
EF
330
2
100
AcDbEntity
  8
0
100
AcDbCircle
 10
-2.271939644016744
 20
1.41974628639443
 30
0.0
 40
0.109
  0
LINE
  5
F0
330
2
100
AcDbEntity
  8
0
100
AcDbLine
 10
-0.6722634822369109
 20
0.0791099999999982
 30
0.0
 11
-0.67226348223691
 21
-0.0007699999999984
 31
0.0
  0
LINE
  5
F1
330
2
100
AcDbEntity
  8
0
100
AcDbLine
 10
-0.9222634822369118
 20
0.0791099999999982
 30
0.0
 11
-0.9222634822369118
 21
-0.0007699999999984
 31
0.0
  0
LINE
  5
F2
330
2
100
AcDbEntity
  8
0
100
AcDbLine
 10
0.6402365177630882
 20
0.0792043802375266
 30
0.0
 11
0.6402365177630891
 21
-0.0000000000000018
 31
0.0
  0
LINE
  5
F3
330
2
100
AcDbEntity
  8
0
100
AcDbLine
 10
0.8902365177630882
 20
0.0791719354585414
 30
0.0
 11
0.8902365177630891
 21
-0.0000000000000018
 31
0.0
  0
ARC
  5
F4
330
2
100
AcDbEntity
  8
0
100
AcDbCircle
 10
1.679640000000003
 20
0.2000000000000011
 30
0.0
 40
0.2
100
AcDbArc
 50
270.0
 51
0.0
  0
ARC
  5
F5
330
2
100
AcDbEntity
  8
0
100
AcDbCircle
 10
1.675709999999999
 20
0.2040699999999998
 30
0.0
 40
0.125
100
AcDbArc
 50
269.9927
 51
0.0
  0
ARC
  5
F7
330
2
100
AcDbEntity
  8
0
100
AcDbCircle
 10
-1.890167453265583
 20
2.581532306030484
 30
0.0
 40
0.156
100
AcDbArc
 50
90.0
 51
270.0
  0
CIRCLE
  5
F9
330
2
100
AcDbEntity
  8
0
100
AcDbCircle
 10
-2.713949184973043
 20
1.846385180369886
 30
0.0
 40
0.109
  0
CIRCLE
  5
FA
330
2
100
AcDbEntity
  8
0
100
AcDbCircle
 10
-2.335189644016747
 20
2.970254468046139
 30
0.0
 40
0.109
  0
CIRCLE
  5
FB
330
2
100
AcDbEntity
  8
0
100
AcDbCircle
 10
-2.713949184973043
 20
3.897257273393157
 30
0.0
 40
0.109
  0
ARC
  5
FC
330
2
100
AcDbEntity
  8
0
100
AcDbCircle
 10
1.877881889049696
 20
2.581532306030484
 30
0.0
 40
0.156
100
AcDbArc
 50
269.9999999999994
 51
90.00000000000063
  0
CIRCLE
  5
FD
330
2
100
AcDbEntity
  8
0
100
AcDbCircle
 10
2.255230000000001
 20
1.41974628639443
 30
0.0
 40
0.109
  0
CIRCLE
  5
FF
330
2
100
AcDbEntity
  8
0
100
AcDbCircle
 10
2.6972395409563
 20
1.846385180369886
 30
0.0
 40
0.109
  0
CIRCLE
  5
101
330
2
100
AcDbEntity
  8
0
100
AcDbCircle
 10
2.318480000000005
 20
2.970254468046139
 30
0.0
 40
0.109
  0
CIRCLE
  5
102
330
2
100
AcDbEntity
  8
0
100
AcDbCircle
 10
2.6972395409563
 20
3.897257273393157
 30
0.0
 40
0.109
  0
LINE
  5
103
330
2
100
AcDbEntity
  8
0
100
AcDbLine
 10
1.800709999999992
 20
10.39155377501492
 30
0.0
 11
3.017732912049201
 21
10.39139583085731
 31
0.0
  0
LINE
  5
104
330
2
100
AcDbEntity
  8
0
100
AcDbLine
 10
1.879639999999998
 20
10.3915435315493
 30
0.0
 11
1.879639999999998
 21
9.001720000000001
 31
0.0
  0
CIRCLE
  5
105
330
2
100
AcDbEntity
  8
0
100
AcDbCircle
 10
-2.713949184973043
 20
7.283438833546976
 30
0.0
 40
0.109
  0
CIRCLE
  5
106
330
2
100
AcDbEntity
  8
0
100
AcDbCircle
 10
-2.334599644016745
 20
6.696925650979672
 30
0.0
 40
0.109
  0
CIRCLE
  5
108
330
2
100
AcDbEntity
  8
0
100
AcDbCircle
 10
-2.713949184973043
 20
9.263570677531581
 30
0.0
 40
0.109
  0
LINE
  5
109
330
2
100
AcDbEntity
  8
0
100
AcDbLine
 10
-3.034442555387077
 20
10.39218127683902
 30
0.0
 11
-1.801030000000001
 21
10.39202120564799
 31
0.0
  0
CIRCLE
  5
10A
330
2
100
AcDbEntity
  8
0
100
AcDbCircle
 10
2.6972395409563
 20
7.283438833546976
 30
0.0
 40
0.109
  0
CIRCLE
  5
10B
330
2
100
AcDbEntity
  8
0
100
AcDbCircle
 10
2.317890000000002
 20
6.696925650979672
 30
0.0
 40
0.109
  0
CIRCLE
  5
10D
330
2
100
AcDbEntity
  8
0
100
AcDbCircle
 10
2.6972395409563
 20
9.263570677531581
 30
0.0
 40
0.109
  0
LINE
  5
10E
330
2
100
AcDbEntity
  8
0
100
AcDbLine
 10
3.032282809404745
 20
16.16251053098098
 30
0.0
 11
1.945964809404739
 21
16.16251053098098
 31
0.0
  0
LINE
  5
10F
330
2
100
AcDbEntity
  8
0
100
AcDbLine
 10
1.969727809404741
 20
16.08354453098098
 30
0.0
 11
3.032282809404745
 21
16.08354453098098
 31
0.0
  0
LINE
  5
110
330
2
100
AcDbEntity
  8
0
100
AcDbLine
 10
-0.9219905849871033
 20
15.89549353098296
 30
0.0
 11
-1.797112190595261
 21
15.89549353098098
 31
0.0
  0
LINE
  5
111
330
2
100
AcDbEntity
  8
0
100
AcDbLine
 10
-1.87587619059526
 20
13.58299353098098
 30
0.0
 11
-0.9222634822369109
 21
13.58299353098099
 31
0.0
  0
LINE
  5
112
330
2
100
AcDbEntity
  8
0
100
AcDbLine
 10
-1.797112190595261
 20
15.89549353098098
 30
0.0
 11
-1.797112190595261
 21
13.58299353098098
 31
0.0
  0
LINE
  5
113
330
2
100
AcDbEntity
  8
0
100
AcDbLine
 10
-1.87587619059526
 20
15.89549353098098
 30
0.0
 11
-1.87587619059526
 21
13.58299353098098
 31
0.0
  0
LINE
  5
114
330
2
100
AcDbEntity
  8
0
100
AcDbLine
 10
-1.875876190595261
 20
14.70854453098098
 30
0.0
 11
-1.797112190595261
 21
14.70854453098098
 31
0.0
  0
LINE
  5
115
330
2
100
AcDbEntity
  8
0
100
AcDbLine
 10
-2.00087619059526
 20
16.08354453098098
 30
0.0
 11
-3.063431190595257
 21
16.08354453098098
 31
0.0
  0
LINE
  5
116
330
2
100
AcDbEntity
  8
0
100
AcDbLine
 10
-3.063431190595257
 20
16.16251053098098
 30
0.0
 11
-1.97711219059526
 21
16.16251053098098
 31
0.0
  0
LINE
  5
117
330
2
100
AcDbEntity
  8
0
100
AcDbLine
 10
-3.063431190595257
 20
16.08354453098098
 30
0.0
 11
-3.063431190595257
 21
16.16251053098098
 31
0.0
  0
ARC
  5
118
330
2
100
AcDbEntity
  8
0
100
AcDbCircle
 10
-1.97711219059526
 20
15.98251053098098
 30
0.0
 40
0.18
100
AcDbArc
 50
0.0
 51
90.00000000000003
  0
LINE
  5
119
330
2
100
AcDbEntity
  8
0
100
AcDbLine
 10
-1.797112190595261
 20
15.89549353098098
 30
0.0
 11
-1.359612190595261
 21
15.89549353098098
 31
0.0
  0
LINE
  5
11A
330
2
100
AcDbEntity
  8
0
100
AcDbLine
 10
-1.87587619059526
 20
15.89549353098098
 30
0.0
 11
-1.87587619059526
 21
15.95854453098098
 31
0.0
  0
LINE
  5
11B
330
2
100
AcDbEntity
  8
0
100
AcDbLine
 10
-1.797112190595261
 20
15.98251053098098
 30
0.0
 11
-1.797112190595261
 21
15.89549353098098
 31
0.0
  0
ARC
  5
11C
330
2
100
AcDbEntity
  8
0
100
AcDbCircle
 10
-2.00087619059526
 20
15.95854453098098
 30
0.0
 40
0.125
100
AcDbArc
 50
0.0
 51
90.00000000000003
  0
LINE
  5
11D
330
2
100
AcDbEntity
  8
0
100
AcDbLine
 10
1.765964809404739
 20
15.89549353098098
 30
0.0
 11
1.765964809404739
 21
13.58299353098098
 31
0.0
  0
LINE
  5
11E
330
2
100
AcDbEntity
  8
0
100
AcDbLine
 10
1.844727809404741
 20
13.58299353098098
 30
0.0
 11
1.844727809404741
 21
15.89549353098098
 31
0.0
  0
LINE
  5
11F
330
2
100
AcDbEntity
  8
0
100
AcDbLine
 10
-0.6722634822369109
 20
13.58299353098099
 30
0.0
 11
0.6402365177630891
 21
13.58299353098099
 31
0.0
  0
ARC
  5
120
330
2
100
AcDbEntity
  8
0
100
AcDbCircle
 10
-0.8597634822369109
 20
13.61424353098098
 30
0.0
 40
0.0625
100
AcDbArc
 50
90.0
 51
179.9999999999994
  0
ARC
  5
121
330
2
100
AcDbEntity
  8
0
100
AcDbCircle
 10
-0.7347634822369109
 20
13.61424353098098
 30
0.0
 40
0.0625
100
AcDbArc
 50
359.9999999999989
 51
90.0
  0
LINE
  5
122
330
2
100
AcDbEntity
  8
0
100
AcDbLine
 10
-0.8597634822369109
 20
13.67674353098098
 30
0.0
 11
-0.7347634822369109
 21
13.67674353098098
 31
0.0
  0
LINE
  5
123
330
2
100
AcDbEntity
  8
0
100
AcDbLine
 10
-0.6722634822369109
 20
13.61424353098098
 30
0.0
 11
-0.6722634822369109
 21
13.58299353098098
 31
0.0
  0
LINE
  5
124
330
2
100
AcDbEntity
  8
0
100
AcDbLine
 10
-0.9222634822369109
 20
13.61424353098098
 30
0.0
 11
-0.9222634822369109
 21
13.58299353098098
 31
0.0
  0
LINE
  5
125
330
2
100
AcDbEntity
  8
0
100
AcDbLine
 10
0.8902365177630891
 20
13.58299353098099
 30
0.0
 11
1.843849226121435
 21
13.58299353098099
 31
0.0
  0
LINE
  5
126
330
2
100
AcDbEntity
  8
0
100
AcDbLine
 10
0.7027365177630891
 20
13.67674353098098
 30
0.0
 11
0.8277365177630891
 21
13.67674353098098
 31
0.0
  0
ARC
  5
127
330
2
100
AcDbEntity
  8
0
100
AcDbCircle
 10
0.7027365177630891
 20
13.61424353098098
 30
0.0
 40
0.0625
100
AcDbArc
 50
90.0
 51
179.9999999999989
  0
LINE
  5
128
330
2
100
AcDbEntity
  8
0
100
AcDbLine
 10
0.6402365177630891
 20
13.61424353098098
 30
0.0
 11
0.6402365177630891
 21
13.58299353098099
 31
0.0
  0
LINE
  5
129
330
2
100
AcDbEntity
  8
0
100
AcDbLine
 10
0.8902365177630891
 20
13.61424353098098
 30
0.0
 11
0.8902365177630891
 21
13.58299353098099
 31
0.0
  0
ARC
  5
12A
330
2
100
AcDbEntity
  8
0
100
AcDbCircle
 10
0.8277365177630891
 20
13.61424353098098
 30
0.0
 40
0.0625
100
AcDbArc
 50
359.9999999999989
 51
90.0
  0
LINE
  5
12B
330
2
100
AcDbEntity
  8
0
100
AcDbLine
 10
1.76596480940474
 20
14.70854453098098
 30
0.0
 11
1.844727809404741
 21
14.70854453098098
 31
0.0
  0
LINE
  5
12C
330
2
100
AcDbEntity
  8
0
100
AcDbLine
 10
0.6405094150128967
 20
15.89549353098296
 30
0.0
 11
-0.6719905849871033
 21
15.89549353098296
 31
0.0
  0
ARC
  5
12D
330
2
100
AcDbEntity
  8
0
100
AcDbCircle
 10
-0.8594905849871033
 20
15.86424353098296
 30
0.0
 40
0.0625
100
AcDbArc
 50
180.0
 51
270.0
  0
LINE
  5
12E
330
2
100
AcDbEntity
  8
0
100
AcDbLine
 10
-0.7344905849871033
 20
15.80174353098296
 30
0.0
 11
-0.8594905849871033
 21
15.80174353098296
 31
0.0
  0
LINE
  5
12F
330
2
100
AcDbEntity
  8
0
100
AcDbLine
 10
-0.6719905849871033
 20
15.89549353098296
 30
0.0
 11
-0.6719905849871033
 21
15.86424353098296
 31
0.0
  0
ARC
  5
130
330
2
100
AcDbEntity
  8
0
100
AcDbCircle
 10
-0.7344905849871033
 20
15.86424353098296
 30
0.0
 40
0.0625
100
AcDbArc
 50
270.0
 51
0.0
  0
LINE
  5
131
330
2
100
AcDbEntity
  8
0
100
AcDbLine
 10
-0.9219905849871033
 20
15.89549353098296
 30
0.0
 11
-0.9219905849871033
 21
15.86424353098296
 31
0.0
  0
LINE
  5
132
330
2
100
AcDbEntity
  8
0
100
AcDbLine
 10
1.7656310206211
 20
15.8969763902741
 30
0.0
 11
0.8905094150128967
 21
15.89549353098296
 31
0.0
  0
LINE
  5
133
330
2
100
AcDbEntity
  8
0
100
AcDbLine
 10
0.8280094150128967
 20
15.80174353098296
 30
0.0
 11
0.7030094150128967
 21
15.80174353098296
 31
0.0
  0
LINE
  5
134
330
2
100
AcDbEntity
  8
0
100
AcDbLine
 10
0.6405094150128967
 20
15.89549353098296
 30
0.0
 11
0.6405094150128967
 21
15.86424353098296
 31
0.0
  0
ARC
  5
135
330
2
100
AcDbEntity
  8
0
100
AcDbCircle
 10
0.7030094150128967
 20
15.86424353098296
 30
0.0
 40
0.0625
100
AcDbArc
 50
180.0
 51
270.0
  0
LINE
  5
136
330
2
100
AcDbEntity
  8
0
100
AcDbLine
 10
0.8905094150128967
 20
15.89549353098296
 30
0.0
 11
0.8905094150128967
 21
15.86424353098296
 31
0.0
  0
ARC
  5
137
330
2
100
AcDbEntity
  8
0
100
AcDbCircle
 10
0.8280094150128967
 20
15.86424353098296
 30
0.0
 40
0.0625
100
AcDbArc
 50
270.0
 51
0.0
  0
ARC
  5
138
330
2
100
AcDbEntity
  8
0
100
AcDbCircle
 10
1.945964809404739
 20
15.98251053098098
 30
0.0
 40
0.18
100
AcDbArc
 50
90.00000000000003
 51
180.0000000000001
  0
ARC
  5
139
330
2
100
AcDbEntity
  8
0
100
AcDbCircle
 10
1.969727809404741
 20
15.95854453098098
 30
0.0
 40
0.125
100
AcDbArc
 50
90.00000000000003
 51
180.0000000000001
  0
LINE
  5
13A
330
2
100
AcDbEntity
  8
0
100
AcDbLine
 10
1.765964809404739
 20
15.98251053098098
 30
0.0
 11
1.765964809404739
 21
15.89549353098098
 31
0.0
  0
LINE
  5
13B
330
2
100
AcDbEntity
  8
0
100
AcDbLine
 10
1.844727809404741
 20
15.89549353098098
 30
0.0
 11
1.844727809404741
 21
15.95854453098098
 31
0.0
  0
LINE
  5
13C
330
2
100
AcDbEntity
  8
0
100
AcDbLine
 10
3.032282809404745
 20
16.08354453098098
 30
0.0
 11
3.032282809404745
 21
16.16251053098098
 31
0.0
  0
LINE
  5
13D
330
2
100
AcDbEntity
  8
0
100
AcDbLine
 10
7.866853799454603
 20
0.4332599999999989
 30
0.0
 11
7.866853799454603
 21
6.59445
 31
0.0
  0
LINE
  5
13E
330
2
100
AcDbEntity
  8
0
100
AcDbLine
 10
6.823393799454607
 20
10.39003544018743
 30
0.0
 11
6.823393799454607
 21
2.137840000000002
 31
0.0
  0
LINE
  5
13F
330
2
100
AcDbEntity
  8
0
100
AcDbLine
 10
7.760897799454604
 20
0.4332599999999989
 30
0.0
 11
7.760897799454597
 21
10.38991377174712
 31
0.0
  0
LINE
  5
140
330
2
100
AcDbEntity
  8
0
100
AcDbLine
 10
6.823393799454607
 20
2.137840000000002
 30
0.0
 11
5.769203799454601
 21
0.3893199999999997
 31
0.0
  0
LINE
  5
142
330
2
100
AcDbEntity
  8
0
  6
HIDDEN
100
AcDbLine
 10
5.769203799454601
 20
0.0830099999999998
 30
0.0
 11
7.760897799454604
 21
0.0830099999999998
 31
0.0
  0
LINE
  5
143
330
2
100
AcDbEntity
  8
0
100
AcDbLine
 10
5.769203799454601
 20
0.0205099999999998
 30
0.0
 11
7.760897799454604
 21
0.0205099999999998
 31
0.0
  0
LINE
  5
144
330
2
100
AcDbEntity
  8
0
100
AcDbLine
 10
5.769203799454601
 20
0.0205099999999998
 30
0.0
 11
5.769203799454601
 21
0.3893199999999997
 31
0.0
  0
LINE
  5
145
330
2
100
AcDbEntity
  8
0
100
AcDbLine
 10
7.760897799454604
 20
0.4332599999999989
 30
0.0
 11
7.760897799454604
 21
0.0203499999999988
 31
0.0
  0
LINE
  5
146
330
2
100
AcDbEntity
  8
0
100
AcDbLine
 10
7.760897799454604
 20
0.4332599999999989
 30
0.0
 11
7.866853799454603
 21
0.4332599999999989
 31
0.0
  0
CIRCLE
  5
147
330
2
100
AcDbEntity
  8
0
100
AcDbCircle
 10
7.167243799454603
 20
1.028571767075606
 30
0.0
 40
0.109
  0
ARC
  5
14B
330
2
100
AcDbEntity
  8
0
100
AcDbCircle
 10
7.762763564364867
 20
2.581532306030484
 30
0.0
 40
0.156
100
AcDbArc
 50
90.0
 51
270.0
  0
CIRCLE
  5
14E
330
2
100
AcDbEntity
  8
0
100
AcDbCircle
 10
7.167243799454603
 20
2.95172
 30
0.0
 40
0.109
  0
LINE
  5
151
330
2
100
AcDbEntity
  8
0
100
AcDbLine
 10
7.866853799454603
 20
6.709760000000001
 30
0.0
 11
7.86685379945461
 21
10.38990002087111
 31
0.0
  0
CIRCLE
  5
153
330
2
100
AcDbEntity
  8
0
100
AcDbCircle
 10
7.167243799454603
 20
6.398021043764892
 30
0.0
 40
0.109
  0
LINE
  5
156
330
2
100
AcDbEntity
  8
0
100
AcDbLine
 10
7.868937799454599
 20
6.551920000000001
 30
0.0
 11
7.868937799454599
 21
6.79199
 31
0.0
  0
LINE
  5
159
330
2
100
AcDbEntity
  8
0
100
AcDbLine
 10
6.823393799454607
 20
10.39003544018743
 30
0.0
 11
7.866853799454603
 21
10.38990002087111
 31
0.0
  0
LWPOLYLINE
  5
15A
330
2
100
AcDbEntity
  8
0
100
AcDbPolyline
 90
        6
 70
     1
 43
0.0
 10
-2.377710892317309
 20
3.355842746383855
 10
-2.117387018594104
 20
3.425596318118521
 42
0.5773502691896287
 10
-2.103400441228277
 20
3.477794935471758
 10
-2.293970743216803
 20
3.668365237460291
 42
0.577350269189627
 10
-2.346169360570044
 20
3.654378660094475
 10
-2.415922932304723
 20
3.394054786371273
 42
0.577350269189625
  0
LWPOLYLINE
  5
15B
330
2
100
AcDbEntity
  8
0
100
AcDbPolyline
 90
        6
 70
     1
 43
0.0
 10
-2.377710892317309
 20
2.200742947812145
 10
-2.117387018594104
 20
2.270496519546811
 42
0.5773502691896287
 10
-2.103400441228277
 20
2.322695136900048
 10
-2.293970743216803
 20
2.513265438888581
 42
0.577350269189627
 10
-2.346169360570044
 20
2.499278861522765
 10
-2.415922932304723
 20
2.238954987799563
 42
0.577350269189625
  0
LWPOLYLINE
  5
15C
330
2
100
AcDbEntity
  8
0
100
AcDbPolyline
 90
        6
 70
     1
 43
0.0
 10
2.38292519184192
 20
2.446507648710611
 10
2.313171620107248
 20
2.186183774987409
 42
-0.5773502691896287
 10
2.260973002754007
 20
2.172197197621582
 10
2.070402700765479
 20
2.362767499610111
 42
-0.577350269189627
 10
2.084389278131299
 20
2.414966116963353
 10
2.344713151854503
 20
2.484719688698025
 42
-0.577350269189625
  0
LWPOLYLINE
  5
15D
330
2
100
AcDbEntity
  8
0
100
AcDbPolyline
 90
        6
 70
     1
 43
0.0
 10
2.38292519184192
 20
3.602339913863533
 10
2.313171620107248
 20
3.342016040140331
 42
-0.5773502691896287
 10
2.260973002754007
 20
3.328029462774504
 10
2.070402700765479
 20
3.518599764763033
 42
-0.577350269189627
 10
2.084389278131299
 20
3.570798382116275
 10
2.344713151854503
 20
3.640551953850947
 42
-0.577350269189625
  0
LWPOLYLINE
  5
15E
330
2
100
AcDbEntity
  8
0
100
AcDbPolyline
 90
        6
 70
     1
 43
0.0
 10
-2.377710892317309
 20
8.334418098883486
 10
-2.117387018594104
 20
8.404171670618151
 42
0.5773502691896287
 10
-2.103400441228277
 20
8.456370287971389
 10
-2.293970743216803
 20
8.646940589959922
 42
0.577350269189627
 10
-2.346169360570044
 20
8.632954012594105
 10
-2.415922932304723
 20
8.372630138870903
 42
0.577350269189625
  0
LWPOLYLINE
  5
15F
330
2
100
AcDbEntity
  8
0
100
AcDbPolyline
 90
        6
 70
     1
 43
0.0
 10
2.38292519184192
 20
8.640245059441355
 10
2.313171620107248
 20
8.379921185718153
 42
-0.5773502691896287
 10
2.260973002754007
 20
8.365934608352326
 10
2.070402700765479
 20
8.556504910340856
 42
-0.577350269189627
 10
2.084389278131299
 20
8.608703527694097
 10
2.344713151854503
 20
8.678457099428769
 42
-0.577350269189625
  0
LWPOLYLINE
  5
160
330
2
100
AcDbEntity
  8
0
100
AcDbPolyline
 90
        6
 70
     1
 43
0.0
 10
7.295691226022058
 20
3.74224103087507
 10
7.225937654287385
 20
3.481917157151868
 42
-0.5773502691896287
 10
7.173739036934144
 20
3.467930579786041
 10
6.983168734945615
 20
3.65850088177457
 42
-0.577350269189627
 10
6.997155312311435
 20
3.710699499127811
 10
7.257479186034637
 20
3.780453070862484
 42
-0.577350269189625
  0
LWPOLYLINE
  5
161
330
2
100
AcDbEntity
  8
0
100
AcDbPolyline
 90
        6
 70
     1
 43
0.0
 10
7.295691226022058
 20
7.222189758214448
 10
7.225937654287385
 20
6.961865884491246
 42
-0.5773502691896287
 10
7.173739036934144
 20
6.947879307125419
 10
6.983168734945615
 20
7.138449609113948
 42
-0.577350269189627
 10
6.997155312311435
 20
7.190648226467189
 10
7.257479186034637
 20
7.260401798201862
 42
-0.577350269189625
  0
LINE
  5
16A
330
2
100
AcDbEntity
  8
0
100
AcDbLine
 10
-7.866853799454603
 20
0.4332599999999989
 30
0.0
 11
-7.866853799454603
 21
6.59445
 31
0.0
  0
LINE
  5
16B
330
2
100
AcDbEntity
  8
0
100
AcDbLine
 10
-6.823393799454607
 20
10.39003544018743
 30
0.0
 11
-6.823393799454607
 21
2.137840000000002
 31
0.0
  0
LINE
  5
16C
330
2
100
AcDbEntity
  8
0
100
AcDbLine
 10
-7.760897799454604
 20
0.4332599999999989
 30
0.0
 11
-7.760897799454597
 21
10.38991377174712
 31
0.0
  0
LINE
  5
16D
330
2
100
AcDbEntity
  8
0
100
AcDbLine
 10
-6.823393799454607
 20
2.137840000000002
 30
0.0
 11
-5.769203799454601
 21
0.3893199999999997
 31
0.0
  0
LINE
  5
16F
330
2
100
AcDbEntity
  8
0
  6
HIDDEN
100
AcDbLine
 10
-5.769203799454601
 20
0.0830099999999998
 30
0.0
 11
-7.760897799454604
 21
0.0830099999999998
 31
0.0
  0
LINE
  5
170
330
2
100
AcDbEntity
  8
0
100
AcDbLine
 10
-5.769203799454601
 20
0.0205099999999998
 30
0.0
 11
-7.760897799454604
 21
0.0205099999999998
 31
0.0
  0
LINE
  5
171
330
2
100
AcDbEntity
  8
0
100
AcDbLine
 10
-5.769203799454601
 20
0.0205099999999998
 30
0.0
 11
-5.769203799454601
 21
0.3893199999999997
 31
0.0
  0
LINE
  5
172
330
2
100
AcDbEntity
  8
0
100
AcDbLine
 10
-7.760897799454604
 20
0.4332599999999989
 30
0.0
 11
-7.760897799454604
 21
0.0203499999999988
 31
0.0
  0
LINE
  5
173
330
2
100
AcDbEntity
  8
0
100
AcDbLine
 10
-7.760897799454604
 20
0.4332599999999989
 30
0.0
 11
-7.866853799454603
 21
0.4332599999999989
 31
0.0
  0
ARC
  5
174
330
2
100
AcDbEntity
  8
0
100
AcDbCircle
 10
-7.762763564364867
 20
2.581532306030484
 30
0.0
 40
0.156
100
AcDbArc
 50
270.0
 51
90.0
  0
CIRCLE
  5
175
330
2
100
AcDbEntity
  8
0
100
AcDbCircle
 10
-7.167243799454603
 20
1.477310551181029
 30
0.0
 40
0.109
  0
LWPOLYLINE
  5
17A
330
2
100
AcDbEntity
  8
0
100
AcDbPolyline
 90
        6
 70
     1
 43
0.0
 10
-7.295691226022058
 20
4.185123588336365
 10
-7.225937654287385
 20
3.924799714613164
 42
0.5773502691896287
 10
-7.173739036934144
 20
3.910813137247336
 10
-6.983168734945615
 20
4.101383439235866
 42
0.577350269189627
 10
-6.997155312311435
 20
4.153582056589107
 10
-7.257479186034637
 20
4.223335628323779
 42
0.577350269189625
  0
CIRCLE
  5
17B
330
2
100
AcDbEntity
  8
0
100
AcDbCircle
 10
-7.167243799454603
 20
2.412670375389066
 30
0.0
 40
0.109
  0
LINE
  5
17E
330
2
100
AcDbEntity
  8
0
100
AcDbLine
 10
-7.866853799454603
 20
6.709760000000001
 30
0.0
 11
-7.86685379945461
 21
10.38990002087111
 31
0.0
  0
CIRCLE
  5
17F
330
2
100
AcDbEntity
  8
0
100
AcDbCircle
 10
-7.167243799454603
 20
5.610619468961728
 30
0.0
 40
0.109
  0
LWPOLYLINE
  5
182
330
2
100
AcDbEntity
  8
0
100
AcDbPolyline
 90
        6
 70
     1
 43
0.0
 10
-7.295691226022058
 20
7.738322283316144
 10
-7.225937654287385
 20
7.477998409592942
 42
0.5773502691896287
 10
-7.173739036934144
 20
7.464011832227115
 10
-6.983168734945615
 20
7.654582134215644
 42
0.577350269189627
 10
-6.997155312311435
 20
7.706780751568886
 10
-7.257479186034637
 20
7.776534323303558
 42
0.577350269189625
  0
LINE
  5
185
330
2
100
AcDbEntity
  8
0
100
AcDbLine
 10
-7.868937799454599
 20
6.551920000000001
 30
0.0
 11
-7.868937799454599
 21
6.79199
 31
0.0
  0
LINE
  5
186
330
2
100
AcDbEntity
  8
0
100
AcDbLine
 10
-6.823393799454607
 20
10.39003544018743
 30
0.0
 11
-7.866853799454603
 21
10.38990002087111
 31
0.0
  0
ENDSEC
  0
SECTION
  2
OBJECTS
  0
DICTIONARY
  5
9
330
0
100
AcDbDictionary
281
     1
  3
ACAD_COLOR
350
18C
  3
ACAD_GROUP
350
23
  3
ACAD_LAYOUT
350
D
  3
ACAD_MATERIAL
350
18B
  3
ACAD_MLINESTYLE
350
24
  3
ACAD_PLOTSETTINGS
350
25
  3
ACAD_PLOTSTYLENAME
350
8
  3
ACAD_TABLESTYLE
350
18D
  3
ACDBHEADERROUNDTRIPXREC
350
1A5
  3
AcDbVariableDictionary
350
D0
  0
DICTIONARY
  5
18C
102
{ACAD_REACTORS
330
9
102
}
330
9
100
AcDbDictionary
281
     1
  0
DICTIONARY
  5
23
102
{ACAD_REACTORS
330
9
102
}
330
9
100
AcDbDictionary
281
     1
  0
DICTIONARY
  5
D
102
{ACAD_REACTORS
330
9
102
}
330
9
100
AcDbDictionary
281
     1
  3
Layout1
350
13
  3
Model
350
C
  0
DICTIONARY
  5
18B
102
{ACAD_REACTORS
330
9
102
}
330
9
100
AcDbDictionary
281
     1
  0
DICTIONARY
  5
24
102
{ACAD_REACTORS
330
9
102
}
330
9
100
AcDbDictionary
281
     1
  3
STANDARD
350
27
  0
DICTIONARY
  5
25
102
{ACAD_REACTORS
330
9
102
}
330
9
100
AcDbDictionary
281
     1
  0
ACDBDICTIONARYWDFLT
  5
8
102
{ACAD_REACTORS
330
9
102
}
330
9
100
AcDbDictionary
281
     1
  3
Normal
350
7
100
AcDbDictionaryWithDefault
340
7
  0
DICTIONARY
  5
18D
102
{ACAD_REACTORS
330
9
102
}
330
9
100
AcDbDictionary
281
     1
  3
Standard
350
18E
  0
DICTIONARY
  5
1A5
102
{ACAD_REACTORS
330
9
102
}
330
9
100
AcDbDictionary
281
     1
  3
COLORDICT
350
1A6
  3
MATERIALDICT
350
1A7
  0
DICTIONARY
  5
D0
102
{ACAD_REACTORS
330
9
102
}
330
9
100
AcDbDictionary
281
     1
  3
CTABLESTYLE
350
1A2
  3
HIDETEXT
350
1A4
  0
LAYOUT
  5
13
102
{ACAD_REACTORS
330
D
102
}
102
{ACAD_XDICTIONARY
360
1A8
102
}
330
D
100
AcDbPlotSettings
  1

  2
C:\ACAD2000\plotters\HP LaserJet 2100 Series PS.pc3
  4

  6

 40
0.0
 41
0.0
 42
0.0
 43
0.0
 44
0.0
 45
0.0
 46
0.0
 47
0.0
 48
0.0
 49
0.0
140
0.0
141
0.0
142
1.0
143
1.0
 70
   688
 72
     0
 73
     0
 74
     5
  7

 75
    16
147
1.0
148
0.0
149
0.0
100
AcDbLayout
  1
Layout1
 70
     0
 71
     1
 10
0.0
 20
0.0
 11
12.0
 21
9.0
 12
0.0
 22
0.0
 32
0.0
 14
1.000000000000000E+20
 24
1.000000000000000E+20
 34
1.000000000000000E+20
 15
-1.000000000000000E+20
 25
-1.000000000000000E+20
 35
-1.000000000000000E+20
146
0.0
 13
0.0
 23
0.0
 33
0.0
 16
1.0
 26
0.0
 36
0.0
 17
0.0
 27
1.0
 37
0.0
 76
     0
330
E
  0
LAYOUT
  5
C
102
{ACAD_REACTORS
330
D
102
}
102
{ACAD_XDICTIONARY
360
1AA
102
}
330
D
100
AcDbPlotSettings
  1

  2
HP LaserJet 2100 Series PS
  4
Letter
  6

 40
3.174999952316284
 41
3.174999952316284
 42
3.175003051757813
 43
3.17498779296875
 44
215.9000091552734
 45
279.3999938964844
 46
0.0
 47
0.0
 48
0.0
 49
0.0
140
0.0
141
0.0
142
1.0
143
3.818181706101661
 70
 28336
 72
     0
 73
     1
 74
     2
  7

 75
     0
147
0.2619047695928001
148
0.0
149
0.0
100
AcDbLayout
  1
Model
 70
     1
 71
     0
 10
0.0
 20
0.0
 11
12.0
 21
9.0
 12
0.0
 22
0.0
 32
0.0
 14
0.0
 24
0.0
 34
0.0
 15
0.0
 25
0.0
 35
0.0
146
0.0
 13
0.0
 23
0.0
 33
0.0
 16
1.0
 26
0.0
 36
0.0
 17
0.0
 27
1.0
 37
0.0
 76
     0
330
2
  0
MLINESTYLE
  5
27
102
{ACAD_REACTORS
330
24
102
}
330
24
100
AcDbMlineStyle
  2
STANDARD
 70
     0
  3

 62
   256
 51
90.0
 52
90.0
 71
     2
 49
0.5
 62
   256
  6
BYLAYER
 49
-0.5
 62
   256
  6
BYLAYER
  0
ACDBPLACEHOLDER
  5
7
102
{ACAD_REACTORS
330
8
102
}
330
8
  0
ACAD_PROXY_OBJECT
  5
18E
102
{ACAD_REACTORS
330
18D
102
}
330
18D
100
AcDbProxyObject
 90
      499
 91
      513
 95
   983063
 70
     0
 93
     1841
310
4214DD185B99185C9928B81E85EB51B8AE3F2E07A17AD46E2B8FC02B5E8DC0F42B1CFD028000000C1008070000C3001FDFF8000000C1003FBFF000000182007F7FE00000030400FEFFC00000060801FDFF8000000C1003FBFF00000018200000000000000681FA0B0000001820100E000186003FBFF000000182007F7FE000
310
00030400FEFFC00000060801FDFF8000000C1003FBFF000000182007F7FE000000304000AD7A3703D0AC73F4160000003040201C00030C007F7FE00000030400FEFFC00000060801FDFF8000000C1003FBFF000000182007F7FE00000030400FEFFC000000608000
340
16
340
16
340
16
 94
        0
  0
XRECORD
  5
1A6
102
{ACAD_REACTORS
330
1A5
102
}
330
1A5
100
AcDbXrecord
340
18C
  0
XRECORD
  5
1A7
102
{ACAD_REACTORS
330
1A5
102
}
330
1A5
100
AcDbXrecord
340
18B
  0
DICTIONARYVAR
  5
1A2
102
{ACAD_REACTORS
330
D0
102
}
330
D0
100
DictionaryVariables
280
     0
  1
STANDARD
  0
DICTIONARYVAR
  5
1A4
102
{ACAD_REACTORS
330
D0
102
}
330
D0
100
DictionaryVariables
280
     0
  1
0
  0
DICTIONARY
  5
1A8
330
13
100
AcDbDictionary
280
     1
281
     1
  3
ACAD_XREC_ROUNDTRIP
360
1A9
  0
DICTIONARY
  5
1AA
330
C
100
AcDbDictionary
280
     1
281
     1
  3
ACAD_XREC_ROUNDTRIP
360
1AB
  0
XRECORD
  5
1A9
102
{ACAD_REACTORS
330
1A8
102
}
330
1A8
100
AcDbXrecord
102
SHADEPLOT
 70
     0
102
SHADEPLOTRESLEVEL
 70
     2
102
SHADEPLOTCUSTOMDPI
 70
   300
  0
XRECORD
  5
1AB
102
{ACAD_REACTORS
330
1AA
102
}
330
1AA
100
AcDbXrecord
102
SHADEPLOT
 70
     0
102
SHADEPLOTRESLEVEL
 70
     2
102
SHADEPLOTCUSTOMDPI
 70
   300
  0
ENDSEC
  0
EOF
