  0
SECTION
  2
HEADER
  9
$ACADVER
  1
AC1015
  9
$ACADMAINTVER
 70
     6
  9
$DWGCODEPAGE
  3
ANSI_1252
  9
$INSBASE
 10
0.0
 20
0.0
 30
0.0
  9
$EXTMIN
 10
-9.340008364705199
 20
-0.0415946216379197
 30
-0.0000000000112498
  9
$EXTMAX
 10
9.340332406468207
 20
16.82976779837478
 30
0.0000000000002956
  9
$LIMMIN
 10
0.0
 20
0.0
  9
$LIMMAX
 10
32.0625
 20
23.5
  9
$ORTHOMODE
 70
     0
  9
$REGENMODE
 70
     1
  9
$FILLMODE
 70
     1
  9
$QTEXTMODE
 70
     0
  9
$MIRRTEXT
 70
     0
  9
$LTSCALE
 40
1.0
  9
$ATTMODE
 70
     1
  9
$TEXTSIZE
 40
0.27
  9
$TRACEWID
 40
0.05
  9
$TEXTSTYLE
  7
STANDARD
  9
$CLAYER
  8
0
  9
$CELTYPE
  6
BYLAYER
  9
$CECOLOR
 62
   256
  9
$CELTSCALE
 40
1.0
  9
$DISPSILH
 70
     0
  9
$DIMSCALE
 40
1.0
  9
$DIMASZ
 40
0.375
  9
$DIMEXO
 40
0.0625
  9
$DIMDLI
 40
0.75
  9
$DIMRND
 40
0.0
  9
$DIMDLE
 40
0.0
  9
$DIMEXE
 40
0.18
  9
$DIMTP
 40
0.0
  9
$DIMTM
 40
0.0
  9
$DIMTXT
 40
0.27
  9
$DIMCEN
 40
-0.06
  9
$DIMTSZ
 40
0.0
  9
$DIMTOL
 70
     0
  9
$DIMLIM
 70
     0
  9
$DIMTIH
 70
     1
  9
$DIMTOH
 70
     1
  9
$DIMSE1
 70
     0
  9
$DIMSE2
 70
     0
  9
$DIMTAD
 70
     0
  9
$DIMZIN
 70
     0
  9
$DIMBLK
  1

  9
$DIMASO
 70
     0
  9
$DIMSHO
 70
     0
  9
$DIMPOST
  1

  9
$DIMAPOST
  1

  9
$DIMALT
 70
     0
  9
$DIMALTD
 70
     2
  9
$DIMALTF
 40
25.4
  9
$DIMLFAC
 40
1.0
  9
$DIMTOFL
 70
     0
  9
$DIMTVP
 40
0.0
  9
$DIMTIX
 70
     0
  9
$DIMSOXD
 70
     0
  9
$DIMSAH
 70
     0
  9
$DIMBLK1
  1

  9
$DIMBLK2
  1

  9
$DIMSTYLE
  2
STANDARD
  9
$DIMCLRD
 70
     0
  9
$DIMCLRE
 70
     0
  9
$DIMCLRT
 70
     0
  9
$DIMTFAC
 40
1.0
  9
$DIMGAP
 40
0.09
  9
$DIMJUST
 70
     0
  9
$DIMSD1
 70
     0
  9
$DIMSD2
 70
     0
  9
$DIMTOLJ
 70
     1
  9
$DIMTZIN
 70
     0
  9
$DIMALTZ
 70
     0
  9
$DIMALTTZ
 70
     0
  9
$DIMUPT
 70
     0
  9
$DIMDEC
 70
     3
  9
$DIMTDEC
 70
     3
  9
$DIMALTU
 70
     2
  9
$DIMALTTD
 70
     2
  9
$DIMTXSTY
  7
STANDARD
  9
$DIMAUNIT
 70
     0
  9
$DIMADEC
 70
     0
  9
$DIMALTRND
 40
0.0
  9
$DIMAZIN
 70
     0
  9
$DIMDSEP
 70
    46
  9
$DIMATFIT
 70
     3
  9
$DIMFRAC
 70
     0
  9
$DIMLDRBLK
  1

  9
$DIMLUNIT
 70
     2
  9
$DIMLWD
 70
    -2
  9
$DIMLWE
 70
    -2
  9
$DIMTMOVE
 70
     2
  9
$LUNITS
 70
     2
  9
$LUPREC
 70
     3
  9
$SKETCHINC
 40
0.1
  9
$FILLETRAD
 40
0.0
  9
$AUNITS
 70
     0
  9
$AUPREC
 70
     0
  9
$MENU
  1
ACAD
  9
$ELEVATION
 40
0.0
  9
$PELEVATION
 40
0.0
  9
$THICKNESS
 40
0.0
  9
$LIMCHECK
 70
     0
  9
$CHAMFERA
 40
0.0
  9
$CHAMFERB
 40
0.0
  9
$CHAMFERC
 40
0.0
  9
$CHAMFERD
 40
0.0
  9
$SKPOLY
 70
     0
  9
$TDCREATE
 40
2449234.946089005
  9
$TDUCREATE
 40
2449235.279422338
  9
$TDUPDATE
 40
2454167.956731319
  9
$TDUUPDATE
 40
2454168.290064653
  9
$TDINDWG
 40
0.1094685185
  9
$TDUSRTIMER
 40
0.1094685185
  9
$USRTIMER
 70
     1
  9
$ANGBASE
 50
0.0
  9
$ANGDIR
 70
     0
  9
$PDMODE
 70
     0
  9
$PDSIZE
 40
0.0
  9
$PLINEWID
 40
0.0
  9
$SPLFRAME
 70
     0
  9
$SPLINETYPE
 70
     6
  9
$SPLINESEGS
 70
     8
  9
$HANDSEED
  5
1AD
  9
$SURFTAB1
 70
     6
  9
$SURFTAB2
 70
     6
  9
$SURFTYPE
 70
     6
  9
$SURFU
 70
     6
  9
$SURFV
 70
     6
  9
$UCSBASE
  2

  9
$UCSNAME
  2

  9
$UCSORG
 10
0.0
 20
0.0
 30
0.0
  9
$UCSXDIR
 10
1.0
 20
0.0
 30
0.0
  9
$UCSYDIR
 10
0.0
 20
1.0
 30
0.0
  9
$UCSORTHOREF
  2

  9
$UCSORTHOVIEW
 70
     0
  9
$UCSORGTOP
 10
0.0
 20
0.0
 30
0.0
  9
$UCSORGBOTTOM
 10
0.0
 20
0.0
 30
0.0
  9
$UCSORGLEFT
 10
0.0
 20
0.0
 30
0.0
  9
$UCSORGRIGHT
 10
0.0
 20
0.0
 30
0.0
  9
$UCSORGFRONT
 10
0.0
 20
0.0
 30
0.0
  9
$UCSORGBACK
 10
0.0
 20
0.0
 30
0.0
  9
$PUCSBASE
  2

  9
$PUCSNAME
  2

  9
$PUCSORG
 10
0.0
 20
0.0
 30
0.0
  9
$PUCSXDIR
 10
1.0
 20
0.0
 30
0.0
  9
$PUCSYDIR
 10
0.0
 20
1.0
 30
0.0
  9
$PUCSORTHOREF
  2

  9
$PUCSORTHOVIEW
 70
     0
  9
$PUCSORGTOP
 10
0.0
 20
0.0
 30
0.0
  9
$PUCSORGBOTTOM
 10
0.0
 20
0.0
 30
0.0
  9
$PUCSORGLEFT
 10
0.0
 20
0.0
 30
0.0
  9
$PUCSORGRIGHT
 10
0.0
 20
0.0
 30
0.0
  9
$PUCSORGFRONT
 10
0.0
 20
0.0
 30
0.0
  9
$PUCSORGBACK
 10
0.0
 20
0.0
 30
0.0
  9
$USERI1
 70
     0
  9
$USERI2
 70
     0
  9
$USERI3
 70
     0
  9
$USERI4
 70
     0
  9
$USERI5
 70
     0
  9
$USERR1
 40
0.0
  9
$USERR2
 40
0.0
  9
$USERR3
 40
0.0
  9
$USERR4
 40
0.0
  9
$USERR5
 40
0.0
  9
$WORLDVIEW
 70
     1
  9
$SHADEDGE
 70
     3
  9
$SHADEDIF
 70
    70
  9
$TILEMODE
 70
     1
  9
$MAXACTVP
 70
    16
  9
$PINSBASE
 10
0.0
 20
0.0
 30
0.0
  9
$PLIMCHECK
 70
     0
  9
$PEXTMIN
 10
1.000000000000000E+20
 20
1.000000000000000E+20
 30
1.000000000000000E+20
  9
$PEXTMAX
 10
-1.000000000000000E+20
 20
-1.000000000000000E+20
 30
-1.000000000000000E+20
  9
$PLIMMIN
 10
0.0
 20
0.0
  9
$PLIMMAX
 10
12.0
 20
9.0
  9
$UNITMODE
 70
     0
  9
$VISRETAIN
 70
     0
  9
$PLINEGEN
 70
     0
  9
$PSLTSCALE
 70
     0
  9
$TREEDEPTH
 70
  3020
  9
$CMLSTYLE
  2
STANDARD
  9
$CMLJUST
 70
     0
  9
$CMLSCALE
 40
1.0
  9
$PROXYGRAPHICS
 70
     1
  9
$MEASUREMENT
 70
     0
  9
$CELWEIGHT
370
    -1
  9
$ENDCAPS
280
     0
  9
$JOINSTYLE
280
     0
  9
$LWDISPLAY
290
     0
  9
$INSUNITS
 70
     0
  9
$HYPERLINKBASE
  1

  9
$STYLESHEET
  1

  9
$XEDIT
290
     1
  9
$CEPSNTYPE
380
     0
  9
$PSTYLEMODE
290
     1
  9
$FINGERPRINTGUID
  2
{20E1DE13-883C-4F73-A31A-FC052AEA94AE}
  9
$VERSIONGUID
  2
{20FDE526-4CA1-450E-BB89-5865B8481131}
  9
$EXTNAMES
290
     1
  9
$PSVPSCALE
 40
0.0
  9
$OLESTARTUP
290
     0
  0
ENDSEC
  0
SECTION
  2
CLASSES
  0
CLASS
  1
DICTIONARYVAR
  2
AcDbDictionaryVar
  3
AutoCAD 2000
 90
        0
280
     0
281
     0
  0
CLASS
  1
LWPOLYLINE
  2
AcDbPolyline
  3
AutoCAD 2000
 90
        0
280
     0
281
     1
  0
CLASS
  1
ACDBDICTIONARYWDFLT
  2
AcDbDictionaryWithDefault
  3
AutoCAD 2000
 90
        0
280
     0
281
     0
  0
CLASS
  1
ACDBPLACEHOLDER
  2
AcDbPlaceHolder
  3
ObjectDBX Classes
 90
        0
280
     0
281
     0
  0
CLASS
  1
LAYOUT
  2
AcDbLayout
  3
ObjectDBX Classes
 90
        0
280
     0
281
     0
  0
CLASS
  1
LONG_TRANSACTION
  2
AcDbLongTransaction
  3
ObjectDBX Classes
 90
   -65536
280
     1
281
     0
  0
CLASS
  1
LWPOLYLINE
  2
AcDbPolyline
  3
AutoCAD 2000
 90
        0
280
     0
281
     1
  0
CLASS
  1
HATCH
  2
AcDbHatch
  3
AutoCAD 2000
 90
        0
280
     0
281
     1
  0
CLASS
  1
XRECORD
  2
AcDbXrecord
  3
AutoCAD 2000
 90
        0
280
     0
281
     0
  0
CLASS
  1
TABLESTYLE
  2
AcDbTableStyle
  3
ObjectDBX Classes
 90
     2047
280
     1
281
     0
  0
ENDSEC
  0
SECTION
  2
TABLES
  0
TABLE
  2
VPORT
  5
1D
330
0
100
AcDbSymbolTable
 70
     2
  0
VPORT
  5
19D
330
1D
100
AcDbSymbolTableRecord
100
AcDbViewportTableRecord
  2
*Active
 70
     0
 10
0.0
 20
0.0
 11
1.0
 21
1.0
 12
11.3612458176474
 22
11.72920268918104
 13
0.0
 23
0.0
 14
0.0625
 24
0.0625
 15
0.5
 25
0.5
 16
0.0
 26
0.0
 36
1.0
 17
0.0
 27
0.0
 37
0.0
 40
23.83525276660637
 41
1.814583333333334
 42
50.0
 43
0.0
 44
0.0
 50
0.0
 51
0.0
 71
     0
 72
   100
 73
     1
 74
     0
 75
     0
 76
     0
 77
     0
 78
     0
281
     0
 65
     1
110
0.0
120
0.0
130
0.0
111
1.0
121
0.0
131
0.0
112
0.0
122
1.0
132
0.0
 79
     0
146
0.0
  0
ENDTAB
  0
TABLE
  2
LTYPE
  5
18
330
0
100
AcDbSymbolTable
 70
     2
  0
LTYPE
  5
19
330
18
100
AcDbSymbolTableRecord
100
AcDbLinetypeTableRecord
  2
BYBLOCK
 70
     0
  3

 72
    65
 73
     0
 40
0.0
  0
LTYPE
  5
1A
330
18
100
AcDbSymbolTableRecord
100
AcDbLinetypeTableRecord
  2
BYLAYER
 70
     0
  3

 72
    65
 73
     0
 40
0.0
  0
LTYPE
  5
A
330
18
100
AcDbSymbolTableRecord
100
AcDbLinetypeTableRecord
  2
CONTINUOUS
 70
     0
  3
Solid line
 72
    65
 73
     0
 40
0.0
  0
LTYPE
  5
19C
330
18
100
AcDbSymbolTableRecord
100
AcDbLinetypeTableRecord
  2
HIDDEN
 70
     0
  3
Hidden __ __ __ __ __ __ __ __ __ __ __ __ __ _
 72
    65
 73
     2
 40
0.375
 49
0.25
 74
     0
 49
-0.125
 74
     0
  0
ENDTAB
  0
TABLE
  2
LAYER
  5
14
330
0
100
AcDbSymbolTable
 70
     2
  0
LAYER
  5
6
330
14
100
AcDbSymbolTableRecord
100
AcDbLayerTableRecord
  2
0
 70
     0
 62
     7
  6
CONTINUOUS
370
    -3
390
7
  0
ENDTAB
  0
TABLE
  2
STYLE
  5
15
330
0
100
AcDbSymbolTable
 70
     2
  0
STYLE
  5
16
330
15
100
AcDbSymbolTableRecord
100
AcDbTextStyleTableRecord
  2
STANDARD
 70
     0
 40
0.0
 41
1.0
 50
0.0
 71
     0
 42
0.27
  3
TXT
  4

  0
ENDTAB
  0
TABLE
  2
VIEW
  5
1B
330
0
100
AcDbSymbolTable
 70
     0
  0
ENDTAB
  0
TABLE
  2
UCS
  5
1C
330
0
100
AcDbSymbolTable
 70
     0
  0
ENDTAB
  0
TABLE
  2
APPID
  5
1F
330
0
100
AcDbSymbolTable
 70
     1
  0
APPID
  5
20
330
1F
100
AcDbSymbolTableRecord
100
AcDbRegAppTableRecord
  2
ACAD
 70
     0
  0
ENDTAB
  0
TABLE
  2
DIMSTYLE
  5
21
330
0
100
AcDbSymbolTable
 70
     1
100
AcDbDimStyleTable
  0
DIMSTYLE
105
28
330
21
100
AcDbSymbolTableRecord
100
AcDbDimStyleTableRecord
  2
STANDARD
 70
     0
  3

  4

340
16
  0
ENDTAB
  0
TABLE
  2
BLOCK_RECORD
  5
1
330
0
100
AcDbSymbolTable
 70
     0
  0
BLOCK_RECORD
  5
2
330
1
100
AcDbSymbolTableRecord
100
AcDbBlockTableRecord
  2
*MODEL_SPACE
340
C
  0
BLOCK_RECORD
  5
E
330
1
100
AcDbSymbolTableRecord
100
AcDbBlockTableRecord
  2
*PAPER_SPACE
340
13
  0
ENDTAB
  0
ENDSEC
  0
SECTION
  2
BLOCKS
  0
BLOCK
  5
5
330
2
100
AcDbEntity
  8
0
100
AcDbBlockBegin
  2
*MODEL_SPACE
 70
     0
 10
0.0
 20
0.0
 30
0.0
  3
*MODEL_SPACE
  1

  4

  0
ENDBLK
  5
B
330
2
100
AcDbEntity
  8
0
100
AcDbBlockEnd
  0
BLOCK
  5
11
330
E
100
AcDbEntity
 67
     1
  8
0
100
AcDbBlockBegin
  2
*PAPER_SPACE
 70
     0
 10
0.0
 20
0.0
 30
0.0
  3
*PAPER_SPACE
  1

  4

  0
ENDBLK
  5
12
330
E
100
AcDbEntity
 67
     1
  8
0
100
AcDbBlockEnd
  0
ENDSEC
  0
SECTION
  2
ENTITIES
  0
LINE
  5
E0
330
2
100
AcDbEntity
  8
0
100
AcDbLine
 10
3.017730913147577
 20
12.70411
 30
0.0
 11
3.017740428729201
 21
1.694653527535559
 31
0.0
  0
LINE
  5
E1
330
2
100
AcDbEntity
  8
0
100
AcDbLine
 10
-1.801030000000001
 20
12.70411
 30
0.0
 11
-1.801030000000001
 21
1.129399999999999
 31
0.0
  0
LINE
  5
E2
330
2
100
AcDbEntity
  8
0
100
AcDbLine
 10
-1.879639999999998
 20
12.70411
 30
0.0
 11
-1.879639999999998
 21
1.129399999999999
 31
0.0
  0
LINE
  5
E3
330
2
100
AcDbEntity
  8
0
100
AcDbLine
 10
1.879639999999998
 20
9.01422
 30
0.0
 11
1.879639999999998
 21
5.13922
 31
0.0
  0
LINE
  5
E4
330
2
100
AcDbEntity
  8
0
100
AcDbLine
 10
1.800709999999999
 20
5.13922
 30
0.0
 11
1.800709999999999
 21
12.70411
 31
0.0
  0
LINE
  5
E5
330
2
100
AcDbEntity
  8
0
100
AcDbLine
 10
-3.03444055716432
 20
12.70411
 30
0.0
 11
-3.034450072745944
 21
1.694653527535559
 31
0.0
  0
LINE
  5
E6
330
2
100
AcDbEntity
  8
0
100
AcDbLine
 10
-1.676045926129382
 20
0.0793700010145653
 30
0.0
 11
1.67569
 21
0.0790699999999998
 31
0.0
  0
LINE
  5
E7
330
2
100
AcDbEntity
  8
0
100
AcDbLine
 10
-1.679640000000003
 20
0.0000000000000009
 30
0.0
 11
1.679640000000003
 21
-0.0000000000000018
 31
0.0
  0
ARC
  5
E8
330
2
100
AcDbEntity
  8
0
100
AcDbCircle
 10
-1.679640000000003
 20
0.2000000000000011
 30
0.0
 40
0.2
100
AcDbArc
 50
180.0
 51
270.0
  0
ARC
  5
E9
330
2
100
AcDbEntity
  8
0
100
AcDbCircle
 10
-1.676030000000001
 20
0.2043699999999991
 30
0.0
 40
0.125
100
AcDbArc
 50
180.0
 51
269.9927
  0
LINE
  5
EA
330
2
100
AcDbEntity
  8
0
100
AcDbLine
 10
-0.9222634822369109
 20
0.0793025328419796
 30
0.0
 11
-0.9222634822369118
 21
0.0000000000000009
 31
0.0
  0
LINE
  5
EB
330
2
100
AcDbEntity
  8
0
100
AcDbLine
 10
-0.67226348223691
 20
0.0792801563017944
 30
0.0
 11
-0.6722634822369091
 21
0.0
 31
0.0
  0
LINE
  5
EC
330
2
100
AcDbEntity
  8
0
100
AcDbLine
 10
-1.879639999999998
 20
1.13922
 30
0.0
 11
-1.879639999999998
 21
0.1971900000000009
 31
0.0
  0
LINE
  5
ED
330
2
100
AcDbEntity
  8
0
100
AcDbLine
 10
-1.801030000000001
 20
1.13922
 30
0.0
 11
-1.801030000000001
 21
0.2015099999999972
 31
0.0
  0
LINE
  5
EE
330
2
100
AcDbEntity
  8
0
100
AcDbLine
 10
-1.896349644016741
 20
0.2167999999999974
 30
0.0
 11
-3.034450072745951
 21
1.694653527535559
 31
0.0
  0
CIRCLE
  5
EF
330
2
100
AcDbEntity
  8
0
100
AcDbCircle
 10
-2.713949184973043
 20
1.846385180369888
 30
0.0
 40
0.109
  0
CIRCLE
  5
F0
330
2
100
AcDbEntity
  8
0
100
AcDbCircle
 10
-2.271939644016744
 20
1.41974628639443
 30
0.0
 40
0.109
  0
CIRCLE
  5
F1
330
2
100
AcDbEntity
  8
0
100
AcDbCircle
 10
-2.713949184973043
 20
3.897257273393157
 30
0.0
 40
0.109
  0
CIRCLE
  5
F2
330
2
100
AcDbEntity
  8
0
100
AcDbCircle
 10
-2.335189644016747
 20
2.970254468046139
 30
0.0
 40
0.109
  0
ARC
  5
F3
330
2
100
AcDbEntity
  8
0
100
AcDbCircle
 10
-1.879639999999998
 20
2.579370001014565
 30
0.0
 40
0.156
100
AcDbArc
 50
90.0
 51
270.0
  0
CIRCLE
  5
F6
330
2
100
AcDbEntity
  8
0
100
AcDbCircle
 10
-2.713949184973043
 20
5.474543942501377
 30
0.0
 40
0.109
  0
LINE
  5
F7
330
2
100
AcDbEntity
  8
0
100
AcDbLine
 10
1.800709999999999
 20
0.1821800000000007
 30
0.0
 11
1.800709999999999
 21
5.145110000000001
 31
0.0
  0
LINE
  5
F8
330
2
100
AcDbEntity
  8
0
100
AcDbLine
 10
1.879639999999998
 20
5.145110000000001
 30
0.0
 11
1.879639999999998
 21
0.1857699999999998
 31
0.0
  0
ARC
  5
F9
330
2
100
AcDbEntity
  8
0
100
AcDbCircle
 10
1.679640000000003
 20
0.2000000000000011
 30
0.0
 40
0.2
100
AcDbArc
 50
270.0
 51
0.0
  0
ARC
  5
FA
330
2
100
AcDbEntity
  8
0
100
AcDbCircle
 10
1.675709999999999
 20
0.2040699999999998
 30
0.0
 40
0.125
100
AcDbArc
 50
269.9927
 51
0.0
  0
LINE
  5
FB
330
2
100
AcDbEntity
  8
0
100
AcDbLine
 10
0.6402365177630891
 20
0.0791626794658198
 30
0.0
 11
0.6402365177630891
 21
0.0
 31
0.0
  0
LINE
  5
FC
330
2
100
AcDbEntity
  8
0
100
AcDbLine
 10
0.8902365177630891
 20
0.0791403029256355
 30
0.0
 11
0.8902365177630891
 21
-0.0000000000000009
 31
0.0
  0
LINE
  5
FD
330
2
100
AcDbEntity
  8
0
100
AcDbLine
 10
1.879639999999998
 20
0.2167999999999974
 30
0.0
 11
3.017740428729208
 21
1.694653527535559
 31
0.0
  0
CIRCLE
  5
FE
330
2
100
AcDbEntity
  8
0
100
AcDbCircle
 10
2.255230000000001
 20
1.41974628639443
 30
0.0
 40
0.109
  0
CIRCLE
  5
FF
330
2
100
AcDbEntity
  8
0
100
AcDbCircle
 10
2.6972395409563
 20
1.846385180369888
 30
0.0
 40
0.109
  0
CIRCLE
  5
100
330
2
100
AcDbEntity
  8
0
100
AcDbCircle
 10
2.6972395409563
 20
3.897257273393157
 30
0.0
 40
0.109
  0
CIRCLE
  5
101
330
2
100
AcDbEntity
  8
0
100
AcDbCircle
 10
2.318480000000005
 20
2.970254468046139
 30
0.0
 40
0.109
  0
ARC
  5
102
330
2
100
AcDbEntity
  8
0
100
AcDbCircle
 10
1.881786731720395
 20
2.579370001014565
 30
0.0
 40
0.156
100
AcDbArc
 50
269.9999999999994
 51
90.00000000000063
  0
CIRCLE
  5
105
330
2
100
AcDbEntity
  8
0
100
AcDbCircle
 10
2.6972395409563
 20
5.474543942501377
 30
0.0
 40
0.109
  0
CIRCLE
  5
106
330
2
100
AcDbEntity
  8
0
100
AcDbCircle
 10
-2.713949184973043
 20
9.263570677531581
 30
0.0
 40
0.109
  0
CIRCLE
  5
107
330
2
100
AcDbEntity
  8
0
100
AcDbCircle
 10
-2.713949184973043
 20
7.283438833546976
 30
0.0
 40
0.109
  0
CIRCLE
  5
108
330
2
100
AcDbEntity
  8
0
100
AcDbCircle
 10
-2.334599644016745
 20
6.696925650979672
 30
0.0
 40
0.109
  0
CIRCLE
  5
10A
330
2
100
AcDbEntity
  8
0
100
AcDbCircle
 10
-2.713949184973043
 20
10.95562570408349
 30
0.0
 40
0.109
  0
LINE
  5
10B
330
2
100
AcDbEntity
  8
0
100
AcDbLine
 10
-3.034440557164327
 20
12.70411
 30
0.0
 11
-1.801030000000001
 21
12.70411
 31
0.0
  0
CIRCLE
  5
10C
330
2
100
AcDbEntity
  8
0
100
AcDbCircle
 10
2.6972395409563
 20
9.263570677531581
 30
0.0
 40
0.109
  0
LINE
  5
10D
330
2
100
AcDbEntity
  8
0
100
AcDbLine
 10
1.879639999999998
 20
12.70411
 30
0.0
 11
1.879639999999998
 21
9.001720000000001
 31
0.0
  0
CIRCLE
  5
10E
330
2
100
AcDbEntity
  8
0
100
AcDbCircle
 10
2.317890000000002
 20
6.696925650979672
 30
0.0
 40
0.109
  0
CIRCLE
  5
10F
330
2
100
AcDbEntity
  8
0
100
AcDbCircle
 10
2.6972395409563
 20
7.283438833546976
 30
0.0
 40
0.109
  0
CIRCLE
  5
111
330
2
100
AcDbEntity
  8
0
100
AcDbCircle
 10
2.6972395409563
 20
10.95562570408349
 30
0.0
 40
0.109
  0
LINE
  5
112
330
2
100
AcDbEntity
  8
0
100
AcDbLine
 10
1.800710000000006
 20
12.70411
 30
0.0
 11
3.017730913147577
 21
12.70411
 31
0.0
  0
LINE
  5
113
330
2
100
AcDbEntity
  8
0
100
AcDbLine
 10
0.6480619709294064
 20
16.64210973936041
 30
0.0
 11
-0.6644380290705927
 21
16.64210973936041
 31
0.0
  0
LINE
  5
114
330
2
100
AcDbEntity
  8
0
100
AcDbLine
 10
-0.6722634822369109
 20
14.22238724092586
 30
0.0
 11
0.6402365177630891
 21
14.22238724092586
 31
0.0
  0
ARC
  5
115
330
2
100
AcDbEntity
  8
0
100
AcDbCircle
 10
-1.992946481019889
 20
16.60892552147887
 30
0.0
 40
0.2060762033347663
100
AcDbArc
 50
9.266620470682417
 51
73.84000202438998
  0
ARC
  5
116
330
2
100
AcDbEntity
  8
0
100
AcDbCircle
 10
-2.000876190595267
 20
16.59682540603921
 30
0.0
 40
0.125
100
AcDbArc
 50
0.0000000000001158
 51
90.00000000000003
  0
LINE
  5
117
330
2
100
AcDbEntity
  8
0
100
AcDbLine
 10
-1.789559634678742
 20
16.64210973935843
 30
0.0
 11
-1.789559634678742
 21
14.22238724092585
 31
0.0
  0
LINE
  5
118
330
2
100
AcDbEntity
  8
0
100
AcDbLine
 10
-1.875876190595267
 20
16.59682540603921
 30
0.0
 11
-1.87587619059526
 21
14.22238724092585
 31
0.0
  0
LINE
  5
119
330
2
100
AcDbEntity
  8
0
100
AcDbLine
 10
-1.87587619059526
 20
14.22238724092585
 30
0.0
 11
-0.9222634822369109
 21
14.22238724092586
 31
0.0
  0
ARC
  5
11A
330
2
100
AcDbEntity
  8
0
100
AcDbCircle
 10
-0.8597634822369109
 20
14.25363724092585
 30
0.0
 40
0.0625
100
AcDbArc
 50
90.0
 51
179.9999999999994
  0
LINE
  5
11B
330
2
100
AcDbEntity
  8
0
100
AcDbLine
 10
-0.9222634822369109
 20
14.25363724092585
 30
0.0
 11
-0.9222634822369109
 21
14.22238724092585
 31
0.0
  0
ARC
  5
11C
330
2
100
AcDbEntity
  8
0
100
AcDbCircle
 10
-0.7347634822369109
 20
14.25363724092585
 30
0.0
 40
0.0625
100
AcDbArc
 50
359.9999999999989
 51
90.0
  0
LINE
  5
11D
330
2
100
AcDbEntity
  8
0
100
AcDbLine
 10
-0.8597634822369109
 20
14.31613724092585
 30
0.0
 11
-0.7347634822369109
 21
14.31613724092585
 31
0.0
  0
LINE
  5
11E
330
2
100
AcDbEntity
  8
0
100
AcDbLine
 10
-0.6722634822369109
 20
14.25363724092585
 30
0.0
 11
-0.6722634822369109
 21
14.22238724092585
 31
0.0
  0
LINE
  5
11F
330
2
100
AcDbEntity
  8
0
100
AcDbLine
 10
-0.9144380290705927
 20
16.64210973936041
 30
0.0
 11
-1.78955963467875
 21
16.64210973935843
 31
0.0
  0
LINE
  5
120
330
2
100
AcDbEntity
  8
0
100
AcDbLine
 10
-1.875876190595264
 20
15.34682540603921
 30
0.0
 11
-1.789559634678742
 21
15.34682540603921
 31
0.0
  0
POINT
  5
121
330
2
100
AcDbEntity
  8
0
100
AcDbPoint
 10
-1.797223195095864
 20
16.55495656878181
 30
0.0
  0
ARC
  5
122
330
2
100
AcDbEntity
  8
0
100
AcDbCircle
 10
-0.8519380290705927
 20
16.61085973936041
 30
0.0
 40
0.0625
100
AcDbArc
 50
180.0
 51
270.0
  0
LINE
  5
123
330
2
100
AcDbEntity
  8
0
100
AcDbLine
 10
-0.9144380290705927
 20
16.64210973936041
 30
0.0
 11
-0.9144380290705927
 21
16.61085973936041
 31
0.0
  0
ARC
  5
124
330
2
100
AcDbEntity
  8
0
100
AcDbCircle
 10
-0.7269380290705927
 20
16.61085973936041
 30
0.0
 40
0.0625
100
AcDbArc
 50
270.0
 51
0.0
  0
LINE
  5
125
330
2
100
AcDbEntity
  8
0
100
AcDbLine
 10
-0.7269380290705927
 20
16.54835973936041
 30
0.0
 11
-0.8519380290705927
 21
16.54835973936041
 31
0.0
  0
LINE
  5
126
330
2
100
AcDbEntity
  8
0
100
AcDbLine
 10
-0.6644380290705927
 20
16.64210973936041
 30
0.0
 11
-0.6644380290705927
 21
16.61085973936041
 31
0.0
  0
LINE
  5
127
330
2
100
AcDbEntity
  8
0
100
AcDbLine
 10
-1.935591229965365
 20
16.80201837560889
 30
0.0
 11
-2.993127706873008
 21
16.80201837560889
 31
0.0
  0
LINE
  5
128
330
2
100
AcDbEntity
  8
0
100
AcDbLine
 10
-2.000876190595267
 20
16.72182540603921
 30
0.0
 11
-2.992429946616259
 21
16.72182540603921
 31
0.0
  0
LINE
  5
129
330
2
100
AcDbEntity
  8
0
100
AcDbLine
 10
-2.992429946616259
 20
16.72182540603921
 30
0.0
 11
-2.992429946616259
 21
16.80363848026751
 31
0.0
  0
LINE
  5
12A
330
2
100
AcDbEntity
  8
0
100
AcDbLine
 10
-1.995240628689142
 20
16.72183212333818
 30
0.0
 11
-1.980235764994024
 21
16.72183212333818
 31
0.0
  0
POINT
  5
12B
330
2
100
AcDbEntity
  8
0
100
AcDbPoint
 10
-1.995240628689142
 20
16.72183212333818
 30
0.0
  0
ARC
  5
12C
330
2
100
AcDbEntity
  8
0
100
AcDbCircle
 10
2.060916037237757
 20
16.57030606601524
 30
0.0
 40
0.2902784580098846
100
AcDbArc
 50
125.4207167955926
 51
165.6785743416176
  0
ARC
  5
12D
330
2
100
AcDbEntity
  8
0
100
AcDbCircle
 10
1.984391268030461
 20
16.59682540603921
 30
0.0
 40
0.125
100
AcDbArc
 50
90.00000000000006
 51
179.9999999999999
  0
LINE
  5
12E
330
2
100
AcDbEntity
  8
0
100
AcDbLine
 10
1.779658476132237
 20
16.64210973935843
 30
0.0
 11
1.779658476132237
 21
14.22238724092585
 31
0.0
  0
LINE
  5
12F
330
2
100
AcDbEntity
  8
0
100
AcDbLine
 10
1.859391268030446
 20
14.22238724092585
 30
0.0
 11
1.859391268030461
 21
16.59682540603921
 31
0.0
  0
LINE
  5
130
330
2
100
AcDbEntity
  8
0
100
AcDbLine
 10
0.8902365177630891
 20
14.22238724092586
 30
0.0
 11
1.843849226121431
 21
14.22238724092586
 31
0.0
  0
ARC
  5
131
330
2
100
AcDbEntity
  8
0
100
AcDbCircle
 10
0.8277365177630891
 20
14.25363724092585
 30
0.0
 40
0.0625
100
AcDbArc
 50
359.9999999999989
 51
90.0
  0
ARC
  5
132
330
2
100
AcDbEntity
  8
0
100
AcDbCircle
 10
0.7027365177630891
 20
14.25363724092585
 30
0.0
 40
0.0625
100
AcDbArc
 50
90.0
 51
179.9999999999989
  0
LINE
  5
133
330
2
100
AcDbEntity
  8
0
100
AcDbLine
 10
0.7027365177630891
 20
14.31613724092585
 30
0.0
 11
0.8277365177630891
 21
14.31613724092585
 31
0.0
  0
LINE
  5
134
330
2
100
AcDbEntity
  8
0
100
AcDbLine
 10
0.6402365177630891
 20
14.25363724092585
 30
0.0
 11
0.6402365177630891
 21
14.22238724092586
 31
0.0
  0
LINE
  5
135
330
2
100
AcDbEntity
  8
0
100
AcDbLine
 10
0.8902365177630891
 20
14.25363724092585
 30
0.0
 11
0.8902365177630891
 21
14.22238724092586
 31
0.0
  0
LINE
  5
136
330
2
100
AcDbEntity
  8
0
100
AcDbLine
 10
1.773183576537607
 20
16.64359259865155
 30
0.0
 11
0.8980619709294064
 21
16.64210973936041
 31
0.0
  0
LINE
  5
137
330
2
100
AcDbEntity
  8
0
100
AcDbLine
 10
0.8355619709294064
 20
16.54835973936041
 30
0.0
 11
0.7105619709294064
 21
16.54835973936041
 31
0.0
  0
ARC
  5
138
330
2
100
AcDbEntity
  8
0
100
AcDbCircle
 10
0.7105619709294064
 20
16.61085973936041
 30
0.0
 40
0.0625
100
AcDbArc
 50
180.0
 51
270.0
  0
LINE
  5
139
330
2
100
AcDbEntity
  8
0
100
AcDbLine
 10
0.6480619709294064
 20
16.64210973936041
 30
0.0
 11
0.6480619709294064
 21
16.61085973936041
 31
0.0
  0
LINE
  5
13A
330
2
100
AcDbEntity
  8
0
100
AcDbLine
 10
0.8980619709294064
 20
16.64210973936041
 30
0.0
 11
0.8980619709294064
 21
16.61085973936041
 31
0.0
  0
ARC
  5
13B
330
2
100
AcDbEntity
  8
0
100
AcDbCircle
 10
0.8355619709294064
 20
16.61085973936041
 30
0.0
 40
0.0625
100
AcDbArc
 50
270.0
 51
0.0
  0
LINE
  5
13C
330
2
100
AcDbEntity
  8
0
100
AcDbLine
 10
1.779658476132235
 20
15.34682540603921
 30
0.0
 11
1.859391268030453
 21
15.34682540603921
 31
0.0
  0
POINT
  5
13D
330
2
100
AcDbEntity
  8
0
100
AcDbPoint
 10
1.780712378926236
 20
16.57576348373513
 30
0.0
  0
LINE
  5
13E
330
2
100
AcDbEntity
  8
0
100
AcDbLine
 10
2.979014792736333
 20
16.80201837560889
 30
0.0
 11
1.892677648742318
 21
16.80201837560889
 31
0.0
  0
LINE
  5
13F
330
2
100
AcDbEntity
  8
0
100
AcDbLine
 10
1.984391268030461
 20
16.72182540603921
 30
0.0
 11
2.979014792736333
 21
16.72182540603921
 31
0.0
  0
LINE
  5
140
330
2
100
AcDbEntity
  8
0
100
AcDbLine
 10
1.959644451285303
 20
16.72183212333818
 30
0.0
 11
1.984173800242669
 21
16.72183212333818
 31
0.0
  0
LINE
  5
141
330
2
100
AcDbEntity
  8
0
100
AcDbLine
 10
2.979014792736333
 20
16.72182540603921
 30
0.0
 11
2.979014792736333
 21
16.80201837560889
 31
0.0
  0
LINE
  5
142
330
2
100
AcDbEntity
  8
0
100
AcDbLine
 10
9.337269646122522
 20
0.4332599999999989
 30
0.0
 11
9.337269646122522
 21
12.70411
 31
0.0
  0
LINE
  5
143
330
2
100
AcDbEntity
  8
0
100
AcDbLine
 10
8.293809646122524
 20
12.70411
 30
0.0
 11
8.293809646122524
 21
2.137840000000002
 31
0.0
  0
LINE
  5
144
330
2
100
AcDbEntity
  8
0
100
AcDbLine
 10
9.231313646122523
 20
3.062379999999999
 30
0.0
 11
9.231313646122523
 21
12.70411
 31
0.0
  0
LINE
  5
145
330
2
100
AcDbEntity
  8
0
100
AcDbLine
 10
8.293809646122524
 20
2.137840000000002
 30
0.0
 11
7.239619646122518
 21
0.3893199999999997
 31
0.0
  0
LINE
  5
146
330
2
100
AcDbEntity
  8
0
100
AcDbLine
 10
9.231313646122523
 20
0.4332599999999989
 30
0.0
 11
9.231313646122523
 21
2.927760000000001
 31
0.0
  0
LINE
  5
147
330
2
100
AcDbEntity
  8
0
100
AcDbLine
 10
7.239619646122518
 20
0.0205099999999998
 30
0.0
 11
7.239619646122518
 21
0.3893199999999997
 31
0.0
  0
LINE
  5
148
330
2
100
AcDbEntity
  8
0
100
AcDbLine
 10
9.231313646122523
 20
0.4332599999999989
 30
0.0
 11
9.231313646122523
 21
0.0203499999999988
 31
0.0
  0
LINE
  5
149
330
2
100
AcDbEntity
  8
0
  6
HIDDEN
100
AcDbLine
 10
7.239619646122518
 20
0.0830099999999998
 30
0.0
 11
9.231313646122523
 21
0.0830099999999998
 31
0.0
  0
LINE
  5
14A
330
2
100
AcDbEntity
  8
0
100
AcDbLine
 10
7.239619646122518
 20
0.0205099999999998
 30
0.0
 11
9.231313646122523
 21
0.0205099999999998
 31
0.0
  0
CIRCLE
  5
14B
330
2
100
AcDbEntity
  8
0
100
AcDbCircle
 10
8.637659646122522
 20
1.028571767075606
 30
0.0
 40
0.109
  0
LINE
  5
14C
330
2
100
AcDbEntity
  8
0
100
AcDbLine
 10
9.231313646122523
 20
0.4332599999999989
 30
0.0
 11
9.337269646122522
 21
0.4332599999999989
 31
0.0
  0
CIRCLE
  5
14F
330
2
100
AcDbEntity
  8
0
100
AcDbCircle
 10
8.637659646122522
 20
2.95172
 30
0.0
 40
0.109
  0
ARC
  5
152
330
2
100
AcDbEntity
  8
0
100
AcDbCircle
 10
9.229664333600155
 20
2.579370001014565
 30
0.0
 40
0.156
100
AcDbArc
 50
90.0
 51
270.0
  0
LINE
  5
154
330
2
100
AcDbEntity
  8
0
100
AcDbLine
 10
9.231313646122523
 20
3.07672
 30
0.0
 11
9.231313646122523
 21
2.900379999999997
 31
0.0
  0
CIRCLE
  5
15A
330
2
100
AcDbEntity
  8
0
100
AcDbCircle
 10
8.637659646122522
 20
6.398021043764892
 30
0.0
 40
0.109
  0
CIRCLE
  5
160
330
2
100
AcDbEntity
  8
0
100
AcDbCircle
 10
8.637659646122522
 20
10.94834378685222
 30
0.0
 40
0.109
  0
LINE
  5
162
330
2
100
AcDbEntity
  8
0
100
AcDbLine
 10
8.293809646122524
 20
12.70411
 30
0.0
 11
9.337269646122522
 21
12.70411
 31
0.0
  0
LWPOLYLINE
  5
163
330
2
100
AcDbEntity
  8
0
100
AcDbPolyline
 90
        6
 70
     1
 43
0.0
 10
8.736197517186149
 20
3.649941730663327
 10
8.666443945451476
 20
3.389617856940125
 42
-0.5773502691896287
 10
8.614245328098235
 20
3.375631279574298
 10
8.423675026109708
 20
3.566201581562828
 42
-0.577350269189627
 10
8.437661603475528
 20
3.618400198916069
 10
8.697985477198735
 20
3.688153770650741
 42
-0.577350269189625
  0
LWPOLYLINE
  5
164
330
2
100
AcDbEntity
  8
0
100
AcDbPolyline
 90
        6
 70
     1
 43
0.0
 10
8.736197517186149
 20
7.15564886610863
 10
8.666443945451476
 20
6.895324992385428
 42
-0.5773502691896287
 10
8.614245328098235
 20
6.8813384150196
 10
8.423675026109708
 20
7.07190871700813
 42
-0.577350269189627
 10
8.437661603475528
 20
7.124107334361371
 10
8.697985477198735
 20
7.193860906096044
 42
-0.577350269189625
  0
LWPOLYLINE
  5
165
330
2
100
AcDbEntity
  8
0
100
AcDbPolyline
 90
        6
 70
     1
 43
0.0
 10
-2.39185527355241
 20
3.350386515207088
 10
-2.131531399829204
 20
3.420140086941753
 42
0.5773502691896287
 10
-2.117544822463377
 20
3.472338704294991
 10
-2.308115124451903
 20
3.662909006283524
 42
0.577350269189627
 10
-2.360313741805144
 20
3.648922428917707
 10
-2.430067313539824
 20
3.388598555194506
 42
0.577350269189625
  0
LWPOLYLINE
  5
166
330
2
100
AcDbEntity
  8
0
100
AcDbPolyline
 90
        6
 70
     1
 43
0.0
 10
-2.39185527355241
 20
2.130417645036781
 10
-2.131531399829204
 20
2.200171216771446
 42
0.5773502691896287
 10
-2.117544822463377
 20
2.252369834124684
 10
-2.308115124451903
 20
2.442940136113217
 42
0.577350269189627
 10
-2.360313741805144
 20
2.4289535587474
 10
-2.430067313539824
 20
2.168629685024198
 42
0.577350269189625
  0
LWPOLYLINE
  5
167
330
2
100
AcDbEntity
  8
0
100
AcDbPolyline
 90
        6
 70
     1
 43
0.0
 10
2.360898223472484
 20
2.403436206644519
 10
2.291144651737811
 20
2.143112332921318
 42
-0.5773502691896287
 10
2.23894603438457
 20
2.12912575555549
 10
2.048375732396043
 20
2.31969605754402
 42
-0.577350269189627
 10
2.062362309761863
 20
2.371894674897261
 10
2.322686183485066
 20
2.441648246631933
 42
-0.577350269189625
  0
LWPOLYLINE
  5
168
330
2
100
AcDbEntity
  8
0
100
AcDbPolyline
 90
        6
 70
     1
 43
0.0
 10
2.360898223472484
 20
3.596151216105554
 10
2.291144651737811
 20
3.335827342382352
 42
-0.5773502691896287
 10
2.23894603438457
 20
3.321840765016525
 10
2.048375732396043
 20
3.512411067005054
 42
-0.577350269189627
 10
2.062362309761863
 20
3.564609684358295
 10
2.322686183485066
 20
3.634363256092968
 42
-0.577350269189625
  0
LWPOLYLINE
  5
169
330
2
100
AcDbEntity
  8
0
100
AcDbPolyline
 90
        6
 70
     1
 43
0.0
 10
-2.39185527355241
 20
8.364379678852362
 10
-2.131531399829204
 20
8.434133250587028
 42
0.5773502691896287
 10
-2.117544822463377
 20
8.486331867940265
 10
-2.308115124451903
 20
8.676902169928798
 42
0.577350269189627
 10
-2.360313741805144
 20
8.662915592562982
 10
-2.430067313539824
 20
8.40259171883978
 42
0.577350269189625
  0
LWPOLYLINE
  5
16A
330
2
100
AcDbEntity
  8
0
100
AcDbPolyline
 90
        6
 70
     1
 43
0.0
 10
2.360898223472484
 20
8.555636658332285
 10
2.291144651737811
 20
8.295312784609083
 42
-0.5773502691896287
 10
2.23894603438457
 20
8.281326207243255
 10
2.048375732396043
 20
8.471896509231785
 42
-0.577350269189627
 10
2.062362309761863
 20
8.524095126585026
 10
2.322686183485066
 20
8.593848698319698
 42
-0.577350269189625
  0
LINE
  5
170
330
2
100
AcDbEntity
  8
0
100
AcDbLine
 10
-8.294165572251906
 20
12.70411
 30
0.0
 11
-8.294165572251906
 21
2.137840000000002
 31
0.0
  0
LINE
  5
171
330
2
100
AcDbEntity
  8
0
100
AcDbLine
 10
-9.231669572251906
 20
3.062379999999999
 30
0.0
 11
-9.231669572251906
 21
12.70411
 31
0.0
  0
LINE
  5
173
330
2
100
AcDbEntity
  8
0
100
AcDbLine
 10
-9.337625572251906
 20
0.4332599999999989
 30
0.0
 11
-9.337625572251906
 21
12.70411
 31
0.0
  0
LINE
  5
175
330
2
100
AcDbEntity
  8
0
  6
HIDDEN
100
AcDbLine
 10
-7.239975572251901
 20
0.0830099999999998
 30
0.0
 11
-9.231669572251906
 21
0.0830099999999998
 31
0.0
  0
LINE
  5
176
330
2
100
AcDbEntity
  8
0
100
AcDbLine
 10
-7.239975572251901
 20
0.0205099999999998
 30
0.0
 11
-9.231669572251906
 21
0.0205099999999998
 31
0.0
  0
LINE
  5
177
330
2
100
AcDbEntity
  8
0
100
AcDbLine
 10
-8.294165572251906
 20
2.137840000000002
 30
0.0
 11
-7.239975572251901
 21
0.3893199999999997
 31
0.0
  0
LINE
  5
178
330
2
100
AcDbEntity
  8
0
100
AcDbLine
 10
-7.239975572251901
 20
0.0205099999999998
 30
0.0
 11
-7.239975572251901
 21
0.3893199999999997
 31
0.0
  0
CIRCLE
  5
17A
330
2
100
AcDbEntity
  8
0
100
AcDbCircle
 10
-8.638015572251902
 20
1.526034838552084
 30
0.0
 40
0.109
  0
LWPOLYLINE
  5
17E
330
2
100
AcDbEntity
  8
0
100
AcDbPolyline
 90
        6
 70
     1
 43
0.0
 10
-8.770342678749859
 20
4.392357420427635
 10
-8.700589107015187
 20
4.132033546704433
 42
0.5773502691896287
 10
-8.648390489661946
 20
4.118046969338606
 10
-8.457820187673416
 20
4.308617271327135
 42
0.577350269189627
 10
-8.471806765039236
 20
4.360815888680376
 10
-8.732130638762445
 20
4.430569460415049
 42
0.577350269189625
  0
CIRCLE
  5
17F
330
2
100
AcDbEntity
  8
0
100
AcDbCircle
 10
-8.638015572251906
 20
2.337913004944091
 30
0.0
 40
0.109
  0
LINE
  5
181
330
2
100
AcDbEntity
  8
0
100
AcDbLine
 10
-9.231669572251906
 20
0.4332599999999989
 30
0.0
 11
-9.231669572251906
 21
2.927760000000001
 31
0.0
  0
LINE
  5
182
330
2
100
AcDbEntity
  8
0
100
AcDbLine
 10
-9.231669572251906
 20
0.4332599999999989
 30
0.0
 11
-9.231669572251906
 21
0.0203499999999988
 31
0.0
  0
LINE
  5
183
330
2
100
AcDbEntity
  8
0
100
AcDbLine
 10
-9.231669572251906
 20
0.4332599999999989
 30
0.0
 11
-9.337625572251906
 21
0.4332599999999989
 31
0.0
  0
ARC
  5
184
330
2
100
AcDbEntity
  8
0
100
AcDbCircle
 10
-9.230020259729539
 20
2.579370001014565
 30
0.0
 40
0.156
100
AcDbArc
 50
270.0
 51
90.0
  0
LINE
  5
185
330
2
100
AcDbEntity
  8
0
100
AcDbLine
 10
-9.231669572251906
 20
3.07672
 30
0.0
 11
-9.231669572251906
 21
2.900379999999997
 31
0.0
  0
LWPOLYLINE
  5
188
330
2
100
AcDbEntity
  8
0
100
AcDbPolyline
 90
        6
 70
     1
 43
0.0
 10
-8.772976199470282
 20
7.868933645791964
 10
-8.70322262773561
 20
7.608609772068762
 42
0.5773502691896287
 10
-8.651024010382368
 20
7.594623194702935
 10
-8.460453708393839
 20
7.785193496691464
 42
0.577350269189627
 10
-8.474440285759659
 20
7.837392114044706
 10
-8.734764159482868
 20
7.907145685779378
 42
0.577350269189625
  0
CIRCLE
  5
189
330
2
100
AcDbEntity
  8
0
100
AcDbCircle
 10
-8.638015572251906
 20
5.748231627906979
 30
0.0
 40
0.109
  0
CIRCLE
  5
18E
330
2
100
AcDbEntity
  8
0
100
AcDbCircle
 10
-8.638015572251906
 20
10.37708470731865
 30
0.0
 40
0.109
  0
LINE
  5
190
330
2
100
AcDbEntity
  8
0
100
AcDbLine
 10
-8.294165572251906
 20
12.70411
 30
0.0
 11
-9.337625572251906
 21
12.70411
 31
0.0
  0
ENDSEC
  0
SECTION
  2
OBJECTS
  0
DICTIONARY
  5
9
330
0
100
AcDbDictionary
281
     1
  3
ACAD_COLOR
350
195
  3
ACAD_GROUP
350
23
  3
ACAD_LAYOUT
350
D
  3
ACAD_MATERIAL
350
194
  3
ACAD_MLINESTYLE
350
24
  3
ACAD_PLOTSETTINGS
350
25
  3
ACAD_PLOTSTYLENAME
350
8
  3
ACAD_TABLESTYLE
350
196
  3
ACDBHEADERROUNDTRIPXREC
350
1A6
  3
AcDbVariableDictionary
350
D4
  0
DICTIONARY
  5
195
102
{ACAD_REACTORS
330
9
102
}
330
9
100
AcDbDictionary
281
     1
  0
DICTIONARY
  5
23
102
{ACAD_REACTORS
330
9
102
}
330
9
100
AcDbDictionary
281
     1
  0
DICTIONARY
  5
D
102
{ACAD_REACTORS
330
9
102
}
330
9
100
AcDbDictionary
281
     1
  3
Layout1
350
13
  3
Model
350
C
  0
DICTIONARY
  5
194
102
{ACAD_REACTORS
330
9
102
}
330
9
100
AcDbDictionary
281
     1
  0
DICTIONARY
  5
24
102
{ACAD_REACTORS
330
9
102
}
330
9
100
AcDbDictionary
281
     1
  3
STANDARD
350
27
  0
DICTIONARY
  5
25
102
{ACAD_REACTORS
330
9
102
}
330
9
100
AcDbDictionary
281
     1
  0
ACDBDICTIONARYWDFLT
  5
8
102
{ACAD_REACTORS
330
9
102
}
330
9
100
AcDbDictionary
281
     1
  3
Normal
350
7
100
AcDbDictionaryWithDefault
340
7
  0
DICTIONARY
  5
196
102
{ACAD_REACTORS
330
9
102
}
330
9
100
AcDbDictionary
281
     1
  3
Standard
350
197
  0
DICTIONARY
  5
1A6
102
{ACAD_REACTORS
330
9
102
}
330
9
100
AcDbDictionary
281
     1
  3
COLORDICT
350
1A7
  3
MATERIALDICT
350
1A8
  0
DICTIONARY
  5
D4
102
{ACAD_REACTORS
330
9
102
}
330
9
100
AcDbDictionary
281
     1
  3
CTABLESTYLE
350
1A3
  3
HIDETEXT
350
1A5
  0
LAYOUT
  5
13
102
{ACAD_REACTORS
330
D
102
}
102
{ACAD_XDICTIONARY
360
1A9
102
}
330
D
100
AcDbPlotSettings
  1

  2
C:\ACAD2000\plotters\HP LaserJet 2100 Series PS.pc3
  4

  6

 40
0.0
 41
0.0
 42
0.0
 43
0.0
 44
0.0
 45
0.0
 46
0.0
 47
0.0
 48
0.0
 49
0.0
140
0.0
141
0.0
142
1.0
143
1.0
 70
   688
 72
     0
 73
     0
 74
     5
  7

 75
    16
147
1.0
148
0.0
149
0.0
100
AcDbLayout
  1
Layout1
 70
     0
 71
     1
 10
0.0
 20
0.0
 11
12.0
 21
9.0
 12
0.0
 22
0.0
 32
0.0
 14
1.000000000000000E+20
 24
1.000000000000000E+20
 34
1.000000000000000E+20
 15
-1.000000000000000E+20
 25
-1.000000000000000E+20
 35
-1.000000000000000E+20
146
0.0
 13
0.0
 23
0.0
 33
0.0
 16
1.0
 26
0.0
 36
0.0
 17
0.0
 27
1.0
 37
0.0
 76
     0
330
E
  0
LAYOUT
  5
C
102
{ACAD_REACTORS
330
D
102
}
102
{ACAD_XDICTIONARY
360
1AB
102
}
330
D
100
AcDbPlotSettings
  1

  2
HP LaserJet 2100 Series PS
  4
Letter
  6

 40
3.174999952316284
 41
3.174999952316284
 42
3.175003051757813
 43
3.17498779296875
 44
215.9000091552734
 45
279.3999938964844
 46
0.0
 47
0.0
 48
0.0
 49
0.0
140
0.0
141
0.0
142
1.0
143
3.886363522282048
 70
 28336
 72
     0
 73
     1
 74
     2
  7

 75
     0
147
0.2573099490736282
148
0.0
149
0.0
100
AcDbLayout
  1
Model
 70
     1
 71
     0
 10
0.0
 20
0.0
 11
12.0
 21
9.0
 12
0.0
 22
0.0
 32
0.0
 14
0.0
 24
0.0
 34
0.0
 15
0.0
 25
0.0
 35
0.0
146
0.0
 13
0.0
 23
0.0
 33
0.0
 16
1.0
 26
0.0
 36
0.0
 17
0.0
 27
1.0
 37
0.0
 76
     0
330
2
  0
MLINESTYLE
  5
27
102
{ACAD_REACTORS
330
24
102
}
330
24
100
AcDbMlineStyle
  2
STANDARD
 70
     0
  3

 62
   256
 51
90.0
 52
90.0
 71
     2
 49
0.5
 62
   256
  6
BYLAYER
 49
-0.5
 62
   256
  6
BYLAYER
  0
ACDBPLACEHOLDER
  5
7
102
{ACAD_REACTORS
330
8
102
}
330
8
  0
ACAD_PROXY_OBJECT
  5
197
102
{ACAD_REACTORS
330
196
102
}
330
196
100
AcDbProxyObject
 90
      499
 91
      509
 95
   983063
 70
     0
 93
     1841
310
4214DD185B99185C9928B81E85EB51B8AE3F2E07A17AD46E2B8FC02B5E8DC0F42B1CFD028000000C1008070000C3001FDFF8000000C1003FBFF000000182007F7FE00000030400FEFFC00000060801FDFF8000000C1003FBFF00000018200000000000000681FA0B0000001820100E000186003FBFF000000182007F7FE000
310
00030400FEFFC00000060801FDFF8000000C1003FBFF000000182007F7FE000000304000AD7A3703D0AC73F4160000003040201C00030C007F7FE00000030400FEFFC00000060801FDFF8000000C1003FBFF000000182007F7FE00000030400FEFFC000000608000
340
16
340
16
340
16
 94
        0
  0
XRECORD
  5
1A7
102
{ACAD_REACTORS
330
1A6
102
}
330
1A6
100
AcDbXrecord
340
195
  0
XRECORD
  5
1A8
102
{ACAD_REACTORS
330
1A6
102
}
330
1A6
100
AcDbXrecord
340
194
  0
DICTIONARYVAR
  5
1A3
102
{ACAD_REACTORS
330
D4
102
}
330
D4
100
DictionaryVariables
280
     0
  1
STANDARD
  0
DICTIONARYVAR
  5
1A5
102
{ACAD_REACTORS
330
D4
102
}
330
D4
100
DictionaryVariables
280
     0
  1
0
  0
DICTIONARY
  5
1A9
330
13
100
AcDbDictionary
280
     1
281
     1
  3
ACAD_XREC_ROUNDTRIP
360
1AA
  0
DICTIONARY
  5
1AB
330
C
100
AcDbDictionary
280
     1
281
     1
  3
ACAD_XREC_ROUNDTRIP
360
1AC
  0
XRECORD
  5
1AA
102
{ACAD_REACTORS
330
1A9
102
}
330
1A9
100
AcDbXrecord
102
SHADEPLOT
 70
     0
102
SHADEPLOTRESLEVEL
 70
     2
102
SHADEPLOTCUSTOMDPI
 70
   300
  0
XRECORD
  5
1AC
102
{ACAD_REACTORS
330
1AB
102
}
330
1AB
100
AcDbXrecord
102
SHADEPLOT
 70
     0
102
SHADEPLOTRESLEVEL
 70
     2
102
SHADEPLOTCUSTOMDPI
 70
   300
  0
ENDSEC
  0
EOF
