  0
SECTION
  2
HEADER
  9
$ACADVER
  1
AC1015
  9
$ACADMAINTVER
 70
     6
  9
$DWGCODEPAGE
  3
ANSI_1252
  9
$INSBASE
 10
0.0
 20
0.0
 30
0.0
  9
$EXTMIN
 10
-9.601950017890744
 20
-0.0432176848616308
 30
-0.0000000000112498
  9
$EXTMAX
 10
9.593468798482022
 20
20.88207116352226
 30
0.0000000000002956
  9
$LIMMIN
 10
0.0
 20
0.0
  9
$LIMMAX
 10
42.0625
 20
31.125
  9
$ORTHOMODE
 70
     1
  9
$REGENMODE
 70
     1
  9
$FILLMODE
 70
     1
  9
$QTEXTMODE
 70
     0
  9
$MIRRTEXT
 70
     0
  9
$LTSCALE
 40
0.5
  9
$ATTMODE
 70
     1
  9
$TEXTSIZE
 40
0.27
  9
$TRACEWID
 40
0.05
  9
$TEXTSTYLE
  7
STANDARD
  9
$CLAYER
  8
0
  9
$CELTYPE
  6
BYLAYER
  9
$CECOLOR
 62
   256
  9
$CELTSCALE
 40
1.0
  9
$DISPSILH
 70
     0
  9
$DIMSCALE
 40
1.0
  9
$DIMASZ
 40
0.375
  9
$DIMEXO
 40
0.0625
  9
$DIMDLI
 40
0.75
  9
$DIMRND
 40
0.0
  9
$DIMDLE
 40
0.0
  9
$DIMEXE
 40
0.18
  9
$DIMTP
 40
0.0
  9
$DIMTM
 40
0.0
  9
$DIMTXT
 40
0.27
  9
$DIMCEN
 40
-0.06
  9
$DIMTSZ
 40
0.0
  9
$DIMTOL
 70
     0
  9
$DIMLIM
 70
     0
  9
$DIMTIH
 70
     1
  9
$DIMTOH
 70
     1
  9
$DIMSE1
 70
     0
  9
$DIMSE2
 70
     0
  9
$DIMTAD
 70
     0
  9
$DIMZIN
 70
     0
  9
$DIMBLK
  1

  9
$DIMASO
 70
     0
  9
$DIMSHO
 70
     0
  9
$DIMPOST
  1

  9
$DIMAPOST
  1

  9
$DIMALT
 70
     0
  9
$DIMALTD
 70
     2
  9
$DIMALTF
 40
25.4
  9
$DIMLFAC
 40
1.0
  9
$DIMTOFL
 70
     0
  9
$DIMTVP
 40
0.0
  9
$DIMTIX
 70
     0
  9
$DIMSOXD
 70
     0
  9
$DIMSAH
 70
     0
  9
$DIMBLK1
  1

  9
$DIMBLK2
  1

  9
$DIMSTYLE
  2
STANDARD
  9
$DIMCLRD
 70
     0
  9
$DIMCLRE
 70
     0
  9
$DIMCLRT
 70
     0
  9
$DIMTFAC
 40
1.0
  9
$DIMGAP
 40
0.09
  9
$DIMJUST
 70
     0
  9
$DIMSD1
 70
     0
  9
$DIMSD2
 70
     0
  9
$DIMTOLJ
 70
     1
  9
$DIMTZIN
 70
     0
  9
$DIMALTZ
 70
     0
  9
$DIMALTTZ
 70
     0
  9
$DIMUPT
 70
     0
  9
$DIMDEC
 70
     4
  9
$DIMTDEC
 70
     4
  9
$DIMALTU
 70
     2
  9
$DIMALTTD
 70
     2
  9
$DIMTXSTY
  7
STANDARD
  9
$DIMAUNIT
 70
     0
  9
$DIMADEC
 70
     0
  9
$DIMALTRND
 40
0.0
  9
$DIMAZIN
 70
     0
  9
$DIMDSEP
 70
    46
  9
$DIMATFIT
 70
     3
  9
$DIMFRAC
 70
     0
  9
$DIMLDRBLK
  1

  9
$DIMLUNIT
 70
     2
  9
$DIMLWD
 70
    -2
  9
$DIMLWE
 70
    -2
  9
$DIMTMOVE
 70
     2
  9
$LUNITS
 70
     2
  9
$LUPREC
 70
     4
  9
$SKETCHINC
 40
0.1
  9
$FILLETRAD
 40
0.0
  9
$AUNITS
 70
     0
  9
$AUPREC
 70
     0
  9
$MENU
  1
ACAD
  9
$ELEVATION
 40
0.0
  9
$PELEVATION
 40
0.0
  9
$THICKNESS
 40
0.0
  9
$LIMCHECK
 70
     0
  9
$CHAMFERA
 40
0.0
  9
$CHAMFERB
 40
0.0
  9
$CHAMFERC
 40
0.0
  9
$CHAMFERD
 40
0.0
  9
$SKPOLY
 70
     0
  9
$TDCREATE
 40
2450268.612121065
  9
$TDUCREATE
 40
2450268.945454398
  9
$TDUPDATE
 40
2454167.957698125
  9
$TDUUPDATE
 40
2454168.291031458
  9
$TDINDWG
 40
0.0507344097
  9
$TDUSRTIMER
 40
0.0507344097
  9
$USRTIMER
 70
     1
  9
$ANGBASE
 50
0.0
  9
$ANGDIR
 70
     0
  9
$PDMODE
 70
     0
  9
$PDSIZE
 40
0.0
  9
$PLINEWID
 40
0.0
  9
$SPLFRAME
 70
     0
  9
$SPLINETYPE
 70
     6
  9
$SPLINESEGS
 70
     8
  9
$HANDSEED
  5
1D3
  9
$SURFTAB1
 70
     6
  9
$SURFTAB2
 70
     6
  9
$SURFTYPE
 70
     6
  9
$SURFU
 70
     6
  9
$SURFV
 70
     6
  9
$UCSBASE
  2

  9
$UCSNAME
  2

  9
$UCSORG
 10
0.0
 20
0.0
 30
0.0
  9
$UCSXDIR
 10
1.0
 20
0.0
 30
0.0
  9
$UCSYDIR
 10
0.0
 20
1.0
 30
0.0
  9
$UCSORTHOREF
  2

  9
$UCSORTHOVIEW
 70
     0
  9
$UCSORGTOP
 10
0.0
 20
0.0
 30
0.0
  9
$UCSORGBOTTOM
 10
0.0
 20
0.0
 30
0.0
  9
$UCSORGLEFT
 10
0.0
 20
0.0
 30
0.0
  9
$UCSORGRIGHT
 10
0.0
 20
0.0
 30
0.0
  9
$UCSORGFRONT
 10
0.0
 20
0.0
 30
0.0
  9
$UCSORGBACK
 10
0.0
 20
0.0
 30
0.0
  9
$PUCSBASE
  2

  9
$PUCSNAME
  2

  9
$PUCSORG
 10
0.0
 20
0.0
 30
0.0
  9
$PUCSXDIR
 10
1.0
 20
0.0
 30
0.0
  9
$PUCSYDIR
 10
0.0
 20
1.0
 30
0.0
  9
$PUCSORTHOREF
  2

  9
$PUCSORTHOVIEW
 70
     0
  9
$PUCSORGTOP
 10
0.0
 20
0.0
 30
0.0
  9
$PUCSORGBOTTOM
 10
0.0
 20
0.0
 30
0.0
  9
$PUCSORGLEFT
 10
0.0
 20
0.0
 30
0.0
  9
$PUCSORGRIGHT
 10
0.0
 20
0.0
 30
0.0
  9
$PUCSORGFRONT
 10
0.0
 20
0.0
 30
0.0
  9
$PUCSORGBACK
 10
0.0
 20
0.0
 30
0.0
  9
$USERI1
 70
     0
  9
$USERI2
 70
     0
  9
$USERI3
 70
     0
  9
$USERI4
 70
     0
  9
$USERI5
 70
     0
  9
$USERR1
 40
0.0
  9
$USERR2
 40
0.0
  9
$USERR3
 40
0.0
  9
$USERR4
 40
0.0
  9
$USERR5
 40
0.0
  9
$WORLDVIEW
 70
     1
  9
$SHADEDGE
 70
     3
  9
$SHADEDIF
 70
    70
  9
$TILEMODE
 70
     1
  9
$MAXACTVP
 70
    16
  9
$PINSBASE
 10
0.0
 20
0.0
 30
0.0
  9
$PLIMCHECK
 70
     0
  9
$PEXTMIN
 10
1.000000000000000E+20
 20
1.000000000000000E+20
 30
1.000000000000000E+20
  9
$PEXTMAX
 10
-1.000000000000000E+20
 20
-1.000000000000000E+20
 30
-1.000000000000000E+20
  9
$PLIMMIN
 10
0.0
 20
0.0
  9
$PLIMMAX
 10
12.0
 20
9.0
  9
$UNITMODE
 70
     0
  9
$VISRETAIN
 70
     0
  9
$PLINEGEN
 70
     0
  9
$PSLTSCALE
 70
     0
  9
$TREEDEPTH
 70
  3020
  9
$CMLSTYLE
  2
STANDARD
  9
$CMLJUST
 70
     0
  9
$CMLSCALE
 40
1.0
  9
$PROXYGRAPHICS
 70
     1
  9
$MEASUREMENT
 70
     0
  9
$CELWEIGHT
370
    -1
  9
$ENDCAPS
280
     0
  9
$JOINSTYLE
280
     0
  9
$LWDISPLAY
290
     0
  9
$INSUNITS
 70
     0
  9
$HYPERLINKBASE
  1

  9
$STYLESHEET
  1

  9
$XEDIT
290
     1
  9
$CEPSNTYPE
380
     0
  9
$PSTYLEMODE
290
     1
  9
$FINGERPRINTGUID
  2
{DBFE1111-82A6-4507-8B8A-851346B2EA3F}
  9
$VERSIONGUID
  2
{661A5EC3-6800-48B0-823A-F3D10395E68E}
  9
$EXTNAMES
290
     1
  9
$PSVPSCALE
 40
0.0
  9
$OLESTARTUP
290
     0
  0
ENDSEC
  0
SECTION
  2
CLASSES
  0
CLASS
  1
DICTIONARYVAR
  2
AcDbDictionaryVar
  3
AutoCAD 2000
 90
        0
280
     0
281
     0
  0
CLASS
  1
LWPOLYLINE
  2
AcDbPolyline
  3
AutoCAD 2000
 90
        0
280
     0
281
     1
  0
CLASS
  1
ACDBDICTIONARYWDFLT
  2
AcDbDictionaryWithDefault
  3
AutoCAD 2000
 90
        0
280
     0
281
     0
  0
CLASS
  1
ACDBPLACEHOLDER
  2
AcDbPlaceHolder
  3
ObjectDBX Classes
 90
        0
280
     0
281
     0
  0
CLASS
  1
LAYOUT
  2
AcDbLayout
  3
ObjectDBX Classes
 90
        0
280
     0
281
     0
  0
CLASS
  1
LONG_TRANSACTION
  2
AcDbLongTransaction
  3
ObjectDBX Classes
 90
   -65536
280
     1
281
     0
  0
CLASS
  1
LWPOLYLINE
  2
AcDbPolyline
  3
AutoCAD 2000
 90
        0
280
     0
281
     1
  0
CLASS
  1
HATCH
  2
AcDbHatch
  3
AutoCAD 2000
 90
        0
280
     0
281
     1
  0
CLASS
  1
XRECORD
  2
AcDbXrecord
  3
AutoCAD 2000
 90
        0
280
     0
281
     0
  0
CLASS
  1
LONG_TRANSACTION
  2
AcDbLongTransaction
  3
ObjectDBX Classes
 90
   -65536
280
     1
281
     0
  0
CLASS
  1
LWPOLYLINE
  2
AcDbPolyline
  3
AutoCAD 2000
 90
        0
280
     0
281
     1
  0
CLASS
  1
HATCH
  2
AcDbHatch
  3
AutoCAD 2000
 90
        0
280
     0
281
     1
  0
CLASS
  1
XRECORD
  2
AcDbXrecord
  3
AutoCAD 2000
 90
        0
280
     0
281
     0
  0
CLASS
  1
TABLESTYLE
  2
AcDbTableStyle
  3
ObjectDBX Classes
 90
     2047
280
     1
281
     0
  0
ENDSEC
  0
SECTION
  2
TABLES
  0
TABLE
  2
VPORT
  5
1D
330
0
100
AcDbSymbolTable
 70
     2
  0
VPORT
  5
1C3
330
1D
100
AcDbSymbolTableRecord
100
AcDbViewportTableRecord
  2
*Active
 70
     0
 10
0.0
 20
0.0
 11
1.0
 21
1.0
 12
16.23027499105463
 22
15.54089115756919
 13
0.0
 23
0.0
 14
0.0625
 24
0.0625
 15
0.5
 25
0.5
 16
0.0
 26
0.0
 36
1.0
 17
0.0
 27
0.0
 37
0.0
 40
31.55701042105533
 41
1.814583333333333
 42
50.0
 43
0.0
 44
0.0
 50
0.0
 51
0.0
 71
     0
 72
   100
 73
     1
 74
     0
 75
     0
 76
     0
 77
     0
 78
     1
281
     0
 65
     1
110
0.0
120
0.0
130
0.0
111
1.0
121
0.0
131
0.0
112
0.0
122
1.0
132
0.0
 79
     0
146
0.0
  0
ENDTAB
  0
TABLE
  2
LTYPE
  5
18
330
0
100
AcDbSymbolTable
 70
     2
  0
LTYPE
  5
19
330
18
100
AcDbSymbolTableRecord
100
AcDbLinetypeTableRecord
  2
BYBLOCK
 70
     0
  3

 72
    65
 73
     0
 40
0.0
  0
LTYPE
  5
1A
330
18
100
AcDbSymbolTableRecord
100
AcDbLinetypeTableRecord
  2
BYLAYER
 70
     0
  3

 72
    65
 73
     0
 40
0.0
  0
LTYPE
  5
A
330
18
100
AcDbSymbolTableRecord
100
AcDbLinetypeTableRecord
  2
CONTINUOUS
 70
     0
  3
Solid line
 72
    65
 73
     0
 40
0.0
  0
LTYPE
  5
1C2
330
18
100
AcDbSymbolTableRecord
100
AcDbLinetypeTableRecord
  2
HIDDEN
 70
     0
  3
Hidden __ __ __ __ __ __ __ __ __ __ __ __ __ _
 72
    65
 73
     2
 40
0.375
 49
0.25
 74
     0
 49
-0.125
 74
     0
  0
ENDTAB
  0
TABLE
  2
LAYER
  5
14
330
0
100
AcDbSymbolTable
 70
     2
  0
LAYER
  5
6
330
14
100
AcDbSymbolTableRecord
100
AcDbLayerTableRecord
  2
0
 70
     0
 62
     7
  6
CONTINUOUS
370
    -3
390
7
  0
ENDTAB
  0
TABLE
  2
STYLE
  5
15
330
0
100
AcDbSymbolTable
 70
     2
  0
STYLE
  5
16
330
15
100
AcDbSymbolTableRecord
100
AcDbTextStyleTableRecord
  2
STANDARD
 70
     0
 40
0.0
 41
1.0
 50
0.0
 71
     0
 42
0.27
  3
TXT
  4

  0
ENDTAB
  0
TABLE
  2
VIEW
  5
1B
330
0
100
AcDbSymbolTable
 70
     0
  0
ENDTAB
  0
TABLE
  2
UCS
  5
1C
330
0
100
AcDbSymbolTable
 70
     0
  0
ENDTAB
  0
TABLE
  2
APPID
  5
1F
330
0
100
AcDbSymbolTable
 70
     1
  0
APPID
  5
20
330
1F
100
AcDbSymbolTableRecord
100
AcDbRegAppTableRecord
  2
ACAD
 70
     0
  0
ENDTAB
  0
TABLE
  2
DIMSTYLE
  5
21
330
0
100
AcDbSymbolTable
 70
     1
100
AcDbDimStyleTable
  0
DIMSTYLE
105
28
330
21
100
AcDbSymbolTableRecord
100
AcDbDimStyleTableRecord
  2
STANDARD
 70
     0
  3

  4

340
16
  0
ENDTAB
  0
TABLE
  2
BLOCK_RECORD
  5
1
330
0
100
AcDbSymbolTable
 70
     0
  0
BLOCK_RECORD
  5
2
330
1
100
AcDbSymbolTableRecord
100
AcDbBlockTableRecord
  2
*MODEL_SPACE
340
C
  0
BLOCK_RECORD
  5
E
330
1
100
AcDbSymbolTableRecord
100
AcDbBlockTableRecord
  2
*PAPER_SPACE
340
13
  0
ENDTAB
  0
ENDSEC
  0
SECTION
  2
BLOCKS
  0
BLOCK
  5
5
330
2
100
AcDbEntity
  8
0
100
AcDbBlockBegin
  2
*MODEL_SPACE
 70
     0
 10
0.0
 20
0.0
 30
0.0
  3
*MODEL_SPACE
  1

  4

  0
ENDBLK
  5
B
330
2
100
AcDbEntity
  8
0
100
AcDbBlockEnd
  0
BLOCK
  5
11
330
E
100
AcDbEntity
 67
     1
  8
0
100
AcDbBlockBegin
  2
*PAPER_SPACE
 70
     0
 10
0.0
 20
0.0
 30
0.0
  3
*PAPER_SPACE
  1

  4

  0
ENDBLK
  5
12
330
E
100
AcDbEntity
 67
     1
  8
0
100
AcDbBlockEnd
  0
ENDSEC
  0
SECTION
  2
ENTITIES
  0
LINE
  5
D6
330
2
100
AcDbEntity
  8
0
100
AcDbLine
 10
3.017730000000002
 20
13.7606148910456
 30
0.0
 11
3.017740428729203
 21
1.694653527535557
 31
0.0
  0
CIRCLE
  5
D7
330
2
100
AcDbEntity
  8
0
100
AcDbCircle
 10
2.31789
 20
6.696925650979672
 30
0.0
 40
0.109
  0
LINE
  5
D8
330
2
100
AcDbEntity
  8
0
100
AcDbLine
 10
-1.801029999999999
 20
13.7606148910456
 30
0.0
 11
-1.801029999999999
 21
1.129399999999999
 31
0.0
  0
LINE
  5
D9
330
2
100
AcDbEntity
  8
0
100
AcDbLine
 10
-1.879639999999997
 20
13.7606148910456
 30
0.0
 11
-1.879639999999997
 21
1.129399999999999
 31
0.0
  0
LINE
  5
DA
330
2
100
AcDbEntity
  8
0
100
AcDbLine
 10
1.87964
 20
9.014220000000002
 30
0.0
 11
1.87964
 21
5.13922
 31
0.0
  0
LINE
  5
DB
330
2
100
AcDbEntity
  8
0
100
AcDbLine
 10
1.800710000000001
 20
5.13922
 30
0.0
 11
1.800710000000001
 21
13.7606148910456
 31
0.0
  0
CIRCLE
  5
DC
330
2
100
AcDbEntity
  8
0
100
AcDbCircle
 10
-2.334599644016743
 20
6.696925650979672
 30
0.0
 40
0.109
  0
LINE
  5
DD
330
2
100
AcDbEntity
  8
0
100
AcDbLine
 10
-3.034439644016745
 20
13.7606148910456
 30
0.0
 11
-3.034450072745946
 21
1.694653527535557
 31
0.0
  0
LINE
  5
DE
330
2
100
AcDbEntity
  8
0
100
AcDbLine
 10
1.67569407387062
 20
0.079070001014566
 30
0.0
 11
-1.682579999999996
 21
0.0793699999999991
 31
0.0
  0
LINE
  5
DF
330
2
100
AcDbEntity
  8
0
100
AcDbLine
 10
-1.679640000000001
 20
0.0000000000000018
 30
0.0
 11
1.679640000000001
 21
-0.0000000000000018
 31
0.0
  0
CIRCLE
  5
E0
330
2
100
AcDbEntity
  8
0
100
AcDbCircle
 10
-2.713949184973041
 20
1.846385180369886
 30
0.0
 40
0.109
  0
LINE
  5
E1
330
2
100
AcDbEntity
  8
0
100
AcDbLine
 10
-1.879639999999997
 20
1.13922
 30
0.0
 11
-1.879639999999997
 21
0.1971900000000009
 31
0.0
  0
LINE
  5
E2
330
2
100
AcDbEntity
  8
0
100
AcDbLine
 10
-1.801029999999999
 20
1.13922
 30
0.0
 11
-1.801029999999999
 21
0.2015099999999972
 31
0.0
  0
LINE
  5
E3
330
2
100
AcDbEntity
  8
0
100
AcDbLine
 10
-1.896349644016743
 20
0.2167999999999974
 30
0.0
 11
-3.034450072745949
 21
1.694653527535559
 31
0.0
  0
ARC
  5
E4
330
2
100
AcDbEntity
  8
0
100
AcDbCircle
 10
-1.679640000000001
 20
0.2000000000000011
 30
0.0
 40
0.2
100
AcDbArc
 50
180.0
 51
270.0
  0
ARC
  5
E5
330
2
100
AcDbEntity
  8
0
100
AcDbCircle
 10
-1.676029999999999
 20
0.2043699999999991
 30
0.0
 40
0.125
100
AcDbArc
 50
180.0
 51
269.9927
  0
CIRCLE
  5
E6
330
2
100
AcDbEntity
  8
0
100
AcDbCircle
 10
-2.271939644016745
 20
1.41974628639443
 30
0.0
 40
0.109
  0
CIRCLE
  5
E7
330
2
100
AcDbEntity
  8
0
100
AcDbCircle
 10
-2.335189644016745
 20
2.970254468046139
 30
0.0
 40
0.109
  0
ARC
  5
E8
330
2
100
AcDbEntity
  8
0
100
AcDbCircle
 10
-1.879639999999997
 20
2.579370001014565
 30
0.0
 40
0.156
100
AcDbArc
 50
90.0
 51
270.0
  0
CIRCLE
  5
EA
330
2
100
AcDbEntity
  8
0
100
AcDbCircle
 10
-2.713949184973041
 20
3.897257273393157
 30
0.0
 40
0.109
  0
CIRCLE
  5
EC
330
2
100
AcDbEntity
  8
0
100
AcDbCircle
 10
-2.713949184973041
 20
5.474543942501377
 30
0.0
 40
0.109
  0
LINE
  5
ED
330
2
100
AcDbEntity
  8
0
100
AcDbLine
 10
1.800710000000001
 20
0.1821800000000007
 30
0.0
 11
1.800710000000001
 21
5.145110000000001
 31
0.0
  0
LINE
  5
EE
330
2
100
AcDbEntity
  8
0
100
AcDbLine
 10
1.87964
 20
5.145110000000001
 30
0.0
 11
1.87964
 21
0.1857699999999998
 31
0.0
  0
CIRCLE
  5
EF
330
2
100
AcDbEntity
  8
0
100
AcDbCircle
 10
2.697239540956298
 20
1.846385180369886
 30
0.0
 40
0.109
  0
LINE
  5
F0
330
2
100
AcDbEntity
  8
0
100
AcDbLine
 10
-0.6722634822369109
 20
0.0792797471130609
 30
0.0
 11
-0.6722634822369091
 21
0.0000000000000018
 31
0.0
  0
LINE
  5
F1
330
2
100
AcDbEntity
  8
0
100
AcDbLine
 10
-0.9222634822369127
 20
0.0793020799378148
 30
0.0
 11
-0.9222634822369109
 21
0.0
 31
0.0
  0
LINE
  5
F2
330
2
100
AcDbEntity
  8
0
100
AcDbLine
 10
0.6402365177630909
 20
0.0791624997831182
 30
0.0
 11
0.6402365177630909
 21
0.0
 31
0.0
  0
POINT
  5
F3
330
2
100
AcDbEntity
  8
0
100
AcDbPoint
 10
0.2390899999999991
 20
0.0767199999999999
 30
0.0
  0
LINE
  5
F4
330
2
100
AcDbEntity
  8
0
100
AcDbLine
 10
1.87964
 20
0.2167999999999974
 30
0.0
 11
3.017740428729207
 21
1.694653527535559
 31
0.0
  0
LINE
  5
F5
330
2
100
AcDbEntity
  8
0
100
AcDbLine
 10
0.8902365177630909
 20
0.079140166958366
 30
0.0
 11
0.8902365177630909
 21
0.0
 31
0.0
  0
ARC
  5
F6
330
2
100
AcDbEntity
  8
0
100
AcDbCircle
 10
1.679640000000001
 20
0.2000000000000011
 30
0.0
 40
0.2
100
AcDbArc
 50
270.0
 51
0.0
  0
ARC
  5
F7
330
2
100
AcDbEntity
  8
0
100
AcDbCircle
 10
1.675710000000001
 20
0.2040699999999998
 30
0.0
 40
0.125
100
AcDbArc
 50
269.9927
 51
0.0
  0
CIRCLE
  5
F8
330
2
100
AcDbEntity
  8
0
100
AcDbCircle
 10
2.255230000000003
 20
1.41974628639443
 30
0.0
 40
0.109
  0
CIRCLE
  5
F9
330
2
100
AcDbEntity
  8
0
100
AcDbCircle
 10
2.318480000000003
 20
2.970254468046139
 30
0.0
 40
0.109
  0
ARC
  5
FA
330
2
100
AcDbEntity
  8
0
100
AcDbCircle
 10
1.894748453232227
 20
2.579370001014565
 30
0.0
 40
0.156
100
AcDbArc
 50
270.0
 51
90.0
  0
CIRCLE
  5
FD
330
2
100
AcDbEntity
  8
0
100
AcDbCircle
 10
2.697239540956298
 20
3.897257273393157
 30
0.0
 40
0.109
  0
CIRCLE
  5
FE
330
2
100
AcDbEntity
  8
0
100
AcDbCircle
 10
2.697239540956298
 20
5.474543942501377
 30
0.0
 40
0.109
  0
CIRCLE
  5
FF
330
2
100
AcDbEntity
  8
0
100
AcDbCircle
 10
-2.713949184973041
 20
9.263570677531583
 30
0.0
 40
0.109
  0
CIRCLE
  5
100
330
2
100
AcDbEntity
  8
0
100
AcDbCircle
 10
-2.713949184973041
 20
7.283438833546974
 30
0.0
 40
0.109
  0
CIRCLE
  5
102
330
2
100
AcDbEntity
  8
0
100
AcDbCircle
 10
-2.713949184973041
 20
10.95562570408349
 30
0.0
 40
0.109
  0
CIRCLE
  5
103
330
2
100
AcDbEntity
  8
0
100
AcDbCircle
 10
-2.713949184973041
 20
12.76452059512909
 30
0.0
 40
0.109
  0
LINE
  5
104
330
2
100
AcDbEntity
  8
0
100
AcDbLine
 10
-3.034439644016745
 20
13.7606148910456
 30
0.0
 11
-1.817419644016743
 21
13.7606148910456
 31
0.0
  0
LINE
  5
105
330
2
100
AcDbEntity
  8
0
100
AcDbLine
 10
-1.801029999999999
 20
13.7606148910456
 30
0.0
 11
-1.879639999999997
 21
13.7606148910456
 31
0.0
  0
LINE
  5
106
330
2
100
AcDbEntity
  8
0
100
AcDbLine
 10
1.87964
 20
13.7606148910456
 30
0.0
 11
1.87964
 21
9.001719999999999
 31
0.0
  0
CIRCLE
  5
107
330
2
100
AcDbEntity
  8
0
100
AcDbCircle
 10
2.697239540956298
 20
9.263570677531583
 30
0.0
 40
0.109
  0
CIRCLE
  5
108
330
2
100
AcDbEntity
  8
0
100
AcDbCircle
 10
2.697239540956298
 20
7.283438833546974
 30
0.0
 40
0.109
  0
CIRCLE
  5
10A
330
2
100
AcDbEntity
  8
0
100
AcDbCircle
 10
2.697239540956298
 20
10.95562570408349
 30
0.0
 40
0.109
  0
CIRCLE
  5
10B
330
2
100
AcDbEntity
  8
0
100
AcDbCircle
 10
2.697239540956298
 20
12.76452059512909
 30
0.0
 40
0.109
  0
LINE
  5
10C
330
2
100
AcDbEntity
  8
0
100
AcDbLine
 10
3.017730000000002
 20
13.7606148910456
 30
0.0
 11
1.800710000000001
 21
13.7606148910456
 31
0.0
  0
LINE
  5
10D
330
2
100
AcDbEntity
  8
0
100
AcDbLine
 10
1.800710000000001
 20
13.7606148910456
 30
0.0
 11
1.87964
 21
13.7606148910456
 31
0.0
  0
LINE
  5
10E
330
2
100
AcDbEntity
  8
0
100
AcDbLine
 10
-1.901815020733359
 20
18.27410259536193
 30
0.0
 11
-0.9222634822369091
 21
18.27410257645137
 31
0.0
  0
LINE
  5
10F
330
2
100
AcDbEntity
  8
0
100
AcDbLine
 10
-0.9255535676031048
 20
20.7408450944566
 30
0.0
 11
-1.800675173211262
 21
20.74084509445462
 31
0.0
  0
LINE
  5
110
330
2
100
AcDbEntity
  8
0
100
AcDbLine
 10
-1.901822946765531
 20
20.74084414148884
 30
0.0
 11
-1.901815020733359
 21
18.27410259536193
 31
0.0
  0
LINE
  5
111
330
2
100
AcDbEntity
  8
0
100
AcDbLine
 10
-1.800675173211262
 20
20.74084509445462
 30
0.0
 11
-1.800680681903261
 21
18.27410257645136
 31
0.0
  0
LINE
  5
112
330
2
100
AcDbEntity
  8
0
100
AcDbLine
 10
-1.800672176852229
 20
19.39910259536193
 30
0.0
 11
-1.901818635536948
 21
19.39910259536193
 31
0.0
  0
LINE
  5
113
330
2
100
AcDbEntity
  8
0
100
AcDbLine
 10
-1.906110529425359
 20
20.85772859536193
 30
0.0
 11
-3.038308206987264
 21
20.85772859536193
 31
0.0
  0
LINE
  5
114
330
2
100
AcDbEntity
  8
0
100
AcDbLine
 10
-1.946540529425359
 20
20.77383059536193
 30
0.0
 11
-3.038308206987264
 21
20.77383059536193
 31
0.0
  0
LINE
  5
115
330
2
100
AcDbEntity
  8
0
100
AcDbLine
 10
-3.038308206987264
 20
20.77383059536193
 30
0.0
 11
-3.038308206987264
 21
20.85772859536193
 31
0.0
  0
ARC
  5
116
330
2
100
AcDbEntity
  8
0
100
AcDbCircle
 10
-1.906110529425359
 20
20.75173259536193
 30
0.0
 40
0.105996
100
AcDbArc
 50
354.1044
 51
89.99999999999999
  0
ARC
  5
117
330
2
100
AcDbEntity
  8
0
100
AcDbCircle
 10
-1.946540529425359
 20
20.72702559536193
 30
0.0
 40
0.046804
100
AcDbArc
 50
17.17209999999999
 51
89.99999999999999
  0
LINE
  5
118
330
2
100
AcDbEntity
  8
0
100
AcDbLine
 10
1.769533961882644
 20
20.74084507554405
 30
0.0
 11
1.769528453190647
 21
18.27410257645136
 31
0.0
  0
LINE
  5
119
330
2
100
AcDbEntity
  8
0
100
AcDbLine
 10
1.870681735436913
 20
20.74084412257827
 30
0.0
 11
1.870673809404741
 21
18.27410257645136
 31
0.0
  0
ARC
  5
11A
330
2
100
AcDbEntity
  8
0
100
AcDbCircle
 10
0.8277365177630909
 20
18.30535257645136
 30
0.0
 40
0.0625
100
AcDbArc
 50
359.9999999999989
 51
90.0
  0
LINE
  5
11B
330
2
100
AcDbEntity
  8
0
100
AcDbLine
 10
-0.6722634822369091
 20
18.27410257645137
 30
0.0
 11
0.6402365177630909
 21
18.27410257645137
 31
0.0
  0
LINE
  5
11C
330
2
100
AcDbEntity
  8
0
100
AcDbLine
 10
-0.8597634822369091
 20
18.36785257645136
 30
0.0
 11
-0.7347634822369091
 21
18.36785257645136
 31
0.0
  0
LINE
  5
11D
330
2
100
AcDbEntity
  8
0
100
AcDbLine
 10
-0.9222634822369091
 20
18.30535257645136
 30
0.0
 11
-0.9222634822369091
 21
18.27410257645136
 31
0.0
  0
ARC
  5
11E
330
2
100
AcDbEntity
  8
0
100
AcDbCircle
 10
-0.8597634822369091
 20
18.30535257645136
 30
0.0
 40
0.0625
100
AcDbArc
 50
90.0
 51
179.9999999999994
  0
LINE
  5
11F
330
2
100
AcDbEntity
  8
0
100
AcDbLine
 10
-0.6722634822369091
 20
18.30535257645136
 30
0.0
 11
-0.6722634822369091
 21
18.27410257645136
 31
0.0
  0
ARC
  5
120
330
2
100
AcDbEntity
  8
0
100
AcDbCircle
 10
-0.7347634822369091
 20
18.30535257645136
 30
0.0
 40
0.0625
100
AcDbArc
 50
359.9999999999989
 51
90.0
  0
LINE
  5
121
330
2
100
AcDbEntity
  8
0
100
AcDbLine
 10
0.6402365177630909
 20
18.30535257645136
 30
0.0
 11
0.6402365177630909
 21
18.27410257645137
 31
0.0
  0
ARC
  5
122
330
2
100
AcDbEntity
  8
0
100
AcDbCircle
 10
0.7027365177630909
 20
18.30535257645136
 30
0.0
 40
0.0625
100
AcDbArc
 50
90.0
 51
179.9999999999989
  0
LINE
  5
123
330
2
100
AcDbEntity
  8
0
100
AcDbLine
 10
0.7027365177630909
 20
18.36785257645136
 30
0.0
 11
0.8277365177630909
 21
18.36785257645136
 31
0.0
  0
LINE
  5
124
330
2
100
AcDbEntity
  8
0
100
AcDbLine
 10
0.8902365177630909
 20
18.27410257645137
 30
0.0
 11
1.870673809404741
 21
18.27410257645136
 31
0.0
  0
LINE
  5
125
330
2
100
AcDbEntity
  8
0
100
AcDbLine
 10
0.8902365177630909
 20
18.30535257645136
 30
0.0
 11
0.8902365177630909
 21
18.27410257645137
 31
0.0
  0
ARC
  5
126
330
2
100
AcDbEntity
  8
0
100
AcDbCircle
 10
0.8244464323968952
 20
20.7095950944566
 30
0.0
 40
0.0625
100
AcDbArc
 50
270.0
 51
0.0
  0
LINE
  5
127
330
2
100
AcDbEntity
  8
0
100
AcDbLine
 10
0.6369464323968952
 20
20.7408450944566
 30
0.0
 11
-0.6755535676031048
 21
20.7408450944566
 31
0.0
  0
ARC
  5
128
330
2
100
AcDbEntity
  8
0
100
AcDbCircle
 10
-0.7380535676031048
 20
20.7095950944566
 30
0.0
 40
0.0625
100
AcDbArc
 50
270.0
 51
0.0
  0
ARC
  5
129
330
2
100
AcDbEntity
  8
0
100
AcDbCircle
 10
-0.8630535676031048
 20
20.7095950944566
 30
0.0
 40
0.0625
100
AcDbArc
 50
180.0
 51
270.0
  0
LINE
  5
12A
330
2
100
AcDbEntity
  8
0
100
AcDbLine
 10
-0.7380535676031048
 20
20.6470950944566
 30
0.0
 11
-0.8630535676031048
 21
20.6470950944566
 31
0.0
  0
LINE
  5
12B
330
2
100
AcDbEntity
  8
0
100
AcDbLine
 10
-0.9255535676031048
 20
20.7408450944566
 30
0.0
 11
-0.9255535676031048
 21
20.7095950944566
 31
0.0
  0
LINE
  5
12C
330
2
100
AcDbEntity
  8
0
100
AcDbLine
 10
-0.6755535676031048
 20
20.7408450944566
 30
0.0
 11
-0.6755535676031048
 21
20.7095950944566
 31
0.0
  0
ARC
  5
12D
330
2
100
AcDbEntity
  8
0
100
AcDbCircle
 10
0.6994464323968952
 20
20.7095950944566
 30
0.0
 40
0.0625
100
AcDbArc
 50
180.0
 51
270.0
  0
LINE
  5
12E
330
2
100
AcDbEntity
  8
0
100
AcDbLine
 10
0.8244464323968952
 20
20.6470950944566
 30
0.0
 11
0.6994464323968952
 21
20.6470950944566
 31
0.0
  0
LINE
  5
12F
330
2
100
AcDbEntity
  8
0
100
AcDbLine
 10
0.6369464323968952
 20
20.7408450944566
 30
0.0
 11
0.6369464323968952
 21
20.7095950944566
 31
0.0
  0
LINE
  5
130
330
2
100
AcDbEntity
  8
0
100
AcDbLine
 10
1.769530965523611
 20
19.39910257645136
 30
0.0
 11
1.87067742420833
 21
19.39910257645136
 31
0.0
  0
LINE
  5
131
330
2
100
AcDbEntity
  8
0
100
AcDbLine
 10
1.915399318096741
 20
20.77383057645136
 30
0.0
 11
3.007166995658645
 21
20.77383057645136
 31
0.0
  0
LINE
  5
132
330
2
100
AcDbEntity
  8
0
100
AcDbLine
 10
1.87496931809674
 20
20.85772857645137
 30
0.0
 11
3.007166995658645
 21
20.85772857645137
 31
0.0
  0
LINE
  5
133
330
2
100
AcDbEntity
  8
0
100
AcDbLine
 10
1.762068038005099
 20
20.74232795374774
 30
0.0
 11
0.8869464323968952
 21
20.7408450944566
 31
0.0
  0
LINE
  5
134
330
2
100
AcDbEntity
  8
0
100
AcDbLine
 10
0.8869464323968952
 20
20.7408450944566
 30
0.0
 11
0.8869464323968952
 21
20.7095950944566
 31
0.0
  0
ARC
  5
135
330
2
100
AcDbEntity
  8
0
100
AcDbCircle
 10
1.87496931809674
 20
20.75173257645136
 30
0.0
 40
0.105996
100
AcDbArc
 50
90.00000000000003
 51
185.8956
  0
ARC
  5
136
330
2
100
AcDbEntity
  8
0
100
AcDbCircle
 10
1.915399318096741
 20
20.72702557645136
 30
0.0
 40
0.046804
100
AcDbArc
 50
90.00000000000003
 51
162.8279
  0
LINE
  5
137
330
2
100
AcDbEntity
  8
0
100
AcDbLine
 10
3.007166995658645
 20
20.77383057645136
 30
0.0
 11
3.007166995658645
 21
20.85772857645137
 31
0.0
  0
LINE
  5
13A
330
2
100
AcDbEntity
  8
0
100
AcDbLine
 10
8.548048812825627
 20
13.76536447903315
 30
0.0
 11
8.548048812825627
 21
2.137840000000002
 31
0.0
  0
LINE
  5
13B
330
2
100
AcDbEntity
  8
0
100
AcDbLine
 10
9.485552812825624
 20
3.062379999999999
 30
0.0
 11
9.485552812825624
 21
13.76519447903314
 31
0.0
  0
LINE
  5
13C
330
2
100
AcDbEntity
  8
0
100
AcDbLine
 10
8.548048812825627
 20
2.137840000000002
 30
0.0
 11
7.493858812825621
 21
0.3893199999999997
 31
0.0
  0
LINE
  5
13D
330
2
100
AcDbEntity
  8
0
100
AcDbLine
 10
9.591508812825623
 20
0.4332599999999989
 30
0.0
 11
9.591508812825623
 21
13.76519447903314
 31
0.0
  0
LINE
  5
13E
330
2
100
AcDbEntity
  8
0
100
AcDbLine
 10
9.485552812825624
 20
0.4332599999999989
 30
0.0
 11
9.485552812825624
 21
2.927760000000001
 31
0.0
  0
LINE
  5
13F
330
2
100
AcDbEntity
  8
0
  6
HIDDEN
100
AcDbLine
 10
7.493858812825621
 20
0.0830099999999998
 30
0.0
 11
9.485552812825624
 21
0.0830099999999998
 31
0.0
  0
LINE
  5
140
330
2
100
AcDbEntity
  8
0
100
AcDbLine
 10
7.493858812825621
 20
0.0205099999999998
 30
0.0
 11
9.485552812825624
 21
0.0205099999999998
 31
0.0
  0
LINE
  5
141
330
2
100
AcDbEntity
  8
0
100
AcDbLine
 10
7.493858812825621
 20
0.0205099999999998
 30
0.0
 11
7.493858812825621
 21
0.3893199999999997
 31
0.0
  0
CIRCLE
  5
142
330
2
100
AcDbEntity
  8
0
100
AcDbCircle
 10
8.891898812825623
 20
1.028571767075606
 30
0.0
 40
0.109
  0
LINE
  5
145
330
2
100
AcDbEntity
  8
0
100
AcDbLine
 10
9.485552812825624
 20
0.4332599999999989
 30
0.0
 11
9.485552812825624
 21
0.0203499999999988
 31
0.0
  0
LINE
  5
146
330
2
100
AcDbEntity
  8
0
100
AcDbLine
 10
9.485552812825624
 20
0.4332599999999989
 30
0.0
 11
9.591508812825623
 21
0.4332599999999989
 31
0.0
  0
CIRCLE
  5
149
330
2
100
AcDbEntity
  8
0
100
AcDbCircle
 10
8.891898812825623
 20
2.95172
 30
0.0
 40
0.109
  0
LINE
  5
14B
330
2
100
AcDbEntity
  8
0
100
AcDbLine
 10
9.485552812825624
 20
3.07672
 30
0.0
 11
9.485552812825624
 21
2.900379999999997
 31
0.0
  0
ARC
  5
14C
330
2
100
AcDbEntity
  8
0
100
AcDbCircle
 10
9.488836765932653
 20
2.579370001014565
 30
0.0
 40
0.156
100
AcDbArc
 50
90.0
 51
270.0
  0
CIRCLE
  5
151
330
2
100
AcDbEntity
  8
0
100
AcDbCircle
 10
8.891898812825623
 20
6.52924085555984
 30
0.0
 40
0.109
  0
CIRCLE
  5
155
330
2
100
AcDbEntity
  8
0
100
AcDbCircle
 10
8.891898812825623
 20
10.94834378685222
 30
0.0
 40
0.109
  0
LINE
  5
157
330
2
100
AcDbEntity
  8
0
100
AcDbLine
 10
9.485552812825624
 20
13.76536447903315
 30
0.0
 11
8.548048812825627
 21
13.76536447903315
 31
0.0
  0
LINE
  5
158
330
2
100
AcDbEntity
  8
0
100
AcDbLine
 10
9.591508812825623
 20
13.76519447903314
 30
0.0
 11
9.485552812825624
 21
13.76519447903314
 31
0.0
  0
LINE
  5
159
330
2
100
AcDbEntity
  8
0
100
AcDbLine
 10
2.391145448386437
 20
3.549583227782916
 30
0.0
 11
2.321391876651765
 21
3.289259354059714
 31
0.0
  0
ARC
  5
15A
330
2
100
AcDbEntity
  8
0
100
AcDbCircle
 10
2.291254990871543
 20
3.297334508266911
 30
0.0
 40
0.0312000000000017
100
AcDbArc
 50
225.0000000000046
 51
345.0000000000055
  0
LINE
  5
15B
330
2
100
AcDbEntity
  8
0
100
AcDbLine
 10
2.269193259298524
 20
3.275272776693887
 30
0.0
 11
2.078622957309998
 21
3.465843078682417
 31
0.0
  0
ARC
  5
15C
330
2
100
AcDbEntity
  8
0
100
AcDbCircle
 10
2.100684688883018
 20
3.487904810255438
 30
0.0
 40
0.0312000000000006
100
AcDbArc
 50
105.0000000000016
 51
225.0000000000023
  0
LINE
  5
15D
330
2
100
AcDbEntity
  8
0
100
AcDbLine
 10
2.092609534675818
 20
3.518041696035658
 30
0.0
 11
2.352933408399023
 21
3.58779526777033
 31
0.0
  0
ARC
  5
15E
330
2
100
AcDbEntity
  8
0
100
AcDbCircle
 10
2.361008562606221
 20
3.557658381990114
 30
0.0
 40
0.031199999999997
100
AcDbArc
 50
344.9999999999998
 51
105.0000000000002
  0
LINE
  5
15F
330
2
100
AcDbEntity
  8
0
100
AcDbLine
 10
2.391145448386437
 20
2.413481781161398
 30
0.0
 11
2.321391876651765
 21
2.153157907438196
 31
0.0
  0
ARC
  5
160
330
2
100
AcDbEntity
  8
0
100
AcDbCircle
 10
2.291254990871543
 20
2.161233061645392
 30
0.0
 40
0.0312000000000017
100
AcDbArc
 50
225.0000000000046
 51
345.0000000000055
  0
LINE
  5
161
330
2
100
AcDbEntity
  8
0
100
AcDbLine
 10
2.269193259298524
 20
2.139171330072369
 30
0.0
 11
2.078622957309998
 21
2.329741632060898
 31
0.0
  0
ARC
  5
162
330
2
100
AcDbEntity
  8
0
100
AcDbCircle
 10
2.100684688883018
 20
2.35180336363392
 30
0.0
 40
0.0312000000000006
100
AcDbArc
 50
105.0000000000016
 51
225.0000000000023
  0
LINE
  5
163
330
2
100
AcDbEntity
  8
0
100
AcDbLine
 10
2.092609534675818
 20
2.381940249414139
 30
0.0
 11
2.352933408399023
 21
2.451693821148812
 31
0.0
  0
ARC
  5
164
330
2
100
AcDbEntity
  8
0
100
AcDbCircle
 10
2.361008562606221
 20
2.421556935368596
 30
0.0
 40
0.031199999999997
100
AcDbArc
 50
344.9999999999998
 51
105.0000000000002
  0
LINE
  5
165
330
2
100
AcDbEntity
  8
0
100
AcDbLine
 10
-2.403989194527513
 20
2.200014278578259
 30
0.0
 11
-2.143665320804308
 21
2.269767850312924
 31
0.0
  0
ARC
  5
166
330
2
100
AcDbEntity
  8
0
100
AcDbCircle
 10
-2.151740475011502
 20
2.299904736093144
 30
0.0
 40
0.0311999999999995
100
AcDbArc
 50
284.9999999999922
 51
44.99999999999539
  0
LINE
  5
167
330
2
100
AcDbEntity
  8
0
100
AcDbLine
 10
-2.129678743438481
 20
2.321966467666162
 30
0.0
 11
-2.320249045427007
 21
2.512536769654695
 31
0.0
  0
ARC
  5
168
330
2
100
AcDbEntity
  8
0
100
AcDbCircle
 10
-2.34231077700003
 20
2.490475038081677
 30
0.0
 40
0.0312000000000006
100
AcDbArc
 50
44.99999999999308
 51
164.9999999999944
  0
LINE
  5
169
330
2
100
AcDbEntity
  8
0
100
AcDbLine
 10
-2.372447662780248
 20
2.498550192288878
 30
0.0
 11
-2.442201234514927
 21
2.238226318565676
 31
0.0
  0
ARC
  5
16A
330
2
100
AcDbEntity
  8
0
100
AcDbCircle
 10
-2.41206434873471
 20
2.230151164358476
 30
0.0
 40
0.0311999999999992
100
AcDbArc
 50
164.9999999999975
 51
284.9999999999962
  0
LINE
  5
16B
330
2
100
AcDbEntity
  8
0
100
AcDbLine
 10
-2.403989194527513
 20
3.335165807602268
 30
0.0
 11
-2.143665320804308
 21
3.404919379336933
 31
0.0
  0
ARC
  5
16C
330
2
100
AcDbEntity
  8
0
100
AcDbCircle
 10
-2.151740475011502
 20
3.435056265117153
 30
0.0
 40
0.0311999999999995
100
AcDbArc
 50
284.9999999999922
 51
44.99999999999539
  0
LINE
  5
16D
330
2
100
AcDbEntity
  8
0
100
AcDbLine
 10
-2.129678743438481
 20
3.457117996690171
 30
0.0
 11
-2.320249045427007
 21
3.647688298678704
 31
0.0
  0
ARC
  5
16E
330
2
100
AcDbEntity
  8
0
100
AcDbCircle
 10
-2.34231077700003
 20
3.625626567105686
 30
0.0
 40
0.0312000000000006
100
AcDbArc
 50
44.99999999999308
 51
164.9999999999944
  0
LINE
  5
16F
330
2
100
AcDbEntity
  8
0
100
AcDbLine
 10
-2.372447662780248
 20
3.633701721312887
 30
0.0
 11
-2.442201234514927
 21
3.373377847589685
 31
0.0
  0
ARC
  5
170
330
2
100
AcDbEntity
  8
0
100
AcDbCircle
 10
-2.41206434873471
 20
3.365302693382485
 30
0.0
 40
0.0311999999999992
100
AcDbArc
 50
164.9999999999975
 51
284.9999999999962
  0
LINE
  5
171
330
2
100
AcDbEntity
  8
0
100
AcDbLine
 10
2.391145448386437
 20
8.597445340949093
 30
0.0
 11
2.321391876651765
 21
8.337121467225892
 31
0.0
  0
ARC
  5
172
330
2
100
AcDbEntity
  8
0
100
AcDbCircle
 10
2.291254990871543
 20
8.34519662143309
 30
0.0
 40
0.0312000000000021
100
AcDbArc
 50
225.0000000000069
 51
345.0000000000023
  0
LINE
  5
173
330
2
100
AcDbEntity
  8
0
100
AcDbLine
 10
2.269193259298524
 20
8.323134889860064
 30
0.0
 11
2.078622957309998
 21
8.513705191848594
 31
0.0
  0
ARC
  5
174
330
2
100
AcDbEntity
  8
0
100
AcDbCircle
 10
2.100684688883018
 20
8.535766923421615
 30
0.0
 40
0.0312000000000006
100
AcDbArc
 50
105.0000000000016
 51
225.0000000000023
  0
LINE
  5
175
330
2
100
AcDbEntity
  8
0
100
AcDbLine
 10
2.092609534675818
 20
8.565903809201835
 30
0.0
 11
2.352933408399023
 21
8.635657380936507
 31
0.0
  0
ARC
  5
176
330
2
100
AcDbEntity
  8
0
100
AcDbCircle
 10
2.361008562606221
 20
8.605520495156291
 30
0.0
 40
0.031199999999997
100
AcDbArc
 50
344.9999999999998
 51
105.0000000000002
  0
LINE
  5
177
330
2
100
AcDbEntity
  8
0
100
AcDbLine
 10
-2.403989194527513
 20
8.383027920768441
 30
0.0
 11
-2.143665320804308
 21
8.452781492503107
 31
0.0
  0
ARC
  5
178
330
2
100
AcDbEntity
  8
0
100
AcDbCircle
 10
-2.151740475011504
 20
8.48291837828333
 30
0.0
 40
0.0312000000000034
100
AcDbArc
 50
284.9999999999936
 51
44.99999999999308
  0
LINE
  5
179
330
2
100
AcDbEntity
  8
0
100
AcDbLine
 10
-2.129678743438481
 20
8.504980109856348
 30
0.0
 11
-2.320249045427007
 21
8.695550411844877
 31
0.0
  0
ARC
  5
17A
330
2
100
AcDbEntity
  8
0
100
AcDbCircle
 10
-2.34231077700003
 20
8.673488680271859
 30
0.0
 40
0.0312000000000006
100
AcDbArc
 50
44.99999999999308
 51
164.9999999999881
  0
LINE
  5
17B
330
2
100
AcDbEntity
  8
0
100
AcDbLine
 10
-2.372447662780248
 20
8.681563834479064
 30
0.0
 11
-2.442201234514927
 21
8.421239960755862
 31
0.0
  0
ARC
  5
17C
330
2
100
AcDbEntity
  8
0
100
AcDbCircle
 10
-2.41206434873471
 20
8.413164806548661
 30
0.0
 40
0.0311999999999996
100
AcDbArc
 50
164.9999999999944
 51
284.9999999999953
  0
LINE
  5
17D
330
2
100
AcDbEntity
  8
0
100
AcDbLine
 10
9.024231029363307
 20
4.185360160823635
 30
0.0
 11
8.954477457628634
 21
3.925036287100433
 31
0.0
  0
ARC
  5
17E
330
2
100
AcDbEntity
  8
0
100
AcDbCircle
 10
8.924340571848411
 20
3.933111441307629
 30
0.0
 40
0.0312000000000034
100
AcDbArc
 50
225.0000000000069
 51
345.0000000000064
  0
LINE
  5
17F
330
2
100
AcDbEntity
  8
0
100
AcDbLine
 10
8.902278840275393
 20
3.911049709734606
 30
0.0
 11
8.711708538286864
 21
4.101620011723135
 31
0.0
  0
ARC
  5
180
330
2
100
AcDbEntity
  8
0
100
AcDbCircle
 10
8.733770269859889
 20
4.123681743296155
 30
0.0
 40
0.0312000000000031
100
AcDbArc
 50
104.9999999999976
 51
224.9999999999931
  0
LINE
  5
181
330
2
100
AcDbEntity
  8
0
100
AcDbLine
 10
8.725695115652691
 20
4.153818629076376
 30
0.0
 11
8.986018989375893
 21
4.223572200811049
 31
0.0
  0
ARC
  5
182
330
2
100
AcDbEntity
  8
0
100
AcDbCircle
 10
8.994094143583091
 20
4.193435315030833
 30
0.0
 40
0.031199999999997
100
AcDbArc
 50
344.9999999999998
 51
105.0000000000002
  0
LINE
  5
183
330
2
100
AcDbEntity
  8
0
100
AcDbLine
 10
9.024231029363307
 20
7.972236636125587
 30
0.0
 11
8.954477457628634
 21
7.711912762402385
 31
0.0
  0
ARC
  5
184
330
2
100
AcDbEntity
  8
0
100
AcDbCircle
 10
8.924340571848411
 20
7.719987916609583
 30
0.0
 40
0.0312000000000039
100
AcDbArc
 50
225.0000000000092
 51
345.0000000000032
  0
LINE
  5
185
330
2
100
AcDbEntity
  8
0
100
AcDbLine
 10
8.902278840275393
 20
7.697926185036558
 30
0.0
 11
8.711708538286864
 21
7.888496487025087
 31
0.0
  0
ARC
  5
186
330
2
100
AcDbEntity
  8
0
100
AcDbCircle
 10
8.733770269859889
 20
7.910558218598105
 30
0.0
 40
0.0312000000000019
100
AcDbArc
 50
104.9999999999968
 51
224.9999999999908
  0
LINE
  5
187
330
2
100
AcDbEntity
  8
0
100
AcDbLine
 10
8.725695115652691
 20
7.940695104378328
 30
0.0
 11
8.986018989375893
 21
8.010448676113001
 31
0.0
  0
ARC
  5
188
330
2
100
AcDbEntity
  8
0
100
AcDbCircle
 10
8.994094143583091
 20
7.980311790332785
 30
0.0
 40
0.031199999999997
100
AcDbArc
 50
344.9999999999998
 51
105.0000000000002
  0
LINE
  5
18D
330
2
100
AcDbEntity
  8
0
100
AcDbLine
 10
-8.554934738955003
 20
13.76536447903315
 30
0.0
 11
-8.554934738955003
 21
2.137840000000002
 31
0.0
  0
LINE
  5
18E
330
2
100
AcDbEntity
  8
0
100
AcDbLine
 10
-9.492438738955
 20
3.062379999999999
 30
0.0
 11
-9.492438738955
 21
13.76519447903314
 31
0.0
  0
LINE
  5
18F
330
2
100
AcDbEntity
  8
0
100
AcDbLine
 10
-9.598394738954999
 20
0.4332599999999989
 30
0.0
 11
-9.598394738954999
 21
13.76519447903314
 31
0.0
  0
LINE
  5
190
330
2
100
AcDbEntity
  8
0
100
AcDbLine
 10
-8.554934738955003
 20
2.137840000000002
 30
0.0
 11
-7.500744738954998
 21
0.3893199999999997
 31
0.0
  0
LINE
  5
191
330
2
100
AcDbEntity
  8
0
100
AcDbLine
 10
-9.492438738955
 20
0.4332599999999989
 30
0.0
 11
-9.492438738955
 21
2.927760000000001
 31
0.0
  0
CIRCLE
  5
192
330
2
100
AcDbEntity
  8
0
100
AcDbCircle
 10
-8.898784738954999
 20
1.475238777973168
 30
0.0
 40
0.109
  0
LINE
  5
193
330
2
100
AcDbEntity
  8
0
  6
HIDDEN
100
AcDbLine
 10
-7.500744738954998
 20
0.0830099999999998
 30
0.0
 11
-9.492438738955
 21
0.0830099999999998
 31
0.0
  0
LINE
  5
194
330
2
100
AcDbEntity
  8
0
100
AcDbLine
 10
-7.500744738954998
 20
0.0205099999999998
 30
0.0
 11
-9.492438738955
 21
0.0205099999999998
 31
0.0
  0
LINE
  5
195
330
2
100
AcDbEntity
  8
0
100
AcDbLine
 10
-7.500744738954998
 20
0.0205099999999998
 30
0.0
 11
-7.500744738954998
 21
0.3893199999999997
 31
0.0
  0
LINE
  5
196
330
2
100
AcDbEntity
  8
0
100
AcDbLine
 10
-9.492438738955
 20
0.4332599999999989
 30
0.0
 11
-9.492438738955
 21
0.0203499999999988
 31
0.0
  0
LINE
  5
197
330
2
100
AcDbEntity
  8
0
100
AcDbLine
 10
-9.492438738955
 20
0.4332599999999989
 30
0.0
 11
-9.598394738954999
 21
0.4332599999999989
 31
0.0
  0
ARC
  5
199
330
2
100
AcDbEntity
  8
0
100
AcDbCircle
 10
-8.931226497977788
 20
4.525848922634109
 30
0.0
 40
0.0312000000000034
100
AcDbArc
 50
194.9999999999936
 51
314.9999999999931
  0
LINE
  5
19A
330
2
100
AcDbEntity
  8
0
100
AcDbLine
 10
-8.732581041782067
 20
4.746556110402857
 30
0.0
 11
-8.992904915505269
 21
4.816309682137529
 31
0.0
  0
CIRCLE
  5
19C
330
2
100
AcDbEntity
  8
0
100
AcDbCircle
 10
-8.898784738954999
 20
2.343465303022548
 30
0.0
 40
0.109
  0
LINE
  5
1A0
330
2
100
AcDbEntity
  8
0
100
AcDbLine
 10
-8.90916476640477
 20
4.503787191061086
 30
0.0
 11
-8.71859446441624
 21
4.694357493049616
 31
0.0
  0
ARC
  5
1A1
330
2
100
AcDbEntity
  8
0
100
AcDbCircle
 10
-8.740656195989265
 20
4.716419224622635
 30
0.0
 40
0.0312000000000031
100
AcDbArc
 50
315.0000000000069
 51
75.00000000000237
  0
ARC
  5
1A3
330
2
100
AcDbEntity
  8
0
100
AcDbCircle
 10
-9.49572269206203
 20
2.579370001014565
 30
0.0
 40
0.156
100
AcDbArc
 50
270.0
 51
90.0
  0
LINE
  5
1A4
330
2
100
AcDbEntity
  8
0
100
AcDbLine
 10
-9.492438738955
 20
3.07672
 30
0.0
 11
-9.492438738955
 21
2.900379999999997
 31
0.0
  0
LINE
  5
1A5
330
2
100
AcDbEntity
  8
0
100
AcDbLine
 10
-9.031116955492683
 20
4.778097642150115
 30
0.0
 11
-8.961363383758011
 21
4.517773768426913
 31
0.0
  0
ARC
  5
1A6
330
2
100
AcDbEntity
  8
0
100
AcDbCircle
 10
-9.000980069712467
 20
4.786172796357313
 30
0.0
 40
0.031199999999997
100
AcDbArc
 50
74.99999999999986
 51
195.0000000000002
  0
ARC
  5
1AA
330
2
100
AcDbEntity
  8
0
100
AcDbCircle
 10
-8.931226497977788
 20
8.235411806706736
 30
0.0
 40
0.0312000000000039
100
AcDbArc
 50
194.9999999999968
 51
314.9999999999908
  0
LINE
  5
1AB
330
2
100
AcDbEntity
  8
0
100
AcDbLine
 10
-8.732581041782067
 20
8.456118994475482
 30
0.0
 11
-8.992904915505269
 21
8.525872566210154
 31
0.0
  0
CIRCLE
  5
1AD
330
2
100
AcDbEntity
  8
0
100
AcDbCircle
 10
-8.898784738954999
 20
5.992242864874701
 30
0.0
 40
0.109
  0
ARC
  5
1AF
330
2
100
AcDbEntity
  8
0
100
AcDbCircle
 10
-8.740656195989265
 20
8.425982108695258
 30
0.0
 40
0.0312000000000019
100
AcDbArc
 50
315.0000000000093
 51
75.00000000000324
  0
LINE
  5
1B0
330
2
100
AcDbEntity
  8
0
100
AcDbLine
 10
-8.90916476640477
 20
8.213350075133711
 30
0.0
 11
-8.71859446441624
 21
8.40392037712224
 31
0.0
  0
LINE
  5
1B3
330
2
100
AcDbEntity
  8
0
100
AcDbLine
 10
-9.031116955492683
 20
8.48766052622274
 30
0.0
 11
-8.961363383758011
 21
8.227336652499538
 31
0.0
  0
ARC
  5
1B4
330
2
100
AcDbEntity
  8
0
100
AcDbCircle
 10
-9.000980069712467
 20
8.495735680429938
 30
0.0
 40
0.031199999999997
100
AcDbArc
 50
74.99999999999986
 51
195.0000000000002
  0
LINE
  5
1B5
330
2
100
AcDbEntity
  8
0
100
AcDbLine
 10
-9.492438738955
 20
13.76536447903315
 30
0.0
 11
-8.554934738955003
 21
13.76536447903315
 31
0.0
  0
CIRCLE
  5
1B6
330
2
100
AcDbEntity
  8
0
100
AcDbCircle
 10
-8.898784738954999
 20
10.41946037431045
 30
0.0
 40
0.109
  0
LINE
  5
1B7
330
2
100
AcDbEntity
  8
0
100
AcDbLine
 10
-9.598394738954999
 20
13.76519447903314
 30
0.0
 11
-9.492438738955
 21
13.76519447903314
 31
0.0
  0
ENDSEC
  0
SECTION
  2
OBJECTS
  0
DICTIONARY
  5
9
330
0
100
AcDbDictionary
281
     1
  3
ACAD_COLOR
350
1BB
  3
ACAD_GROUP
350
23
  3
ACAD_LAYOUT
350
D
  3
ACAD_MATERIAL
350
1BA
  3
ACAD_MLINESTYLE
350
24
  3
ACAD_PLOTSETTINGS
350
25
  3
ACAD_PLOTSTYLENAME
350
8
  3
ACAD_TABLESTYLE
350
1BC
  3
ACDBHEADERROUNDTRIPXREC
350
1CC
  3
AcDbVariableDictionary
350
CA
  0
DICTIONARY
  5
1BB
102
{ACAD_REACTORS
330
9
102
}
330
9
100
AcDbDictionary
281
     1
  0
DICTIONARY
  5
23
102
{ACAD_REACTORS
330
9
102
}
330
9
100
AcDbDictionary
281
     1
  0
DICTIONARY
  5
D
102
{ACAD_REACTORS
330
9
102
}
330
9
100
AcDbDictionary
281
     1
  3
Layout1
350
13
  3
Model
350
C
  0
DICTIONARY
  5
1BA
102
{ACAD_REACTORS
330
9
102
}
330
9
100
AcDbDictionary
281
     1
  0
DICTIONARY
  5
24
102
{ACAD_REACTORS
330
9
102
}
330
9
100
AcDbDictionary
281
     1
  3
STANDARD
350
27
  0
DICTIONARY
  5
25
102
{ACAD_REACTORS
330
9
102
}
330
9
100
AcDbDictionary
281
     1
  0
ACDBDICTIONARYWDFLT
  5
8
102
{ACAD_REACTORS
330
9
102
}
330
9
100
AcDbDictionary
281
     1
  3
Normal
350
7
100
AcDbDictionaryWithDefault
340
7
  0
DICTIONARY
  5
1BC
102
{ACAD_REACTORS
330
9
102
}
330
9
100
AcDbDictionary
281
     1
  3
Standard
350
1BD
  0
DICTIONARY
  5
1CC
102
{ACAD_REACTORS
330
9
102
}
330
9
100
AcDbDictionary
281
     1
  3
COLORDICT
350
1CD
  3
MATERIALDICT
350
1CE
  0
DICTIONARY
  5
CA
102
{ACAD_REACTORS
330
9
102
}
330
9
100
AcDbDictionary
281
     1
  3
CTABLESTYLE
350
1C9
  3
HIDETEXT
350
1CB
  0
LAYOUT
  5
13
102
{ACAD_REACTORS
330
D
102
}
102
{ACAD_XDICTIONARY
360
1CF
102
}
330
D
100
AcDbPlotSettings
  1

  2
C:\ACAD2000\plotters\HP LaserJet 2100 Series PS.pc3
  4

  6

 40
0.0
 41
0.0
 42
0.0
 43
0.0
 44
0.0
 45
0.0
 46
0.0
 47
0.0
 48
0.0
 49
0.0
140
0.0
141
0.0
142
1.0
143
1.0
 70
   688
 72
     0
 73
     0
 74
     5
  7

 75
    16
147
1.0
148
0.0
149
0.0
100
AcDbLayout
  1
Layout1
 70
     0
 71
     1
 10
0.0
 20
0.0
 11
12.0
 21
9.0
 12
0.0
 22
0.0
 32
0.0
 14
1.000000000000000E+20
 24
1.000000000000000E+20
 34
1.000000000000000E+20
 15
-1.000000000000000E+20
 25
-1.000000000000000E+20
 35
-1.000000000000000E+20
146
0.0
 13
0.0
 23
0.0
 33
0.0
 16
1.0
 26
0.0
 36
0.0
 17
0.0
 27
1.0
 37
0.0
 76
     0
330
E
  0
LAYOUT
  5
C
102
{ACAD_REACTORS
330
D
102
}
102
{ACAD_XDICTIONARY
360
1D1
102
}
330
D
100
AcDbPlotSettings
  1

  2
HP LaserJet 2100 Series PS
  4
Letter
  6

 40
3.174999952316284
 41
3.174999952316284
 42
3.175003051757813
 43
3.17498779296875
 44
215.9000091552734
 45
279.3999938964844
 46
0.0
 47
0.0
 48
0.0
 49
0.0
140
0.0
141
0.0
142
1.0
143
5.098484698822257
 70
 28336
 72
     0
 73
     1
 74
     2
  7

 75
     0
147
0.1961367070947567
148
0.0
149
0.0
100
AcDbLayout
  1
Model
 70
     1
 71
     0
 10
0.0
 20
0.0
 11
12.0
 21
9.0
 12
0.0
 22
0.0
 32
0.0
 14
0.0
 24
0.0
 34
0.0
 15
0.0
 25
0.0
 35
0.0
146
0.0
 13
0.0
 23
0.0
 33
0.0
 16
1.0
 26
0.0
 36
0.0
 17
0.0
 27
1.0
 37
0.0
 76
     0
330
2
  0
MLINESTYLE
  5
27
102
{ACAD_REACTORS
330
24
102
}
330
24
100
AcDbMlineStyle
  2
STANDARD
 70
     0
  3

 62
   256
 51
90.0
 52
90.0
 71
     2
 49
0.5
 62
   256
  6
BYLAYER
 49
-0.5
 62
   256
  6
BYLAYER
  0
ACDBPLACEHOLDER
  5
7
102
{ACAD_REACTORS
330
8
102
}
330
8
  0
ACAD_PROXY_OBJECT
  5
1BD
102
{ACAD_REACTORS
330
1BC
102
}
330
1BC
100
AcDbProxyObject
 90
      499
 91
      513
 95
   983063
 70
     0
 93
     1841
310
4214DD185B99185C9928B81E85EB51B8AE3F2E07A17AD46E2B8FC02B5E8DC0F42B1CFD028000000C1008070000C3001FDFF8000000C1003FBFF000000182007F7FE00000030400FEFFC00000060801FDFF8000000C1003FBFF00000018200000000000000681FA0B0000001820100E000186003FBFF000000182007F7FE000
310
00030400FEFFC00000060801FDFF8000000C1003FBFF000000182007F7FE000000304000AD7A3703D0AC73F4160000003040201C00030C007F7FE00000030400FEFFC00000060801FDFF8000000C1003FBFF000000182007F7FE00000030400FEFFC000000608000
340
16
340
16
340
16
 94
        0
  0
XRECORD
  5
1CD
102
{ACAD_REACTORS
330
1CC
102
}
330
1CC
100
AcDbXrecord
340
1BB
  0
XRECORD
  5
1CE
102
{ACAD_REACTORS
330
1CC
102
}
330
1CC
100
AcDbXrecord
340
1BA
  0
DICTIONARYVAR
  5
1C9
102
{ACAD_REACTORS
330
CA
102
}
330
CA
100
DictionaryVariables
280
     0
  1
STANDARD
  0
DICTIONARYVAR
  5
1CB
102
{ACAD_REACTORS
330
CA
102
}
330
CA
100
DictionaryVariables
280
     0
  1
0
  0
DICTIONARY
  5
1CF
330
13
100
AcDbDictionary
280
     1
281
     1
  3
ACAD_XREC_ROUNDTRIP
360
1D0
  0
DICTIONARY
  5
1D1
330
C
100
AcDbDictionary
280
     1
281
     1
  3
ACAD_XREC_ROUNDTRIP
360
1D2
  0
XRECORD
  5
1D0
102
{ACAD_REACTORS
330
1CF
102
}
330
1CF
100
AcDbXrecord
102
SHADEPLOT
 70
     0
102
SHADEPLOTRESLEVEL
 70
     2
102
SHADEPLOTCUSTOMDPI
 70
   300
  0
XRECORD
  5
1D2
102
{ACAD_REACTORS
330
1D1
102
}
330
1D1
100
AcDbXrecord
102
SHADEPLOT
 70
     0
102
SHADEPLOTRESLEVEL
 70
     2
102
SHADEPLOTCUSTOMDPI
 70
   300
  0
ENDSEC
  0
EOF
