  0
SECTION
  2
HEADER
  9
$ACADVER
  1
AC1015
  9
$ACADMAINTVER
 70
     6
  9
$DWGCODEPAGE
  3
ANSI_1252
  9
$INSBASE
 10
0.0
 20
0.0
 30
0.0
  9
$EXTMIN
 10
-10.60101454017138
 20
-0.0542022137427693
 30
-0.0000000000112498
  9
$EXTMAX
 10
10.59975142641225
 20
12.68912591879473
 30
0.0000000000002956
  9
$LIMMIN
 10
0.0
 20
0.0
  9
$LIMMAX
 10
42.0
 20
32.0
  9
$ORTHOMODE
 70
     1
  9
$REGENMODE
 70
     1
  9
$FILLMODE
 70
     1
  9
$QTEXTMODE
 70
     0
  9
$MIRRTEXT
 70
     0
  9
$LTSCALE
 40
1.0
  9
$ATTMODE
 70
     1
  9
$TEXTSIZE
 40
0.3600000000000039
  9
$TRACEWID
 40
0.05
  9
$TEXTSTYLE
  7
STANDARD
  9
$CLAYER
  8
0
  9
$CELTYPE
  6
ByLayer
  9
$CECOLOR
 62
   256
  9
$CELTSCALE
 40
1.0
  9
$DISPSILH
 70
     0
  9
$DIMSCALE
 40
4.000000000000049
  9
$DIMASZ
 40
0.125
  9
$DIMEXO
 40
0.062
  9
$DIMDLI
 40
0.375
  9
$DIMRND
 40
0.0
  9
$DIMDLE
 40
0.0
  9
$DIMEXE
 40
0.08
  9
$DIMTP
 40
0.0
  9
$DIMTM
 40
0.0
  9
$DIMTXT
 40
0.09
  9
$DIMCEN
 40
-0.03125
  9
$DIMTSZ
 40
0.0
  9
$DIMTOL
 70
     0
  9
$DIMLIM
 70
     0
  9
$DIMTIH
 70
     1
  9
$DIMTOH
 70
     1
  9
$DIMSE1
 70
     0
  9
$DIMSE2
 70
     0
  9
$DIMTAD
 70
     0
  9
$DIMZIN
 70
     0
  9
$DIMBLK
  1

  9
$DIMASO
 70
     0
  9
$DIMSHO
 70
     0
  9
$DIMPOST
  1

  9
$DIMAPOST
  1

  9
$DIMALT
 70
     0
  9
$DIMALTD
 70
     2
  9
$DIMALTF
 40
25.4
  9
$DIMLFAC
 40
1.0
  9
$DIMTOFL
 70
     0
  9
$DIMTVP
 40
0.0
  9
$DIMTIX
 70
     0
  9
$DIMSOXD
 70
     0
  9
$DIMSAH
 70
     0
  9
$DIMBLK1
  1

  9
$DIMBLK2
  1

  9
$DIMSTYLE
  2
Standard
  9
$DIMCLRD
 70
     0
  9
$DIMCLRE
 70
     0
  9
$DIMCLRT
 70
     0
  9
$DIMTFAC
 40
1.0
  9
$DIMGAP
 40
0.09
  9
$DIMJUST
 70
     0
  9
$DIMSD1
 70
     0
  9
$DIMSD2
 70
     0
  9
$DIMTOLJ
 70
     1
  9
$DIMTZIN
 70
     0
  9
$DIMALTZ
 70
     0
  9
$DIMALTTZ
 70
     0
  9
$DIMUPT
 70
     0
  9
$DIMDEC
 70
     5
  9
$DIMTDEC
 70
     5
  9
$DIMALTU
 70
     5
  9
$DIMALTTD
 70
     2
  9
$DIMTXSTY
  7
STANDARD
  9
$DIMAUNIT
 70
     0
  9
$DIMADEC
 70
     0
  9
$DIMALTRND
 40
0.0
  9
$DIMAZIN
 70
     0
  9
$DIMDSEP
 70
    46
  9
$DIMATFIT
 70
     3
  9
$DIMFRAC
 70
     0
  9
$DIMLDRBLK
  1

  9
$DIMLUNIT
 70
     5
  9
$DIMLWD
 70
    -2
  9
$DIMLWE
 70
    -2
  9
$DIMTMOVE
 70
     2
  9
$LUNITS
 70
     5
  9
$LUPREC
 70
     5
  9
$SKETCHINC
 40
0.1
  9
$FILLETRAD
 40
0.0
  9
$AUNITS
 70
     0
  9
$AUPREC
 70
     0
  9
$MENU
  1
acad
  9
$ELEVATION
 40
0.0
  9
$PELEVATION
 40
0.0
  9
$THICKNESS
 40
0.0
  9
$LIMCHECK
 70
     0
  9
$CHAMFERA
 40
0.0
  9
$CHAMFERB
 40
0.0
  9
$CHAMFERC
 40
0.0
  9
$CHAMFERD
 40
0.0
  9
$SKPOLY
 70
     0
  9
$TDCREATE
 40
2449787.902330903
  9
$TDUCREATE
 40
2449788.235664236
  9
$TDUPDATE
 40
2454167.969695625
  9
$TDUUPDATE
 40
2454168.303028958
  9
$TDINDWG
 40
0.0792143171
  9
$TDUSRTIMER
 40
0.0792143171
  9
$USRTIMER
 70
     1
  9
$ANGBASE
 50
0.0
  9
$ANGDIR
 70
     0
  9
$PDMODE
 70
     0
  9
$PDSIZE
 40
0.0
  9
$PLINEWID
 40
0.0
  9
$SPLFRAME
 70
     0
  9
$SPLINETYPE
 70
     6
  9
$SPLINESEGS
 70
     8
  9
$HANDSEED
  5
112
  9
$SURFTAB1
 70
     6
  9
$SURFTAB2
 70
     6
  9
$SURFTYPE
 70
     6
  9
$SURFU
 70
     6
  9
$SURFV
 70
     6
  9
$UCSBASE
  2

  9
$UCSNAME
  2

  9
$UCSORG
 10
0.0
 20
0.0
 30
0.0
  9
$UCSXDIR
 10
1.0
 20
0.0
 30
0.0
  9
$UCSYDIR
 10
0.0
 20
1.0
 30
0.0
  9
$UCSORTHOREF
  2

  9
$UCSORTHOVIEW
 70
     0
  9
$UCSORGTOP
 10
0.0
 20
0.0
 30
0.0
  9
$UCSORGBOTTOM
 10
0.0
 20
0.0
 30
0.0
  9
$UCSORGLEFT
 10
0.0
 20
0.0
 30
0.0
  9
$UCSORGRIGHT
 10
0.0
 20
0.0
 30
0.0
  9
$UCSORGFRONT
 10
0.0
 20
0.0
 30
0.0
  9
$UCSORGBACK
 10
0.0
 20
0.0
 30
0.0
  9
$PUCSBASE
  2

  9
$PUCSNAME
  2

  9
$PUCSORG
 10
0.0
 20
0.0
 30
0.0
  9
$PUCSXDIR
 10
1.0
 20
0.0
 30
0.0
  9
$PUCSYDIR
 10
0.0
 20
1.0
 30
0.0
  9
$PUCSORTHOREF
  2

  9
$PUCSORTHOVIEW
 70
     0
  9
$PUCSORGTOP
 10
0.0
 20
0.0
 30
0.0
  9
$PUCSORGBOTTOM
 10
0.0
 20
0.0
 30
0.0
  9
$PUCSORGLEFT
 10
0.0
 20
0.0
 30
0.0
  9
$PUCSORGRIGHT
 10
0.0
 20
0.0
 30
0.0
  9
$PUCSORGFRONT
 10
0.0
 20
0.0
 30
0.0
  9
$PUCSORGBACK
 10
0.0
 20
0.0
 30
0.0
  9
$USERI1
 70
     0
  9
$USERI2
 70
     0
  9
$USERI3
 70
     0
  9
$USERI4
 70
     0
  9
$USERI5
 70
     0
  9
$USERR1
 40
0.0
  9
$USERR2
 40
0.0
  9
$USERR3
 40
0.0
  9
$USERR4
 40
0.0
  9
$USERR5
 40
0.0
  9
$WORLDVIEW
 70
     1
  9
$SHADEDGE
 70
     3
  9
$SHADEDIF
 70
    70
  9
$TILEMODE
 70
     1
  9
$MAXACTVP
 70
    16
  9
$PINSBASE
 10
0.0
 20
0.0
 30
0.0
  9
$PLIMCHECK
 70
     0
  9
$PEXTMIN
 10
1.000000000000000E+20
 20
1.000000000000000E+20
 30
1.000000000000000E+20
  9
$PEXTMAX
 10
-1.000000000000000E+20
 20
-1.000000000000000E+20
 30
-1.000000000000000E+20
  9
$PLIMMIN
 10
0.0
 20
0.0
  9
$PLIMMAX
 10
12.0
 20
9.0
  9
$UNITMODE
 70
     0
  9
$VISRETAIN
 70
     0
  9
$PLINEGEN
 70
     1
  9
$PSLTSCALE
 70
     0
  9
$TREEDEPTH
 70
  3020
  9
$CMLSTYLE
  2
Standard
  9
$CMLJUST
 70
     0
  9
$CMLSCALE
 40
1.0
  9
$PROXYGRAPHICS
 70
     1
  9
$MEASUREMENT
 70
     0
  9
$CELWEIGHT
370
    -1
  9
$ENDCAPS
280
     0
  9
$JOINSTYLE
280
     0
  9
$LWDISPLAY
290
     0
  9
$INSUNITS
 70
     0
  9
$HYPERLINKBASE
  1

  9
$STYLESHEET
  1

  9
$XEDIT
290
     1
  9
$CEPSNTYPE
380
     0
  9
$PSTYLEMODE
290
     1
  9
$FINGERPRINTGUID
  2
{0B993C6E-034D-48C0-8146-4A1684403261}
  9
$VERSIONGUID
  2
{E5988A26-C429-4531-93A4-E44C2AAACE51}
  9
$EXTNAMES
290
     1
  9
$PSVPSCALE
 40
0.0
  9
$OLESTARTUP
290
     0
  0
ENDSEC
  0
SECTION
  2
CLASSES
  0
CLASS
  1
ACDBDICTIONARYWDFLT
  2
AcDbDictionaryWithDefault
  3
AutoCAD 2000
 90
        0
280
     0
281
     0
  0
CLASS
  1
ACDBPLACEHOLDER
  2
AcDbPlaceHolder
  3
ObjectDBX Classes
 90
        0
280
     0
281
     0
  0
CLASS
  1
LAYOUT
  2
AcDbLayout
  3
ObjectDBX Classes
 90
        0
280
     0
281
     0
  0
CLASS
  1
DICTIONARYVAR
  2
AcDbDictionaryVar
  3
AutoCAD 2000
 90
        0
280
     0
281
     0
  0
CLASS
  1
TABLESTYLE
  2
AcDbTableStyle
  3
ObjectDBX Classes
 90
     2047
280
     1
281
     0
  0
ENDSEC
  0
SECTION
  2
TABLES
  0
TABLE
  2
VPORT
  5
19
330
0
100
AcDbSymbolTable
 70
     2
  0
VPORT
  5
102
330
19
100
AcDbSymbolTableRecord
100
AcDbViewportTableRecord
  2
*Active
 70
     0
 10
0.0
 20
0.0
 11
1.0
 21
1.0
 12
15.69949272991431
 22
15.97289889312862
 13
0.0
 23
0.0
 14
0.03125
 24
0.03125
 15
0.03125
 25
0.03125
 16
0.0
 26
0.0
 36
1.0
 17
0.0
 27
0.0
 37
0.0
 40
32.45404673200152
 41
1.814583333333333
 42
50.0
 43
0.0
 44
0.0
 50
0.0
 51
0.0
 71
     0
 72
   100
 73
     1
 74
     0
 75
     0
 76
     0
 77
     0
 78
     0
281
     0
 65
     1
110
0.0
120
0.0
130
0.0
111
1.0
121
0.0
131
0.0
112
0.0
122
1.0
132
0.0
 79
     0
146
0.0
  0
ENDTAB
  0
TABLE
  2
LTYPE
  5
14
330
0
100
AcDbSymbolTable
 70
     2
  0
LTYPE
  5
15
330
14
100
AcDbSymbolTableRecord
100
AcDbLinetypeTableRecord
  2
ByBlock
 70
     0
  3

 72
    65
 73
     0
 40
0.0
  0
LTYPE
  5
16
330
14
100
AcDbSymbolTableRecord
100
AcDbLinetypeTableRecord
  2
ByLayer
 70
     0
  3

 72
    65
 73
     0
 40
0.0
  0
LTYPE
  5
8
330
14
100
AcDbSymbolTableRecord
100
AcDbLinetypeTableRecord
  2
CONTINUOUS
 70
     0
  3
Solid line
 72
    65
 73
     0
 40
0.0
  0
LTYPE
  5
101
330
14
100
AcDbSymbolTableRecord
100
AcDbLinetypeTableRecord
  2
HIDDEN
 70
     0
  3
Hidden __ __ __ __ __ __ __ __ __ __ __ __ __ _
 72
    65
 73
     2
 40
0.375
 49
0.25
 74
     0
 49
-0.125
 74
     0
  0
ENDTAB
  0
TABLE
  2
LAYER
  5
10
330
0
100
AcDbSymbolTable
 70
     2
  0
LAYER
  5
4
330
10
100
AcDbSymbolTableRecord
100
AcDbLayerTableRecord
  2
0
 70
     0
 62
     7
  6
CONTINUOUS
370
    -3
390
5
  0
ENDTAB
  0
TABLE
  2
STYLE
  5
11
330
0
100
AcDbSymbolTable
 70
     2
  0
STYLE
  5
12
330
11
100
AcDbSymbolTableRecord
100
AcDbTextStyleTableRecord
  2
STANDARD
 70
     0
 40
0.0
 41
1.0
 50
0.0
 71
     0
 42
0.3600000000000039
  3
TXT
  4

  0
ENDTAB
  0
TABLE
  2
VIEW
  5
17
330
0
100
AcDbSymbolTable
 70
     0
  0
ENDTAB
  0
TABLE
  2
UCS
  5
18
330
0
100
AcDbSymbolTable
 70
     0
  0
ENDTAB
  0
TABLE
  2
APPID
  5
1B
330
0
100
AcDbSymbolTable
 70
     1
  0
APPID
  5
1C
330
1B
100
AcDbSymbolTableRecord
100
AcDbRegAppTableRecord
  2
ACAD
 70
     0
  0
ENDTAB
  0
TABLE
  2
DIMSTYLE
  5
1D
330
0
100
AcDbSymbolTable
 70
     1
100
AcDbDimStyleTable
  0
DIMSTYLE
105
24
330
1D
100
AcDbSymbolTableRecord
100
AcDbDimStyleTableRecord
  2
Standard
 70
     0
  3

  4

340
12
  0
ENDTAB
  0
TABLE
  2
BLOCK_RECORD
  5
1
330
0
100
AcDbSymbolTable
 70
     0
  0
BLOCK_RECORD
  5
2
330
1
100
AcDbSymbolTableRecord
100
AcDbBlockTableRecord
  2
*Model_Space
340
A
  0
BLOCK_RECORD
  5
C
330
1
100
AcDbSymbolTableRecord
100
AcDbBlockTableRecord
  2
*Paper_Space
340
F
  0
ENDTAB
  0
ENDSEC
  0
SECTION
  2
BLOCKS
  0
BLOCK
  5
3
330
2
100
AcDbEntity
  8
0
100
AcDbBlockBegin
  2
*Model_Space
 70
     0
 10
0.0
 20
0.0
 30
0.0
  3
*Model_Space
  1

  4

  0
ENDBLK
  5
9
330
2
100
AcDbEntity
  8
0
100
AcDbBlockEnd
  0
BLOCK
  5
D
330
C
100
AcDbEntity
 67
     1
  8
0
100
AcDbBlockBegin
  2
*Paper_Space
 70
     0
 10
0.0
 20
0.0
 30
0.0
  3
*Paper_Space
  1

  4

  0
ENDBLK
  5
E
330
C
100
AcDbEntity
 67
     1
  8
0
100
AcDbBlockEnd
  0
ENDSEC
  0
SECTION
  2
ENTITIES
  0
LINE
  5
99
330
2
100
AcDbEntity
  8
0
100
AcDbLine
 10
-1.906250000000005
 20
3.6875
 30
0.0
 11
-1.906249999999998
 21
0.25
 31
0.0
  0
LINE
  5
9A
330
2
100
AcDbEntity
  8
0
100
AcDbLine
 10
1.906249999999998
 20
1.249949999999998
 30
0.0
 11
1.906249999999993
 21
3.6875
 31
0.0
  0
LINE
  5
9B
330
2
100
AcDbEntity
  8
0
100
AcDbLine
 10
-3.031250000000002
 20
3.6875
 30
0.0
 11
-3.031250000000002
 21
2.187500000000005
 31
0.0
  0
LINE
  5
9C
330
2
100
AcDbEntity
  8
0
100
AcDbLine
 10
3.031249999999995
 20
3.6875
 30
0.0
 11
3.031249999999995
 21
2.187500000000011
 31
0.0
  0
CIRCLE
  5
9D
330
2
100
AcDbEntity
  8
0
100
AcDbCircle
 10
-2.687499999999995
 20
2.9375
 30
0.0
 40
0.1093750000000025
  0
LINE
  5
9E
330
2
100
AcDbEntity
  8
0
100
AcDbLine
 10
-3.031249999999998
 20
2.1875
 30
0.0
 11
-2.031249999999998
 21
0.4375
 31
0.0
  0
LINE
  5
9F
330
2
100
AcDbEntity
  8
0
100
AcDbLine
 10
2.031249999999988
 20
0.4375
 30
0.0
 11
1.906249999999991
 21
0.4375
 31
0.0
  0
ARC
  5
A0
330
2
100
AcDbEntity
  8
0
100
AcDbCircle
 10
1.656249999999998
 20
0.25
 30
0.0
 40
0.25
100
AcDbArc
 50
270.0
 51
0.0
  0
LINE
  5
A1
330
2
100
AcDbEntity
  8
0
100
AcDbLine
 10
-1.781249999999995
 20
2.812499999999993
 30
0.0
 11
-1.781249999999995
 21
0.25
 31
0.0
  0
LINE
  5
A2
330
2
100
AcDbEntity
  8
0
100
AcDbLine
 10
1.781249999999998
 20
0.2500000000000018
 30
0.0
 11
1.781249999999998
 21
2.812500000000004
 31
0.0
  0
LINE
  5
A3
330
2
100
AcDbEntity
  8
0
100
AcDbLine
 10
1.906249999999998
 20
1.249949999999998
 30
0.0
 11
1.906249999999998
 21
0.25
 31
0.0
  0
LINE
  5
A4
330
2
100
AcDbEntity
  8
0
100
AcDbLine
 10
1.656249999999998
 20
0.0
 30
0.0
 11
-1.656249999999998
 21
0.0
 31
0.0
  0
LINE
  5
A5
330
2
100
AcDbEntity
  8
0
100
AcDbLine
 10
1.656249999999998
 20
0.1250000000000018
 30
0.0
 11
-1.656249999999995
 21
0.125
 31
0.0
  0
ARC
  5
A6
330
2
100
AcDbEntity
  8
0
100
AcDbCircle
 10
-1.656249999999998
 20
0.25
 30
0.0
 40
0.25
100
AcDbArc
 50
180.0
 51
269.9999999999999
  0
LINE
  5
A7
330
2
100
AcDbEntity
  8
0
100
AcDbLine
 10
-2.031249999999998
 20
0.4375
 30
0.0
 11
-1.906250000000002
 21
0.4375
 31
0.0
  0
LINE
  5
A8
330
2
100
AcDbEntity
  8
0
100
AcDbLine
 10
-1.906250000000005
 20
0.4375
 30
0.0
 11
-2.031249999999995
 21
0.4375
 31
0.0
  0
ARC
  5
A9
330
2
100
AcDbEntity
  8
0
100
AcDbCircle
 10
-1.656249999999995
 20
0.25
 30
0.0
 40
0.125
100
AcDbArc
 50
180.0
 51
269.9999999999999
  0
ARC
  5
AA
330
2
100
AcDbEntity
  8
0
100
AcDbCircle
 10
1.656249999999998
 20
0.2500000000000018
 30
0.0
 40
0.125
100
AcDbArc
 50
270.0
 51
0.0
  0
CIRCLE
  5
AB
330
2
100
AcDbEntity
  8
0
100
AcDbCircle
 10
-2.375000000000002
 20
2.0625
 30
0.0
 40
0.1093750000000025
  0
LINE
  5
AC
330
2
100
AcDbEntity
  8
0
100
AcDbLine
 10
-1.781250000000002
 20
2.812499999999993
 30
0.0
 11
-1.906250000000016
 21
2.812499999999996
 31
0.0
  0
LINE
  5
AD
330
2
100
AcDbEntity
  8
0
100
AcDbLine
 10
1.906249999999984
 20
2.8125
 30
0.0
 11
1.781249999999998
 21
2.812500000000004
 31
0.0
  0
LINE
  5
AE
330
2
100
AcDbEntity
  8
0
100
AcDbLine
 10
3.031249999999988
 20
2.1875
 30
0.0
 11
2.031249999999988
 21
0.4375
 31
0.0
  0
CIRCLE
  5
AF
330
2
100
AcDbEntity
  8
0
100
AcDbCircle
 10
2.375000000000005
 20
2.0625
 30
0.0
 40
0.1093750000000025
  0
CIRCLE
  5
B0
330
2
100
AcDbEntity
  8
0
100
AcDbCircle
 10
2.687499999999998
 20
2.9375
 30
0.0
 40
0.1093750000000025
  0
LINE
  5
B1
330
2
100
AcDbEntity
  8
0
  6
HIDDEN
100
AcDbLine
 10
-1.906250000000016
 20
3.5625
 30
0.0
 11
-3.031250000000002
 21
3.5625
 31
0.0
  0
LINE
  5
B2
330
2
100
AcDbEntity
  8
0
100
AcDbLine
 10
-1.906250000000016
 20
3.6875
 30
0.0
 11
-3.031250000000002
 21
3.6875
 31
0.0
  0
LINE
  5
B3
330
2
100
AcDbEntity
  8
0
  6
HIDDEN
100
AcDbLine
 10
3.031249999999998
 20
3.5625
 30
0.0
 11
1.906249999999998
 21
3.5625
 31
0.0
  0
LINE
  5
B4
330
2
100
AcDbEntity
  8
0
100
AcDbLine
 10
3.031249999999998
 20
3.6875
 30
0.0
 11
1.906249999999984
 21
3.6875
 31
0.0
  0
LINE
  5
B5
330
2
100
AcDbEntity
  8
0
100
AcDbLine
 10
-3.031250000000005
 20
12.6875
 30
0.0
 11
-1.906250000000005
 21
12.6875
 31
0.0
  0
LINE
  5
B6
330
2
100
AcDbEntity
  8
0
  6
HIDDEN
100
AcDbLine
 10
-3.031250000000005
 20
10.1875
 30
0.0
 11
-2.0313
 21
10.18750000000001
 31
0.0
  0
CIRCLE
  5
B7
330
2
100
AcDbEntity
  8
0
100
AcDbCircle
 10
-2.656250000000005
 20
12.25
 30
0.0
 40
0.1093750000000025
  0
LINE
  5
B8
330
2
100
AcDbEntity
  8
0
100
AcDbLine
 10
-3.031250000000005
 20
10.0625
 30
0.0
 11
-1.9063
 21
10.0625
 31
0.0
  0
LINE
  5
B9
330
2
100
AcDbEntity
  8
0
100
AcDbLine
 10
-3.031250000000005
 20
12.6875
 30
0.0
 11
-3.031250000000005
 21
10.0625
 31
0.0
  0
LINE
  5
BA
330
2
100
AcDbEntity
  8
0
100
AcDbLine
 10
1.781249999999995
 20
9.937500000000007
 30
0.0
 11
1.781249999999995
 21
7.562500000000004
 31
0.0
  0
LINE
  5
BB
330
2
100
AcDbEntity
  8
0
100
AcDbLine
 10
1.906249999999995
 20
9.937500000000004
 30
0.0
 11
1.906249999999995
 21
7.562500000000004
 31
0.0
  0
LINE
  5
BC
330
2
100
AcDbEntity
  8
0
100
AcDbLine
 10
-1.7813
 20
9.937500000000007
 30
0.0
 11
-1.781300000000007
 21
7.562500000000004
 31
0.0
  0
LINE
  5
BD
330
2
100
AcDbEntity
  8
0
100
AcDbLine
 10
-1.906300000000007
 20
9.937500000000004
 30
0.0
 11
-1.906300000000007
 21
7.562500000000004
 31
0.0
  0
LINE
  5
BE
330
2
100
AcDbEntity
  8
0
100
AcDbLine
 10
-1.906300000000007
 20
7.562500000000004
 30
0.0
 11
1.906249999999995
 21
7.562500000000004
 31
0.0
  0
ARC
  5
BF
330
2
100
AcDbEntity
  8
0
100
AcDbCircle
 10
2.031249999999995
 20
9.937500000000004
 30
0.0
 40
0.125
100
AcDbArc
 50
90.0
 51
179.9999999999999
  0
ARC
  5
C0
330
2
100
AcDbEntity
  8
0
100
AcDbCircle
 10
2.031249999999995
 20
9.937500000000007
 30
0.0
 40
0.25
100
AcDbArc
 50
89.99999999999982
 51
119.9999999999994
  0
LINE
  5
C1
330
2
100
AcDbEntity
  8
0
100
AcDbLine
 10
3.031249999999995
 20
12.6875
 30
0.0
 11
1.906249999999995
 21
12.6875
 31
0.0
  0
LINE
  5
C2
330
2
100
AcDbEntity
  8
0
100
AcDbLine
 10
3.031249999999995
 20
10.0625
 30
0.0
 11
1.906249999999995
 21
10.0625
 31
0.0
  0
LINE
  5
C3
330
2
100
AcDbEntity
  8
0
100
AcDbLine
 10
-1.906250000000005
 20
12.6875
 30
0.0
 11
-1.906250000000005
 21
10.0625
 31
0.0
  0
LINE
  5
C4
330
2
100
AcDbEntity
  8
0
100
AcDbLine
 10
1.906249999999995
 20
12.6875
 30
0.0
 11
1.906249999999995
 21
10.0625
 31
0.0
  0
LINE
  5
C5
330
2
100
AcDbEntity
  8
0
100
AcDbLine
 10
-1.814793649053859
 20
10.0625
 30
0.0
 11
1.81474364905362
 21
10.0625
 31
0.0
  0
ARC
  5
C6
330
2
100
AcDbEntity
  8
0
100
AcDbCircle
 10
-2.031300000000007
 20
9.937500000000004
 30
0.0
 40
0.125
100
AcDbArc
 50
0.0
 51
90.0
  0
ARC
  5
C7
330
2
100
AcDbEntity
  8
0
100
AcDbCircle
 10
-2.0313
 20
9.937500000000007
 30
0.0
 40
0.25
100
AcDbArc
 50
359.9999999999998
 51
59.98676722414936
  0
ARC
  5
C8
330
2
100
AcDbEntity
  8
0
100
AcDbCircle
 10
-2.0313
 20
9.937500000000007
 30
0.0
 40
0.25
100
AcDbArc
 50
59.98676722414936
 51
90.00000000000017
  0
ARC
  5
C9
330
2
100
AcDbEntity
  8
0
100
AcDbCircle
 10
2.031249999999995
 20
9.937500000000007
 30
0.0
 40
0.25
100
AcDbArc
 50
119.9999999999994
 51
179.9999999999999
  0
CIRCLE
  5
CA
330
2
100
AcDbEntity
  8
0
100
AcDbCircle
 10
-2.281250000000005
 20
11.125
 30
0.0
 40
0.1093750000000025
  0
LINE
  5
CB
330
2
100
AcDbEntity
  8
0
100
AcDbLine
 10
3.031249999999995
 20
12.6875
 30
0.0
 11
3.031249999999995
 21
10.0625
 31
0.0
  0
LINE
  5
CC
330
2
100
AcDbEntity
  8
0
  6
HIDDEN
100
AcDbLine
 10
3.031249999999995
 20
10.1875
 30
0.0
 11
2.031249999999995
 21
10.18750000000001
 31
0.0
  0
CIRCLE
  5
CD
330
2
100
AcDbEntity
  8
0
100
AcDbCircle
 10
2.281249999999995
 20
11.125
 30
0.0
 40
0.1093750000000025
  0
CIRCLE
  5
CE
330
2
100
AcDbEntity
  8
0
100
AcDbCircle
 10
2.656249999999995
 20
12.25
 30
0.0
 40
0.1093750000000025
  0
LINE
  5
CF
330
2
100
AcDbEntity
  8
0
100
AcDbLine
 10
8.098576558225659
 20
3.437500000000004
 30
0.0
 11
8.098576558225659
 21
0.4375000000000071
 31
0.0
  0
LINE
  5
D0
330
2
100
AcDbEntity
  8
0
100
AcDbLine
 10
7.973576558225659
 20
3.437500000000004
 30
0.0
 11
7.973576558225659
 21
1.4375
 31
0.0
  0
CIRCLE
  5
D1
330
2
100
AcDbEntity
  8
0
100
AcDbCircle
 10
6.942326558225659
 20
2.4375
 30
0.0
 40
0.078
  0
LINE
  5
D2
330
2
100
AcDbEntity
  8
0
100
AcDbLine
 10
7.973576558225659
 20
2.8125
 30
0.0
 11
6.598576558225652
 21
2.8125
 31
0.0
  0
LINE
  5
D3
330
2
100
AcDbEntity
  8
0
100
AcDbLine
 10
7.973576558225652
 20
0.0
 30
0.0
 11
5.598576558225652
 21
0.0
 31
0.0
  0
LINE
  5
D4
330
2
100
AcDbEntity
  8
0
  6
HIDDEN
100
AcDbLine
 10
7.973576558225652
 20
0.125
 30
0.0
 11
5.598576558225659
 21
0.125
 31
0.0
  0
LINE
  5
D5
330
2
100
AcDbEntity
  8
0
100
AcDbLine
 10
5.598576558225652
 20
0.4375
 30
0.0
 11
6.598576558225652
 21
2.1875
 31
0.0
  0
LINE
  5
D6
330
2
100
AcDbEntity
  8
0
100
AcDbLine
 10
5.598576558225652
 20
0.0
 30
0.0
 11
5.598576558225659
 21
0.4375000000000107
 31
0.0
  0
LINE
  5
D9
330
2
100
AcDbEntity
  8
0
100
AcDbLine
 10
6.598576558225659
 20
2.8125
 30
0.0
 11
6.598576558225659
 21
2.187500000000016
 31
0.0
  0
LINE
  5
DA
330
2
100
AcDbEntity
  8
0
100
AcDbLine
 10
7.973576558225652
 20
0.0
 30
0.0
 11
7.973576558225659
 21
2.124949999999998
 31
0.0
  0
LINE
  5
DB
330
2
100
AcDbEntity
  8
0
100
AcDbLine
 10
7.973576558225659
 20
0.4375000000000071
 30
0.0
 11
8.098576558225659
 21
0.4375000000000071
 31
0.0
  0
LINE
  5
DC
330
2
100
AcDbEntity
  8
0
100
AcDbLine
 10
10.59857655822567
 20
3.6875
 30
0.0
 11
8.223576558225659
 21
3.687500000000004
 31
0.0
  0
LINE
  5
DD
330
2
100
AcDbEntity
  8
0
100
AcDbLine
 10
10.59857655822567
 20
3.562500000000004
 30
0.0
 11
8.223576558225673
 21
3.562500000000004
 31
0.0
  0
ARC
  5
DE
330
2
100
AcDbEntity
  8
0
100
AcDbCircle
 10
8.223576558225659
 20
3.437500000000004
 30
0.0
 40
0.25
100
AcDbArc
 50
90.0
 51
179.9999999999999
  0
ARC
  5
DF
330
2
100
AcDbEntity
  8
0
100
AcDbCircle
 10
8.223576558225673
 20
3.437500000000004
 30
0.0
 40
0.125
100
AcDbArc
 50
90.0
 51
179.9999999999999
  0
LINE
  5
E0
330
2
100
AcDbEntity
  8
0
100
AcDbLine
 10
10.59857655822567
 20
3.6875
 30
0.0
 11
10.59857655822567
 21
3.562500000000007
 31
0.0
  0
LINE
  5
E5
330
2
100
AcDbEntity
  8
0
100
AcDbLine
 10
-8.098576558225656
 20
3.437500000000004
 30
0.0
 11
-8.098576558225656
 21
0.4375000000000071
 31
0.0
  0
LINE
  5
E6
330
2
100
AcDbEntity
  8
0
100
AcDbLine
 10
-7.973576558225648
 20
0.0
 30
0.0
 11
-7.973576558225656
 21
2.124949999999998
 31
0.0
  0
LINE
  5
E7
330
2
100
AcDbEntity
  8
0
100
AcDbLine
 10
-5.598576558225648
 20
0.4375
 30
0.0
 11
-6.598576558225648
 21
2.1875
 31
0.0
  0
LINE
  5
E8
330
2
100
AcDbEntity
  8
0
100
AcDbLine
 10
-7.973576558225648
 20
0.0
 30
0.0
 11
-5.598576558225648
 21
0.0
 31
0.0
  0
LINE
  5
E9
330
2
100
AcDbEntity
  8
0
  6
HIDDEN
100
AcDbLine
 10
-7.973576558225648
 20
0.125
 30
0.0
 11
-5.598576558225656
 21
0.125
 31
0.0
  0
LINE
  5
EA
330
2
100
AcDbEntity
  8
0
100
AcDbLine
 10
-5.598576558225648
 20
0.0
 30
0.0
 11
-5.598576558225656
 21
0.4375000000000107
 31
0.0
  0
LINE
  5
EB
330
2
100
AcDbEntity
  8
0
100
AcDbLine
 10
-7.973576558225656
 20
0.4375000000000071
 30
0.0
 11
-8.098576558225656
 21
0.4375000000000071
 31
0.0
  0
LINE
  5
EC
330
2
100
AcDbEntity
  8
0
100
AcDbLine
 10
-10.59857655822566
 20
3.6875
 30
0.0
 11
-8.223576558225656
 21
3.687500000000004
 31
0.0
  0
LINE
  5
ED
330
2
100
AcDbEntity
  8
0
100
AcDbLine
 10
-10.59857655822567
 20
3.562500000000004
 30
0.0
 11
-8.22357655822567
 21
3.562500000000004
 31
0.0
  0
ARC
  5
EE
330
2
100
AcDbEntity
  8
0
100
AcDbCircle
 10
-8.223576558225656
 20
3.437500000000004
 30
0.0
 40
0.25
100
AcDbArc
 50
0.0000000000000579
 51
90.0
  0
ARC
  5
EF
330
2
100
AcDbEntity
  8
0
100
AcDbCircle
 10
-8.22357655822567
 20
3.437500000000004
 30
0.0
 40
0.125
100
AcDbArc
 50
0.0000000000001088
 51
90.0
  0
LINE
  5
F0
330
2
100
AcDbEntity
  8
0
100
AcDbLine
 10
-7.973576558225656
 20
2.8125
 30
0.0
 11
-6.598576558225648
 21
2.8125
 31
0.0
  0
LINE
  5
F1
330
2
100
AcDbEntity
  8
0
100
AcDbLine
 10
-6.598576558225656
 20
2.8125
 30
0.0
 11
-6.598576558225656
 21
2.187500000000016
 31
0.0
  0
CIRCLE
  5
F4
330
2
100
AcDbEntity
  8
0
100
AcDbCircle
 10
-6.536076558225656
 20
1.1875
 30
0.0
 40
0.078
  0
LINE
  5
F5
330
2
100
AcDbEntity
  8
0
100
AcDbLine
 10
-7.973576558225656
 20
3.437500000000004
 30
0.0
 11
-7.973576558225656
 21
1.4375
 31
0.0
  0
LINE
  5
F6
330
2
100
AcDbEntity
  8
0
100
AcDbLine
 10
-10.59857655822566
 20
3.6875
 30
0.0
 11
-10.59857655822567
 21
3.562500000000007
 31
0.0
  0
ENDSEC
  0
SECTION
  2
OBJECTS
  0
DICTIONARY
  5
7
330
0
100
AcDbDictionary
281
     1
  3
ACAD_COLOR
350
FA
  3
ACAD_GROUP
350
1F
  3
ACAD_LAYOUT
350
B
  3
ACAD_MATERIAL
350
F9
  3
ACAD_MLINESTYLE
350
20
  3
ACAD_PLOTSETTINGS
350
21
  3
ACAD_PLOTSTYLENAME
350
6
  3
ACAD_TABLESTYLE
350
FB
  3
ACDBHEADERROUNDTRIPXREC
350
10B
  3
AcDbVariableDictionary
350
8D
  0
DICTIONARY
  5
FA
102
{ACAD_REACTORS
330
7
102
}
330
7
100
AcDbDictionary
281
     1
  0
DICTIONARY
  5
1F
102
{ACAD_REACTORS
330
7
102
}
330
7
100
AcDbDictionary
281
     1
  0
DICTIONARY
  5
B
102
{ACAD_REACTORS
330
7
102
}
330
7
100
AcDbDictionary
281
     1
  3
Layout1
350
F
  3
Model
350
A
  0
DICTIONARY
  5
F9
102
{ACAD_REACTORS
330
7
102
}
330
7
100
AcDbDictionary
281
     1
  0
DICTIONARY
  5
20
102
{ACAD_REACTORS
330
7
102
}
330
7
100
AcDbDictionary
281
     1
  3
Standard
350
23
  0
DICTIONARY
  5
21
102
{ACAD_REACTORS
330
7
102
}
330
7
100
AcDbDictionary
281
     1
  0
ACDBDICTIONARYWDFLT
  5
6
102
{ACAD_REACTORS
330
7
102
}
330
7
100
AcDbDictionary
281
     1
  3
Normal
350
5
100
AcDbDictionaryWithDefault
340
5
  0
DICTIONARY
  5
FB
102
{ACAD_REACTORS
330
7
102
}
330
7
100
AcDbDictionary
281
     1
  3
Standard
350
FC
  0
DICTIONARY
  5
10B
102
{ACAD_REACTORS
330
7
102
}
330
7
100
AcDbDictionary
281
     1
  3
COLORDICT
350
10C
  3
MATERIALDICT
350
10D
  0
DICTIONARY
  5
8D
102
{ACAD_REACTORS
330
7
102
}
330
7
100
AcDbDictionary
281
     1
  3
CTABLESTYLE
350
108
  3
HIDETEXT
350
10A
  0
LAYOUT
  5
F
102
{ACAD_REACTORS
330
B
102
}
102
{ACAD_XDICTIONARY
360
10E
102
}
330
B
100
AcDbPlotSettings
  1

  2
Client\ssd-helder#\hp psc 2100 series [UPD:PCL4]
  4

  6

 40
0.0
 41
0.0
 42
0.0
 43
0.0
 44
0.0
 45
0.0
 46
0.0
 47
0.0
 48
0.0
 49
0.0
140
0.0
141
0.0
142
1.0
143
1.0
 70
   688
 72
     0
 73
     0
 74
     5
  7

 75
    16
147
1.0
148
0.0
149
0.0
100
AcDbLayout
  1
Layout1
 70
     0
 71
     1
 10
0.0
 20
0.0
 11
12.0
 21
9.0
 12
0.0
 22
0.0
 32
0.0
 14
1.000000000000000E+20
 24
1.000000000000000E+20
 34
1.000000000000000E+20
 15
-1.000000000000000E+20
 25
-1.000000000000000E+20
 35
-1.000000000000000E+20
146
0.0
 13
0.0
 23
0.0
 33
0.0
 16
1.0
 26
0.0
 36
0.0
 17
0.0
 27
1.0
 37
0.0
 76
     0
330
C
  0
LAYOUT
  5
A
102
{ACAD_REACTORS
330
B
102
}
102
{ACAD_XDICTIONARY
360
110
102
}
330
B
100
AcDbPlotSettings
  1

  2
Client\ssd-helder#\hp psc 2100 series [UPD:PCL4]
  4

  6

 40
0.0
 41
0.0
 42
0.0
 43
0.0
 44
0.0
 45
0.0
 46
0.0
 47
0.0
 48
0.0
 49
0.0
140
0.0
141
0.0
142
1.0
143
1.0
 70
  1712
 72
     0
 73
     0
 74
     0
  7

 75
     0
147
1.0
148
0.0
149
0.0
100
AcDbLayout
  1
Model
 70
     1
 71
     0
 10
0.0
 20
0.0
 11
12.0
 21
9.0
 12
0.0
 22
0.0
 32
0.0
 14
0.0
 24
0.0
 34
0.0
 15
0.0
 25
0.0
 35
0.0
146
0.0
 13
0.0
 23
0.0
 33
0.0
 16
1.0
 26
0.0
 36
0.0
 17
0.0
 27
1.0
 37
0.0
 76
     0
330
2
  0
MLINESTYLE
  5
23
102
{ACAD_REACTORS
330
20
102
}
330
20
100
AcDbMlineStyle
  2
STANDARD
 70
     0
  3

 62
   256
 51
90.0
 52
90.0
 71
     2
 49
0.5
 62
   256
  6
BYLAYER
 49
-0.5
 62
   256
  6
BYLAYER
  0
ACDBPLACEHOLDER
  5
5
102
{ACAD_REACTORS
330
6
102
}
330
6
  0
ACAD_PROXY_OBJECT
  5
FC
102
{ACAD_REACTORS
330
FB
102
}
330
FB
100
AcDbProxyObject
 90
      499
 91
      504
 95
   983063
 70
     0
 93
     1841
310
4214DD185B99185C9928B81E85EB51B8AE3F2E07A17AD46E2B8FC02B5E8DC0F42B1CFD028000000C1008070000C3001FDFF8000000C1003FBFF000000182007F7FE00000030400FEFFC00000060801FDFF8000000C1003FBFF00000018200000000000000681FA0B0000001820100E000186003FBFF000000182007F7FE000
310
00030400FEFFC00000060801FDFF8000000C1003FBFF000000182007F7FE000000304000AD7A3703D0AC73F4160000003040201C00030C007F7FE00000030400FEFFC00000060801FDFF8000000C1003FBFF000000182007F7FE00000030400FEFFC000000608000
340
12
340
12
340
12
 94
        0
  0
XRECORD
  5
10C
102
{ACAD_REACTORS
330
10B
102
}
330
10B
100
AcDbXrecord
340
FA
  0
XRECORD
  5
10D
102
{ACAD_REACTORS
330
10B
102
}
330
10B
100
AcDbXrecord
340
F9
  0
DICTIONARYVAR
  5
108
102
{ACAD_REACTORS
330
8D
102
}
330
8D
100
DictionaryVariables
280
     0
  1
STANDARD
  0
DICTIONARYVAR
  5
10A
102
{ACAD_REACTORS
330
8D
102
}
330
8D
100
DictionaryVariables
280
     0
  1
0
  0
DICTIONARY
  5
10E
330
F
100
AcDbDictionary
280
     1
281
     1
  3
ACAD_XREC_ROUNDTRIP
360
10F
  0
DICTIONARY
  5
110
330
A
100
AcDbDictionary
280
     1
281
     1
  3
ACAD_XREC_ROUNDTRIP
360
111
  0
XRECORD
  5
10F
102
{ACAD_REACTORS
330
10E
102
}
330
10E
100
AcDbXrecord
102
SHADEPLOT
 70
     0
102
SHADEPLOTRESLEVEL
 70
     2
102
SHADEPLOTCUSTOMDPI
 70
   300
  0
XRECORD
  5
111
102
{ACAD_REACTORS
330
110
102
}
330
110
100
AcDbXrecord
102
SHADEPLOT
 70
     0
102
SHADEPLOTRESLEVEL
 70
     2
102
SHADEPLOTCUSTOMDPI
 70
   300
  0
ENDSEC
  0
EOF
